  0
SECTION
  2
HEADER
  9
$ACADVER
  1
AC1009
  9
$DWGCODEPAGE
  3
ansi_1252
  9
$INSBASE
 10
0.0
 20
0.0
 30
0.0
  9
$EXTMIN
 10
-2.362205
 20
-0.866142
 30
0.0
  9
$EXTMAX
 10
2.362205
 20
0.866142
 30
0.0
  9
$LIMMIN
 10
0.0
 20
0.0
  9
$LIMMAX
 10
0.0
 20
0.0
  9
$ORTHOMODE
 70
     0
  9
$REGENMODE
 70
     1
  9
$FILLMODE
 70
     1
  9
$QTEXTMODE
 70
     0
  9
$MIRRTEXT
 70
     1
  9
$DRAGMODE
 70
     2
  9
$LTSCALE
 40
1.0
  9
$OSMODE
 70
     0
  9
$ATTMODE
 70
     1
  9
$TEXTSIZE
 40
0.2
  9
$TRACEWID
 40
0.05
  9
$TEXTSTYLE
  7
STANDARD
  9
$CLAYER
  8
0
  9
$CELTYPE
  6
CONTINUOUS
  9
$CECOLOR
 62
   256
  9
$DIMSCALE
 40
1.0
  9
$DIMASZ
 40
0.18
  9
$DIMEXO
 40
0.0625
  9
$DIMDLI
 40
0.38
  9
$DIMRND
 40
0.0
  9
$DIMDLE
 40
0.0
  9
$DIMEXE
 40
0.18
  9
$DIMTP
 40
0.0
  9
$DIMTM
 40
0.0
  9
$DIMTXT
 40
0.18
  9
$DIMCEN
 40
0.09
  9
$DIMTSZ
 40
0.0
  9
$DIMTOL
 70
     0
  9
$DIMLIM
 70
     0
  9
$DIMTIH
 70
     1
  9
$DIMTOH
 70
     1
  9
$DIMSE1
 70
     0
  9
$DIMSE2
 70
     0
  9
$DIMTAD
 70
     0
  9
$DIMZIN
 70
     0
  9
$DIMBLK
  1

  9
$DIMASO
 70
     1
  9
$DIMSHO
 70
     1
  9
$DIMPOST
  1

  9
$DIMAPOST
  1

  9
$DIMALT
 70
     0
  9
$DIMALTD
 70
     2
  9
$DIMALTF
 40
25.4
  9
$DIMLFAC
 40
1.0
  9
$DIMTOFL
 70
     0
  9
$DIMTVP
 40
0.0
  9
$DIMTIX
 70
     0
  9
$DIMSOXD
 70
     0
  9
$DIMSAH
 70
     0
  9
$DIMBLK1
  1

  9
$DIMBLK2
  1

  9
$DIMSTYLE
  2
STANDARD
  9
$DIMCLRD
 70
     0
  9
$DIMCLRE
 70
     0
  9
$DIMCLRT
 70
     0
  9
$DIMTFAC
 40
1.0
  9
$DIMGAP
 40
0.09
  9
$LUNITS
 70
     2
  9
$LUPREC
 70
     4
  9
$AXISMODE
 70
     0
  9
$AXISUNIT
 10
0.0
 20
0.0
  9
$SKETCHINC
 40
0.1
  9
$FILLETRAD
 40
0.0
  9
$AUNITS
 70
     0
  9
$AUPREC
 70
     0
  9
$MENU
  1
acad
  9
$ELEVATION
 40
0.0
  9
$PELEVATION
 40
0.0
  9
$THICKNESS
 40
0.0
  9
$LIMCHECK
 70
     0
  9
$BLIPMODE
 70
     1
  9
$CHAMFERA
 40
0.0
  9
$CHAMFERB
 40
0.0
  9
$SKPOLY
 70
     0
  9
$TDCREATE
 40
0.000000000
  9
$TDUPDATE
 40
0.000000000
  9
$TDINDWG
 40
0.0000000000
  9
$TDUSRTIMER
 40
0.0000000000
  9
$USRTIMER
 70
     1
  9
$ANGBASE
 50
0.0
  9
$ANGDIR
 70
     0
  9
$PDMODE
 70
     0
  9
$PDSIZE
 40
0.0
  9
$PLINEWID
 40
0.0
  9
$COORDS
 70
     0
  9
$SPLFRAME
 70
     0
  9
$SPLINETYPE
 70
     6
  9
$SPLINESEGS
 70
     8
  9
$ATTDIA
 70
     0
  9
$ATTREQ
 70
     1
  9
$HANDLING
 70
     1
  9
$HANDSEED
  5
1DF
  9
$SURFTAB1
 70
     6
  9
$SURFTAB2
 70
     6
  9
$SURFTYPE
 70
     6
  9
$SURFU
 70
     6
  9
$SURFV
 70
     6
  9
$UCSNAME
  2

  9
$UCSORG
 10
0.0
 20
0.0
 30
0.0
  9
$UCSXDIR
 10
1.0
 20
0.0
 30
0.0
  9
$UCSYDIR
 10
0.0
 20
1.0
 30
0.0
  9
$PUCSNAME
  2

  9
$PUCSORG
 10
0.0
 20
0.0
 30
0.0
  9
$PUCSXDIR
 10
1.0
 20
0.0
 30
0.0
  9
$PUCSYDIR
 10
0.0
 20
1.0
 30
0.0
  9
$USERI1
 70
     0
  9
$USERI2
 70
     0
  9
$USERI3
 70
     0
  9
$USERI4
 70
     0
  9
$USERI5
 70
     0
  9
$USERR1
 40
0.0
  9
$USERR2
 40
0.0
  9
$USERR3
 40
0.0
  9
$USERR4
 40
0.0
  9
$USERR5
 40
0.0
  9
$WORLDVIEW
 70
     1
  9
$SHADEDGE
 70
     3
  9
$SHADEDIF
 70
    70
  9
$TILEMODE
 70
     1
  9
$MAXACTVP
 70
    16
  9
$PINSBASE
 10
0.0
 20
0.0
 30
0.0
  9
$PLIMCHECK
 70
     0
  9
$PEXTMIN
 10
1.000000E+20
 20
1.000000E+20
 30
1.000000E+20
  9
$PEXTMAX
 10
-1.000000E+20
 20
-1.000000E+20
 30
-1.000000E+20
  9
$PLIMMIN
 10
0.0
 20
0.0
  9
$PLIMMAX
 10
12.0
 20
9.0
  9
$UNITMODE
 70
     0
  9
$VISRETAIN
 70
     0
  9
$PLINEGEN
 70
     1
  9
$PSLTSCALE
 70
     0
  9
$TREEDEPTH
 70
  3020
  0
ENDSEC
  0
SECTION
  2
TABLES
  0
TABLE
  2
VPORT
 70
     1
  0
VPORT
  2
*ACTIVE
 70
     0
 10
0.0
 20
0.0
 11
1.0
 21
1.0
 12
6.591288
 22
4.579184
 13
0.0
 23
0.0
 14
1.0
 24
1.0
 15
0.0
 25
0.0
 16
0.0
 26
0.0
 36
1.0
 17
0.0
 27
0.0
 37
0.0
 40
9.158369
 41
0.688564
 42
50.0
 43
0.0
 44
0.0
 50
0.0
 51
0.0
 71
     0
 72
   100
 73
     1
 74
     1
 75
     0
 76
     0
 77
     0
 78
     0
  0
ENDTAB
  0
TABLE
  2
LTYPE
 70
     5
  0
LTYPE
  2
CONTINUOUS
 70
    64
  3
Solid line
 72
    65
 73
     0
 40
0.0
  0
LTYPE
  2
CENTER
 70
    64
  3
Center ____ _ ____ _ ____ _ ____ _ ____ _ ____
 72
    65
 73
     4
 40
50.8
 49
31.75
 49
-6.35
 49
6.35
 49
-6.35
  0
LTYPE
  2
HIDDEN
 70
    64
  3
Hidden __ __ __ __ __ __ __ __ __ __ __ __ __ __
 72
    65
 73
     2
 40
9.525
 49
6.35
 49
-3.175
  0
LTYPE
  2
CENTER2
 70
    64
  3
Center (.5x) ___ _ ___ _ ___ _ ___ _ ___ _ ___
 72
    65
 73
     4
 40
28.575
 49
19.05
 49
-3.175
 49
3.175
 49
-3.175
  0
LTYPE
  2
HIDDEN2
 70
    64
  3
Hidden (.5x) _ _ _ _ _ _ _ _ _ _ _ _ _ _ _ _ _
 72
    65
 73
     2
 40
4.7625
 49
3.175
 49
-1.5875
  0
ENDTAB
  0
TABLE
  2
LAYER
 70
     7
  0
LAYER
  2
0
 70
     0
 62
     7
  6
CONTINUOUS
  0
LAYER
  2
TRMODEL1
 70
     0
 62
     7
  6
CONTINUOUS
  0
LAYER
  2
TRMODEL3
 70
     0
 62
     7
  6
CONTINUOUS
  0
LAYER
  2
TRDETAIL2
 70
     0
 62
     7
  6
CONTINUOUS
  0
LAYER
  2
TRDETAIL3
 70
     0
 62
     7
  6
CONTINUOUS
  0
LAYER
  2
TRDETAIL4
 70
     0
 62
     7
  6
CONTINUOUS
  0
LAYER
  2
TRDETAIL5
 70
     0
 62
     7
  6
CONTINUOUS
  0
ENDTAB
  0
TABLE
  2
STYLE
 70
     1
  0
STYLE
  2
STANDARD
 70
     0
 40
0.0
 41
1.0
 50
0.0
 71
     0
 42
0.0
  3
txt
  4

  0
ENDTAB
  0
TABLE
  2
VIEW
 70
     0
  0
ENDTAB
  0
TABLE
  2
UCS
 70
     0
  0
ENDTAB
  0
TABLE
  2
APPID
 70
     1
  0
APPID
  2
ACAD
 70
     0
  0
ENDTAB
  0
TABLE
  2
DIMSTYLE
 70
     1
  0
DIMSTYLE
  2
STANDARD
 70
     0
  3

  4

  5

  6

  7

 40
1.0
 41
0.18
 42
0.0625
 43
0.38
 44
0.18
 45
0.0
 46
0.0
 47
0.0
 48
0.0
 71
     0
 72
     0
 73
     1
 74
     1
 75
     0
 76
     0
 77
     0
 78
     0
140
0.18
141
0.09
142
0.0
143
25.4
144
1.0
145
0.0
146
1.0
147
0.09
170
     0
171
     2
172
     0
173
     0
174
     0
175
     0
176
     0
177
     0
178
     0
  0
ENDTAB
  0
ENDSEC
  0
SECTION
  2
BLOCKS
  0
ENDSEC
  0
SECTION
  2
ENTITIES
  0
LINE
  8
TRMODEL1
  6
CONTINUOUS
 62
     7
  5
110
 10
1.720472
 20
0.689016
 30
0.0
 11
1.720472
 21
0.684216
 31
0.0
  0
LINE
  8
TRMODEL1
  6
CONTINUOUS
 62
     7
  5
111
 10
1.720472
 20
0.866142
 30
0.0
 11
1.720472
 21
0.740976
 31
0.0
  0
LINE
  8
TRMODEL1
  6
CONTINUOUS
 62
     7
  5
112
 10
-0.059055
 20
0.684216
 30
0.0
 11
-1.720472
 21
0.684216
 31
0.0
  0
LINE
  8
TRMODEL1
  6
CONTINUOUS
 62
     7
  5
113
 10
1.720472
 20
0.684216
 30
0.0
 11
0.059055
 21
0.684216
 31
0.0
  0
LINE
  8
TRMODEL1
  6
CONTINUOUS
 62
     7
  5
114
 10
-1.720472
 20
0.740976
 30
0.0
 11
-1.720472
 21
0.866142
 31
0.0
  0
LINE
  8
TRMODEL1
  6
CONTINUOUS
 62
     7
  5
115
 10
-1.720472
 20
0.684216
 30
0.0
 11
-1.720472
 21
0.689016
 31
0.0
  0
LINE
  8
TRMODEL1
  6
CONTINUOUS
 62
     7
  5
116
 10
0.059055
 20
0.70798
 30
0.0
 11
-0.059055
 21
0.70798
 31
0.0
  0
LINE
  8
TRMODEL1
  6
CONTINUOUS
 62
     7
  5
117
 10
1.720472
 20
0.689016
 30
0.0
 11
1.720472
 21
0.695738
 31
0.0
  0
LINE
  8
TRMODEL1
  6
CONTINUOUS
 62
     7
  5
118
 10
1.720472
 20
0.695738
 30
0.0
 11
1.623372
 21
0.708063
 31
0.0
  0
LINE
  8
TRMODEL1
  6
CONTINUOUS
 62
     7
  5
119
 10
1.623372
 20
0.708063
 30
0.0
 11
1.526059
 21
0.719671
 31
0.0
  0
LINE
  8
TRMODEL1
  6
CONTINUOUS
 62
     7
  5
11A
 10
1.526059
 20
0.719671
 30
0.0
 11
1.428544
 21
0.730562
 31
0.0
  0
LINE
  8
TRMODEL1
  6
CONTINUOUS
 62
     7
  5
11B
 10
1.428544
 20
0.730562
 30
0.0
 11
1.330842
 21
0.740732
 31
0.0
  0
LINE
  8
TRMODEL1
  6
CONTINUOUS
 62
     7
  5
11C
 10
1.330842
 20
0.740732
 30
0.0
 11
1.232965
 21
0.750182
 31
0.0
  0
LINE
  8
TRMODEL1
  6
CONTINUOUS
 62
     7
  5
11D
 10
1.232965
 20
0.750182
 30
0.0
 11
1.134925
 21
0.75891
 31
0.0
  0
LINE
  8
TRMODEL1
  6
CONTINUOUS
 62
     7
  5
11E
 10
1.134925
 20
0.75891
 30
0.0
 11
1.036736
 21
0.766915
 31
0.0
  0
LINE
  8
TRMODEL1
  6
CONTINUOUS
 62
     7
  5
11F
 10
1.036736
 20
0.766915
 30
0.0
 11
0.938411
 21
0.774195
 31
0.0
  0
LINE
  8
TRMODEL1
  6
CONTINUOUS
 62
     7
  5
120
 10
0.938411
 20
0.774195
 30
0.0
 11
0.839963
 21
0.78075
 31
0.0
  0
LINE
  8
TRMODEL1
  6
CONTINUOUS
 62
     7
  5
121
 10
0.839963
 20
0.78075
 30
0.0
 11
0.741404
 21
0.786579
 31
0.0
  0
LINE
  8
TRMODEL1
  6
CONTINUOUS
 62
     7
  5
122
 10
0.741404
 20
0.786579
 30
0.0
 11
0.642747
 21
0.79168
 31
0.0
  0
LINE
  8
TRMODEL1
  6
CONTINUOUS
 62
     7
  5
123
 10
0.642747
 20
0.79168
 30
0.0
 11
0.544006
 21
0.796055
 31
0.0
  0
LINE
  8
TRMODEL1
  6
CONTINUOUS
 62
     7
  5
124
 10
0.544006
 20
0.796055
 30
0.0
 11
0.445193
 21
0.799701
 31
0.0
  0
LINE
  8
TRMODEL1
  6
CONTINUOUS
 62
     7
  5
125
 10
0.445193
 20
0.799701
 30
0.0
 11
0.346322
 21
0.802618
 31
0.0
  0
LINE
  8
TRMODEL1
  6
CONTINUOUS
 62
     7
  5
126
 10
0.346322
 20
0.802618
 30
0.0
 11
0.247406
 21
0.804807
 31
0.0
  0
LINE
  8
TRMODEL1
  6
CONTINUOUS
 62
     7
  5
127
 10
0.247406
 20
0.804807
 30
0.0
 11
0.148456
 21
0.806266
 31
0.0
  0
LINE
  8
TRMODEL1
  6
CONTINUOUS
 62
     7
  5
128
 10
0.148456
 20
0.806266
 30
0.0
 11
0.049488
 21
0.806995
 31
0.0
  0
LINE
  8
TRMODEL1
  6
CONTINUOUS
 62
     7
  5
129
 10
0.049488
 20
0.806995
 30
0.0
 11
-0.049488
 21
0.806995
 31
0.0
  0
LINE
  8
TRMODEL1
  6
CONTINUOUS
 62
     7
  5
12A
 10
-0.049488
 20
0.806995
 30
0.0
 11
-0.148456
 21
0.806266
 31
0.0
  0
LINE
  8
TRMODEL1
  6
CONTINUOUS
 62
     7
  5
12B
 10
-0.148456
 20
0.806266
 30
0.0
 11
-0.247406
 21
0.804807
 31
0.0
  0
LINE
  8
TRMODEL1
  6
CONTINUOUS
 62
     7
  5
12C
 10
-0.247406
 20
0.804807
 30
0.0
 11
-0.346322
 21
0.802618
 31
0.0
  0
LINE
  8
TRMODEL1
  6
CONTINUOUS
 62
     7
  5
12D
 10
-0.346322
 20
0.802618
 30
0.0
 11
-0.445193
 21
0.799701
 31
0.0
  0
LINE
  8
TRMODEL1
  6
CONTINUOUS
 62
     7
  5
12E
 10
-0.445193
 20
0.799701
 30
0.0
 11
-0.544006
 21
0.796055
 31
0.0
  0
LINE
  8
TRMODEL1
  6
CONTINUOUS
 62
     7
  5
12F
 10
-0.544006
 20
0.796055
 30
0.0
 11
-0.642747
 21
0.79168
 31
0.0
  0
LINE
  8
TRMODEL1
  6
CONTINUOUS
 62
     7
  5
130
 10
-0.642747
 20
0.79168
 30
0.0
 11
-0.741404
 21
0.786579
 31
0.0
  0
LINE
  8
TRMODEL1
  6
CONTINUOUS
 62
     7
  5
131
 10
-0.741404
 20
0.786579
 30
0.0
 11
-0.839963
 21
0.78075
 31
0.0
  0
LINE
  8
TRMODEL1
  6
CONTINUOUS
 62
     7
  5
132
 10
-0.839963
 20
0.78075
 30
0.0
 11
-0.938411
 21
0.774195
 31
0.0
  0
LINE
  8
TRMODEL1
  6
CONTINUOUS
 62
     7
  5
133
 10
-0.938411
 20
0.774195
 30
0.0
 11
-1.036736
 21
0.766915
 31
0.0
  0
LINE
  8
TRMODEL1
  6
CONTINUOUS
 62
     7
  5
134
 10
-1.036736
 20
0.766915
 30
0.0
 11
-1.134925
 21
0.75891
 31
0.0
  0
LINE
  8
TRMODEL1
  6
CONTINUOUS
 62
     7
  5
135
 10
-1.134925
 20
0.75891
 30
0.0
 11
-1.232965
 21
0.750182
 31
0.0
  0
LINE
  8
TRMODEL1
  6
CONTINUOUS
 62
     7
  5
136
 10
-1.232965
 20
0.750182
 30
0.0
 11
-1.330842
 21
0.740732
 31
0.0
  0
LINE
  8
TRMODEL1
  6
CONTINUOUS
 62
     7
  5
137
 10
-1.330842
 20
0.740732
 30
0.0
 11
-1.428544
 21
0.730562
 31
0.0
  0
LINE
  8
TRMODEL1
  6
CONTINUOUS
 62
     7
  5
138
 10
-1.428544
 20
0.730562
 30
0.0
 11
-1.526059
 21
0.719671
 31
0.0
  0
LINE
  8
TRMODEL1
  6
CONTINUOUS
 62
     7
  5
139
 10
-1.526059
 20
0.719671
 30
0.0
 11
-1.623372
 21
0.708063
 31
0.0
  0
LINE
  8
TRMODEL1
  6
CONTINUOUS
 62
     7
  5
13A
 10
-1.623372
 20
0.708063
 30
0.0
 11
-1.720472
 21
0.695738
 31
0.0
  0
LINE
  8
TRMODEL1
  6
CONTINUOUS
 62
     7
  5
13B
 10
-1.720472
 20
0.695738
 30
0.0
 11
-1.720472
 21
0.689016
 31
0.0
  0
LINE
  8
TRMODEL1
  6
CONTINUOUS
 62
     7
  5
13C
 10
1.720472
 20
0.695738
 30
0.0
 11
1.720472
 21
0.740976
 31
0.0
  0
LINE
  8
TRMODEL1
  6
CONTINUOUS
 62
     7
  5
13D
 10
-1.720472
 20
0.695738
 30
0.0
 11
-1.720472
 21
0.740976
 31
0.0
  0
LINE
  8
TRMODEL1
  6
CONTINUOUS
 62
     7
  5
13E
 10
1.720472
 20
0.740976
 30
0.0
 11
1.623372
 21
0.753302
 31
0.0
  0
LINE
  8
TRMODEL1
  6
CONTINUOUS
 62
     7
  5
13F
 10
1.623372
 20
0.753302
 30
0.0
 11
1.526059
 21
0.76491
 31
0.0
  0
LINE
  8
TRMODEL1
  6
CONTINUOUS
 62
     7
  5
140
 10
1.526059
 20
0.76491
 30
0.0
 11
1.428544
 21
0.7758
 31
0.0
  0
LINE
  8
TRMODEL1
  6
CONTINUOUS
 62
     7
  5
141
 10
1.428544
 20
0.7758
 30
0.0
 11
1.330842
 21
0.785971
 31
0.0
  0
LINE
  8
TRMODEL1
  6
CONTINUOUS
 62
     7
  5
142
 10
1.330842
 20
0.785971
 30
0.0
 11
1.232965
 21
0.795421
 31
0.0
  0
LINE
  8
TRMODEL1
  6
CONTINUOUS
 62
     7
  5
143
 10
1.232965
 20
0.795421
 30
0.0
 11
1.134925
 21
0.804149
 31
0.0
  0
LINE
  8
TRMODEL1
  6
CONTINUOUS
 62
     7
  5
144
 10
1.134925
 20
0.804149
 30
0.0
 11
1.036736
 21
0.812154
 31
0.0
  0
LINE
  8
TRMODEL1
  6
CONTINUOUS
 62
     7
  5
145
 10
1.036736
 20
0.812154
 30
0.0
 11
0.938411
 21
0.819434
 31
0.0
  0
LINE
  8
TRMODEL1
  6
CONTINUOUS
 62
     7
  5
146
 10
0.938411
 20
0.819434
 30
0.0
 11
0.839963
 21
0.825989
 31
0.0
  0
LINE
  8
TRMODEL1
  6
CONTINUOUS
 62
     7
  5
147
 10
0.839963
 20
0.825989
 30
0.0
 11
0.741404
 21
0.831817
 31
0.0
  0
LINE
  8
TRMODEL1
  6
CONTINUOUS
 62
     7
  5
148
 10
0.741404
 20
0.831817
 30
0.0
 11
0.642747
 21
0.836919
 31
0.0
  0
LINE
  8
TRMODEL1
  6
CONTINUOUS
 62
     7
  5
149
 10
0.642747
 20
0.836919
 30
0.0
 11
0.544006
 21
0.841294
 31
0.0
  0
LINE
  8
TRMODEL1
  6
CONTINUOUS
 62
     7
  5
14A
 10
0.544006
 20
0.841294
 30
0.0
 11
0.445193
 21
0.84494
 31
0.0
  0
LINE
  8
TRMODEL1
  6
CONTINUOUS
 62
     7
  5
14B
 10
0.445193
 20
0.84494
 30
0.0
 11
0.346322
 21
0.847857
 31
0.0
  0
LINE
  8
TRMODEL1
  6
CONTINUOUS
 62
     7
  5
14C
 10
0.346322
 20
0.847857
 30
0.0
 11
0.247406
 21
0.850046
 31
0.0
  0
LINE
  8
TRMODEL1
  6
CONTINUOUS
 62
     7
  5
14D
 10
0.247406
 20
0.850046
 30
0.0
 11
0.148456
 21
0.851505
 31
0.0
  0
LINE
  8
TRMODEL1
  6
CONTINUOUS
 62
     7
  5
14E
 10
0.148456
 20
0.851505
 30
0.0
 11
0.049488
 21
0.852234
 31
0.0
  0
LINE
  8
TRMODEL1
  6
CONTINUOUS
 62
     7
  5
14F
 10
0.049488
 20
0.852234
 30
0.0
 11
-0.049488
 21
0.852234
 31
0.0
  0
LINE
  8
TRMODEL1
  6
CONTINUOUS
 62
     7
  5
150
 10
-0.049488
 20
0.852234
 30
0.0
 11
-0.148456
 21
0.851505
 31
0.0
  0
LINE
  8
TRMODEL1
  6
CONTINUOUS
 62
     7
  5
151
 10
-0.148456
 20
0.851505
 30
0.0
 11
-0.247406
 21
0.850046
 31
0.0
  0
LINE
  8
TRMODEL1
  6
CONTINUOUS
 62
     7
  5
152
 10
-0.247406
 20
0.850046
 30
0.0
 11
-0.346322
 21
0.847857
 31
0.0
  0
LINE
  8
TRMODEL1
  6
CONTINUOUS
 62
     7
  5
153
 10
-0.346322
 20
0.847857
 30
0.0
 11
-0.445193
 21
0.84494
 31
0.0
  0
LINE
  8
TRMODEL1
  6
CONTINUOUS
 62
     7
  5
154
 10
-0.445193
 20
0.84494
 30
0.0
 11
-0.544006
 21
0.841294
 31
0.0
  0
LINE
  8
TRMODEL1
  6
CONTINUOUS
 62
     7
  5
155
 10
-0.544006
 20
0.841294
 30
0.0
 11
-0.642747
 21
0.836919
 31
0.0
  0
LINE
  8
TRMODEL1
  6
CONTINUOUS
 62
     7
  5
156
 10
-0.642747
 20
0.836919
 30
0.0
 11
-0.741404
 21
0.831817
 31
0.0
  0
LINE
  8
TRMODEL1
  6
CONTINUOUS
 62
     7
  5
157
 10
-0.741404
 20
0.831817
 30
0.0
 11
-0.839963
 21
0.825989
 31
0.0
  0
LINE
  8
TRMODEL1
  6
CONTINUOUS
 62
     7
  5
158
 10
-0.839963
 20
0.825989
 30
0.0
 11
-0.938411
 21
0.819434
 31
0.0
  0
LINE
  8
TRMODEL1
  6
CONTINUOUS
 62
     7
  5
159
 10
-0.938411
 20
0.819434
 30
0.0
 11
-1.036736
 21
0.812154
 31
0.0
  0
LINE
  8
TRMODEL1
  6
CONTINUOUS
 62
     7
  5
15A
 10
-1.036736
 20
0.812154
 30
0.0
 11
-1.134925
 21
0.804149
 31
0.0
  0
LINE
  8
TRMODEL1
  6
CONTINUOUS
 62
     7
  5
15B
 10
-1.134925
 20
0.804149
 30
0.0
 11
-1.232965
 21
0.795421
 31
0.0
  0
LINE
  8
TRMODEL1
  6
CONTINUOUS
 62
     7
  5
15C
 10
-1.232965
 20
0.795421
 30
0.0
 11
-1.330842
 21
0.785971
 31
0.0
  0
LINE
  8
TRMODEL1
  6
CONTINUOUS
 62
     7
  5
15D
 10
-1.330842
 20
0.785971
 30
0.0
 11
-1.428544
 21
0.7758
 31
0.0
  0
LINE
  8
TRMODEL1
  6
CONTINUOUS
 62
     7
  5
15E
 10
-1.428544
 20
0.7758
 30
0.0
 11
-1.526059
 21
0.76491
 31
0.0
  0
LINE
  8
TRMODEL1
  6
CONTINUOUS
 62
     7
  5
15F
 10
-1.526059
 20
0.76491
 30
0.0
 11
-1.623372
 21
0.753302
 31
0.0
  0
LINE
  8
TRMODEL1
  6
CONTINUOUS
 62
     7
  5
160
 10
-1.623372
 20
0.753302
 30
0.0
 11
-1.720472
 21
0.740976
 31
0.0
  0
LINE
  8
TRMODEL1
  6
CONTINUOUS
 62
     7
  5
161
 10
-0.059055
 20
0.866142
 30
0.0
 11
-0.059055
 21
0.852195
 31
0.0
  0
LINE
  8
TRMODEL1
  6
CONTINUOUS
 62
     7
  5
162
 10
-0.059055
 20
0.70798
 30
0.0
 11
-0.059055
 21
0.684216
 31
0.0
  0
LINE
  8
TRMODEL1
  6
CONTINUOUS
 62
     7
  5
163
 10
0.059055
 20
0.866142
 30
0.0
 11
0.059055
 21
0.852195
 31
0.0
  0
LINE
  8
TRMODEL1
  6
CONTINUOUS
 62
     7
  5
164
 10
0.059055
 20
0.866142
 30
0.0
 11
-0.059055
 21
0.866142
 31
0.0
  0
LINE
  8
TRMODEL1
  6
CONTINUOUS
 62
     7
  5
165
 10
1.720472
 20
0.740976
 30
0.0
 11
1.673605
 21
0.747018
 31
0.0
  0
LINE
  8
TRMODEL1
  6
CONTINUOUS
 62
     7
  5
166
 10
1.673605
 20
0.747018
 30
0.0
 11
1.626687
 21
0.752893
 31
0.0
  0
LINE
  8
TRMODEL1
  6
CONTINUOUS
 62
     7
  5
167
 10
1.626687
 20
0.752893
 30
0.0
 11
1.579718
 21
0.758601
 31
0.0
  0
LINE
  8
TRMODEL1
  6
CONTINUOUS
 62
     7
  5
168
 10
1.579718
 20
0.758601
 30
0.0
 11
1.532701
 21
0.764141
 31
0.0
  0
LINE
  8
TRMODEL1
  6
CONTINUOUS
 62
     7
  5
169
 10
1.532701
 20
0.764141
 30
0.0
 11
1.485637
 21
0.769514
 31
0.0
  0
LINE
  8
TRMODEL1
  6
CONTINUOUS
 62
     7
  5
16A
 10
1.485637
 20
0.769514
 30
0.0
 11
1.438527
 21
0.774719
 31
0.0
  0
LINE
  8
TRMODEL1
  6
CONTINUOUS
 62
     7
  5
16B
 10
1.438527
 20
0.774719
 30
0.0
 11
1.391374
 21
0.779757
 31
0.0
  0
LINE
  8
TRMODEL1
  6
CONTINUOUS
 62
     7
  5
16C
 10
1.391374
 20
0.779757
 30
0.0
 11
1.344177
 21
0.784627
 31
0.0
  0
LINE
  8
TRMODEL1
  6
CONTINUOUS
 62
     7
  5
16D
 10
1.344177
 20
0.784627
 30
0.0
 11
1.29694
 21
0.789328
 31
0.0
  0
LINE
  8
TRMODEL1
  6
CONTINUOUS
 62
     7
  5
16E
 10
1.29694
 20
0.789328
 30
0.0
 11
1.249662
 21
0.793861
 31
0.0
  0
LINE
  8
TRMODEL1
  6
CONTINUOUS
 62
     7
  5
16F
 10
1.249662
 20
0.793861
 30
0.0
 11
1.202346
 21
0.798226
 31
0.0
  0
LINE
  8
TRMODEL1
  6
CONTINUOUS
 62
     7
  5
170
 10
1.202346
 20
0.798226
 30
0.0
 11
1.154994
 21
0.802422
 31
0.0
  0
LINE
  8
TRMODEL1
  6
CONTINUOUS
 62
     7
  5
171
 10
1.154994
 20
0.802422
 30
0.0
 11
1.107606
 21
0.80645
 31
0.0
  0
LINE
  8
TRMODEL1
  6
CONTINUOUS
 62
     7
  5
172
 10
1.107606
 20
0.80645
 30
0.0
 11
1.060184
 21
0.810309
 31
0.0
  0
LINE
  8
TRMODEL1
  6
CONTINUOUS
 62
     7
  5
173
 10
1.060184
 20
0.810309
 30
0.0
 11
1.012729
 21
0.813999
 31
0.0
  0
LINE
  8
TRMODEL1
  6
CONTINUOUS
 62
     7
  5
174
 10
1.012729
 20
0.813999
 30
0.0
 11
0.965243
 21
0.81752
 31
0.0
  0
LINE
  8
TRMODEL1
  6
CONTINUOUS
 62
     7
  5
175
 10
0.965243
 20
0.81752
 30
0.0
 11
0.917728
 21
0.820872
 31
0.0
  0
LINE
  8
TRMODEL1
  6
CONTINUOUS
 62
     7
  5
176
 10
0.917728
 20
0.820872
 30
0.0
 11
0.870185
 21
0.824054
 31
0.0
  0
LINE
  8
TRMODEL1
  6
CONTINUOUS
 62
     7
  5
177
 10
0.870185
 20
0.824054
 30
0.0
 11
0.822615
 21
0.827068
 31
0.0
  0
LINE
  8
TRMODEL1
  6
CONTINUOUS
 62
     7
  5
178
 10
0.822615
 20
0.827068
 30
0.0
 11
0.775019
 21
0.829912
 31
0.0
  0
LINE
  8
TRMODEL1
  6
CONTINUOUS
 62
     7
  5
179
 10
0.775019
 20
0.829912
 30
0.0
 11
0.7274
 21
0.832586
 31
0.0
  0
LINE
  8
TRMODEL1
  6
CONTINUOUS
 62
     7
  5
17A
 10
0.7274
 20
0.832586
 30
0.0
 11
0.679759
 21
0.835091
 31
0.0
  0
LINE
  8
TRMODEL1
  6
CONTINUOUS
 62
     7
  5
17B
 10
0.679759
 20
0.835091
 30
0.0
 11
0.632096
 21
0.837426
 31
0.0
  0
LINE
  8
TRMODEL1
  6
CONTINUOUS
 62
     7
  5
17C
 10
0.632096
 20
0.837426
 30
0.0
 11
0.584415
 21
0.839592
 31
0.0
  0
LINE
  8
TRMODEL1
  6
CONTINUOUS
 62
     7
  5
17D
 10
0.584415
 20
0.839592
 30
0.0
 11
0.536715
 21
0.841588
 31
0.0
  0
LINE
  8
TRMODEL1
  6
CONTINUOUS
 62
     7
  5
17E
 10
0.536715
 20
0.841588
 30
0.0
 11
0.488999
 21
0.843413
 31
0.0
  0
LINE
  8
TRMODEL1
  6
CONTINUOUS
 62
     7
  5
17F
 10
0.488999
 20
0.843413
 30
0.0
 11
0.441268
 21
0.845069
 31
0.0
  0
LINE
  8
TRMODEL1
  6
CONTINUOUS
 62
     7
  5
180
 10
0.441268
 20
0.845069
 30
0.0
 11
0.393523
 21
0.846555
 31
0.0
  0
LINE
  8
TRMODEL1
  6
CONTINUOUS
 62
     7
  5
181
 10
0.393523
 20
0.846555
 30
0.0
 11
0.345767
 21
0.847871
 31
0.0
  0
LINE
  8
TRMODEL1
  6
CONTINUOUS
 62
     7
  5
182
 10
0.345767
 20
0.847871
 30
0.0
 11
0.297999
 21
0.849017
 31
0.0
  0
LINE
  8
TRMODEL1
  6
CONTINUOUS
 62
     7
  5
183
 10
0.297999
 20
0.849017
 30
0.0
 11
0.250223
 21
0.849993
 31
0.0
  0
LINE
  8
TRMODEL1
  6
CONTINUOUS
 62
     7
  5
184
 10
0.250223
 20
0.849993
 30
0.0
 11
0.202439
 21
0.850799
 31
0.0
  0
LINE
  8
TRMODEL1
  6
CONTINUOUS
 62
     7
  5
185
 10
0.202439
 20
0.850799
 30
0.0
 11
0.154649
 21
0.851435
 31
0.0
  0
LINE
  8
TRMODEL1
  6
CONTINUOUS
 62
     7
  5
186
 10
0.154649
 20
0.851435
 30
0.0
 11
0.106853
 21
0.8519
 31
0.0
  0
LINE
  8
TRMODEL1
  6
CONTINUOUS
 62
     7
  5
187
 10
0.106853
 20
0.8519
 30
0.0
 11
0.059055
 21
0.852196
 31
0.0
  0
LINE
  8
TRMODEL1
  6
CONTINUOUS
 62
     7
  5
188
 10
-0.059055
 20
0.852196
 30
0.0
 11
-0.106853
 21
0.8519
 31
0.0
  0
LINE
  8
TRMODEL1
  6
CONTINUOUS
 62
     7
  5
189
 10
-0.106853
 20
0.8519
 30
0.0
 11
-0.154649
 21
0.851435
 31
0.0
  0
LINE
  8
TRMODEL1
  6
CONTINUOUS
 62
     7
  5
18A
 10
-0.154649
 20
0.851435
 30
0.0
 11
-0.202439
 21
0.850799
 31
0.0
  0
LINE
  8
TRMODEL1
  6
CONTINUOUS
 62
     7
  5
18B
 10
-0.202439
 20
0.850799
 30
0.0
 11
-0.250223
 21
0.849993
 31
0.0
  0
LINE
  8
TRMODEL1
  6
CONTINUOUS
 62
     7
  5
18C
 10
-0.250223
 20
0.849993
 30
0.0
 11
-0.297999
 21
0.849017
 31
0.0
  0
LINE
  8
TRMODEL1
  6
CONTINUOUS
 62
     7
  5
18D
 10
-0.297999
 20
0.849017
 30
0.0
 11
-0.345767
 21
0.847871
 31
0.0
  0
LINE
  8
TRMODEL1
  6
CONTINUOUS
 62
     7
  5
18E
 10
-0.345767
 20
0.847871
 30
0.0
 11
-0.393523
 21
0.846555
 31
0.0
  0
LINE
  8
TRMODEL1
  6
CONTINUOUS
 62
     7
  5
18F
 10
-0.393523
 20
0.846555
 30
0.0
 11
-0.441268
 21
0.845069
 31
0.0
  0
LINE
  8
TRMODEL1
  6
CONTINUOUS
 62
     7
  5
190
 10
-0.441268
 20
0.845069
 30
0.0
 11
-0.488999
 21
0.843413
 31
0.0
  0
LINE
  8
TRMODEL1
  6
CONTINUOUS
 62
     7
  5
191
 10
-0.488999
 20
0.843413
 30
0.0
 11
-0.536715
 21
0.841588
 31
0.0
  0
LINE
  8
TRMODEL1
  6
CONTINUOUS
 62
     7
  5
192
 10
-0.536715
 20
0.841588
 30
0.0
 11
-0.584415
 21
0.839592
 31
0.0
  0
LINE
  8
TRMODEL1
  6
CONTINUOUS
 62
     7
  5
193
 10
-0.584415
 20
0.839592
 30
0.0
 11
-0.632096
 21
0.837426
 31
0.0
  0
LINE
  8
TRMODEL1
  6
CONTINUOUS
 62
     7
  5
194
 10
-0.632096
 20
0.837426
 30
0.0
 11
-0.679759
 21
0.835091
 31
0.0
  0
LINE
  8
TRMODEL1
  6
CONTINUOUS
 62
     7
  5
195
 10
-0.679759
 20
0.835091
 30
0.0
 11
-0.7274
 21
0.832586
 31
0.0
  0
LINE
  8
TRMODEL1
  6
CONTINUOUS
 62
     7
  5
196
 10
-0.7274
 20
0.832586
 30
0.0
 11
-0.775019
 21
0.829912
 31
0.0
  0
LINE
  8
TRMODEL1
  6
CONTINUOUS
 62
     7
  5
197
 10
-0.775019
 20
0.829912
 30
0.0
 11
-0.822615
 21
0.827068
 31
0.0
  0
LINE
  8
TRMODEL1
  6
CONTINUOUS
 62
     7
  5
198
 10
-0.822615
 20
0.827068
 30
0.0
 11
-0.870185
 21
0.824054
 31
0.0
  0
LINE
  8
TRMODEL1
  6
CONTINUOUS
 62
     7
  5
199
 10
-0.870185
 20
0.824054
 30
0.0
 11
-0.917728
 21
0.820872
 31
0.0
  0
LINE
  8
TRMODEL1
  6
CONTINUOUS
 62
     7
  5
19A
 10
-0.917728
 20
0.820872
 30
0.0
 11
-0.965243
 21
0.81752
 31
0.0
  0
LINE
  8
TRMODEL1
  6
CONTINUOUS
 62
     7
  5
19B
 10
-0.965243
 20
0.81752
 30
0.0
 11
-1.012729
 21
0.813999
 31
0.0
  0
LINE
  8
TRMODEL1
  6
CONTINUOUS
 62
     7
  5
19C
 10
-1.012729
 20
0.813999
 30
0.0
 11
-1.060184
 21
0.810309
 31
0.0
  0
LINE
  8
TRMODEL1
  6
CONTINUOUS
 62
     7
  5
19D
 10
-1.060184
 20
0.810309
 30
0.0
 11
-1.107606
 21
0.80645
 31
0.0
  0
LINE
  8
TRMODEL1
  6
CONTINUOUS
 62
     7
  5
19E
 10
-1.107606
 20
0.80645
 30
0.0
 11
-1.154994
 21
0.802422
 31
0.0
  0
LINE
  8
TRMODEL1
  6
CONTINUOUS
 62
     7
  5
19F
 10
-1.154994
 20
0.802422
 30
0.0
 11
-1.202346
 21
0.798226
 31
0.0
  0
LINE
  8
TRMODEL1
  6
CONTINUOUS
 62
     7
  5
1A0
 10
-1.202346
 20
0.798226
 30
0.0
 11
-1.249662
 21
0.793861
 31
0.0
  0
LINE
  8
TRMODEL1
  6
CONTINUOUS
 62
     7
  5
1A1
 10
-1.249662
 20
0.793861
 30
0.0
 11
-1.29694
 21
0.789328
 31
0.0
  0
LINE
  8
TRMODEL1
  6
CONTINUOUS
 62
     7
  5
1A2
 10
-1.29694
 20
0.789328
 30
0.0
 11
-1.344177
 21
0.784627
 31
0.0
  0
LINE
  8
TRMODEL1
  6
CONTINUOUS
 62
     7
  5
1A3
 10
-1.344177
 20
0.784627
 30
0.0
 11
-1.391374
 21
0.779757
 31
0.0
  0
LINE
  8
TRMODEL1
  6
CONTINUOUS
 62
     7
  5
1A4
 10
-1.391374
 20
0.779757
 30
0.0
 11
-1.438527
 21
0.774719
 31
0.0
  0
LINE
  8
TRMODEL1
  6
CONTINUOUS
 62
     7
  5
1A5
 10
-1.438527
 20
0.774719
 30
0.0
 11
-1.485637
 21
0.769514
 31
0.0
  0
LINE
  8
TRMODEL1
  6
CONTINUOUS
 62
     7
  5
1A6
 10
-1.485637
 20
0.769514
 30
0.0
 11
-1.532701
 21
0.764141
 31
0.0
  0
LINE
  8
TRMODEL1
  6
CONTINUOUS
 62
     7
  5
1A7
 10
-1.532701
 20
0.764141
 30
0.0
 11
-1.579718
 21
0.758601
 31
0.0
  0
LINE
  8
TRMODEL1
  6
CONTINUOUS
 62
     7
  5
1A8
 10
-1.579718
 20
0.758601
 30
0.0
 11
-1.626687
 21
0.752893
 31
0.0
  0
LINE
  8
TRMODEL1
  6
CONTINUOUS
 62
     7
  5
1A9
 10
-1.626687
 20
0.752893
 30
0.0
 11
-1.673605
 21
0.747018
 31
0.0
  0
LINE
  8
TRMODEL1
  6
CONTINUOUS
 62
     7
  5
1AA
 10
-1.673605
 20
0.747018
 30
0.0
 11
-1.720472
 21
0.740976
 31
0.0
  0
LINE
  8
TRMODEL1
  6
CONTINUOUS
 62
     7
  5
1AB
 10
-0.059055
 20
0.852196
 30
0.0
 11
-0.106853
 21
0.8519
 31
0.0
  0
LINE
  8
TRMODEL1
  6
CONTINUOUS
 62
     7
  5
1AC
 10
-0.106853
 20
0.8519
 30
0.0
 11
-0.154649
 21
0.851435
 31
0.0
  0
LINE
  8
TRMODEL1
  6
CONTINUOUS
 62
     7
  5
1AD
 10
-0.154649
 20
0.851435
 30
0.0
 11
-0.202439
 21
0.850799
 31
0.0
  0
LINE
  8
TRMODEL1
  6
CONTINUOUS
 62
     7
  5
1AE
 10
-0.202439
 20
0.850799
 30
0.0
 11
-0.250223
 21
0.849993
 31
0.0
  0
LINE
  8
TRMODEL1
  6
CONTINUOUS
 62
     7
  5
1AF
 10
-0.250223
 20
0.849993
 30
0.0
 11
-0.297999
 21
0.849017
 31
0.0
  0
LINE
  8
TRMODEL1
  6
CONTINUOUS
 62
     7
  5
1B0
 10
-0.297999
 20
0.849017
 30
0.0
 11
-0.345767
 21
0.847871
 31
0.0
  0
LINE
  8
TRMODEL1
  6
CONTINUOUS
 62
     7
  5
1B1
 10
-0.345767
 20
0.847871
 30
0.0
 11
-0.393523
 21
0.846555
 31
0.0
  0
LINE
  8
TRMODEL1
  6
CONTINUOUS
 62
     7
  5
1B2
 10
-0.393523
 20
0.846555
 30
0.0
 11
-0.441268
 21
0.845069
 31
0.0
  0
LINE
  8
TRMODEL1
  6
CONTINUOUS
 62
     7
  5
1B3
 10
-0.441268
 20
0.845069
 30
0.0
 11
-0.488999
 21
0.843413
 31
0.0
  0
LINE
  8
TRMODEL1
  6
CONTINUOUS
 62
     7
  5
1B4
 10
-0.488999
 20
0.843413
 30
0.0
 11
-0.536715
 21
0.841588
 31
0.0
  0
LINE
  8
TRMODEL1
  6
CONTINUOUS
 62
     7
  5
1B5
 10
-0.536715
 20
0.841588
 30
0.0
 11
-0.584415
 21
0.839592
 31
0.0
  0
LINE
  8
TRMODEL1
  6
CONTINUOUS
 62
     7
  5
1B6
 10
-0.584415
 20
0.839592
 30
0.0
 11
-0.632096
 21
0.837426
 31
0.0
  0
LINE
  8
TRMODEL1
  6
CONTINUOUS
 62
     7
  5
1B7
 10
-0.632096
 20
0.837426
 30
0.0
 11
-0.679759
 21
0.835091
 31
0.0
  0
LINE
  8
TRMODEL1
  6
CONTINUOUS
 62
     7
  5
1B8
 10
-0.679759
 20
0.835091
 30
0.0
 11
-0.7274
 21
0.832586
 31
0.0
  0
LINE
  8
TRMODEL1
  6
CONTINUOUS
 62
     7
  5
1B9
 10
-0.7274
 20
0.832586
 30
0.0
 11
-0.775019
 21
0.829912
 31
0.0
  0
LINE
  8
TRMODEL1
  6
CONTINUOUS
 62
     7
  5
1BA
 10
-0.775019
 20
0.829912
 30
0.0
 11
-0.822615
 21
0.827068
 31
0.0
  0
LINE
  8
TRMODEL1
  6
CONTINUOUS
 62
     7
  5
1BB
 10
-0.822615
 20
0.827068
 30
0.0
 11
-0.870185
 21
0.824054
 31
0.0
  0
LINE
  8
TRMODEL1
  6
CONTINUOUS
 62
     7
  5
1BC
 10
-0.870185
 20
0.824054
 30
0.0
 11
-0.917728
 21
0.820872
 31
0.0
  0
LINE
  8
TRMODEL1
  6
CONTINUOUS
 62
     7
  5
1BD
 10
-0.917728
 20
0.820872
 30
0.0
 11
-0.965243
 21
0.81752
 31
0.0
  0
LINE
  8
TRMODEL1
  6
CONTINUOUS
 62
     7
  5
1BE
 10
-0.965243
 20
0.81752
 30
0.0
 11
-1.012729
 21
0.813999
 31
0.0
  0
LINE
  8
TRMODEL1
  6
CONTINUOUS
 62
     7
  5
1BF
 10
-1.012729
 20
0.813999
 30
0.0
 11
-1.060184
 21
0.810309
 31
0.0
  0
LINE
  8
TRMODEL1
  6
CONTINUOUS
 62
     7
  5
1C0
 10
-1.060184
 20
0.810309
 30
0.0
 11
-1.107606
 21
0.80645
 31
0.0
  0
LINE
  8
TRMODEL1
  6
CONTINUOUS
 62
     7
  5
1C1
 10
-1.107606
 20
0.80645
 30
0.0
 11
-1.154994
 21
0.802422
 31
0.0
  0
LINE
  8
TRMODEL1
  6
CONTINUOUS
 62
     7
  5
1C2
 10
-1.154994
 20
0.802422
 30
0.0
 11
-1.202346
 21
0.798226
 31
0.0
  0
LINE
  8
TRMODEL1
  6
CONTINUOUS
 62
     7
  5
1C3
 10
-1.202346
 20
0.798226
 30
0.0
 11
-1.249662
 21
0.793861
 31
0.0
  0
LINE
  8
TRMODEL1
  6
CONTINUOUS
 62
     7
  5
1C4
 10
-1.249662
 20
0.793861
 30
0.0
 11
-1.29694
 21
0.789328
 31
0.0
  0
LINE
  8
TRMODEL1
  6
CONTINUOUS
 62
     7
  5
1C5
 10
-1.29694
 20
0.789328
 30
0.0
 11
-1.344177
 21
0.784627
 31
0.0
  0
LINE
  8
TRMODEL1
  6
CONTINUOUS
 62
     7
  5
1C6
 10
-1.344177
 20
0.784627
 30
0.0
 11
-1.391374
 21
0.779757
 31
0.0
  0
LINE
  8
TRMODEL1
  6
CONTINUOUS
 62
     7
  5
1C7
 10
-1.391374
 20
0.779757
 30
0.0
 11
-1.438527
 21
0.774719
 31
0.0
  0
LINE
  8
TRMODEL1
  6
CONTINUOUS
 62
     7
  5
1C8
 10
-1.438527
 20
0.774719
 30
0.0
 11
-1.485637
 21
0.769514
 31
0.0
  0
LINE
  8
TRMODEL1
  6
CONTINUOUS
 62
     7
  5
1C9
 10
-1.485637
 20
0.769514
 30
0.0
 11
-1.532701
 21
0.764141
 31
0.0
  0
LINE
  8
TRMODEL1
  6
CONTINUOUS
 62
     7
  5
1CA
 10
-1.532701
 20
0.764141
 30
0.0
 11
-1.579718
 21
0.758601
 31
0.0
  0
LINE
  8
TRMODEL1
  6
CONTINUOUS
 62
     7
  5
1CB
 10
-1.579718
 20
0.758601
 30
0.0
 11
-1.626687
 21
0.752893
 31
0.0
  0
LINE
  8
TRMODEL1
  6
CONTINUOUS
 62
     7
  5
1CC
 10
-1.626687
 20
0.752893
 30
0.0
 11
-1.673605
 21
0.747018
 31
0.0
  0
LINE
  8
TRMODEL1
  6
CONTINUOUS
 62
     7
  5
1CD
 10
-1.673605
 20
0.747018
 30
0.0
 11
-1.720472
 21
0.740976
 31
0.0
  0
LINE
  8
TRMODEL1
  6
CONTINUOUS
 62
     7
  5
1CE
 10
0.059055
 20
0.684216
 30
0.0
 11
-0.059055
 21
0.684216
 31
0.0
  0
LINE
  8
TRMODEL1
  6
CONTINUOUS
 62
     7
  5
1CF
 10
0.059055
 20
0.70798
 30
0.0
 11
0.059055
 21
0.684216
 31
0.0
  0
LINE
  8
TRMODEL1
  6
CONTINUOUS
 62
     7
  5
1D0
 10
1.692913
 20
-0.866142
 30
0.0
 11
1.811024
 21
-0.866142
 31
0.0
  0
LINE
  8
TRMODEL1
  6
CONTINUOUS
 62
     7
  5
1D1
 10
-1.692913
 20
-0.866142
 30
0.0
 11
1.692913
 21
-0.866142
 31
0.0
  0
LINE
  8
TRMODEL1
  6
CONTINUOUS
 62
     7
  5
1D2
 10
-1.811024
 20
-0.866142
 30
0.0
 11
-1.692913
 21
-0.866142
 31
0.0
  0
LINE
  8
TRMODEL1
  6
CONTINUOUS
 62
     7
  5
1D3
 10
-1.811024
 20
0.0
 30
0.0
 11
-1.811024
 21
-0.866142
 31
0.0
  0
LINE
  8
TRMODEL1
  6
CONTINUOUS
 62
     7
  5
1D4
 10
1.811024
 20
0.0
 30
0.0
 11
1.811024
 21
-0.866142
 31
0.0
  0
LINE
  8
TRMODEL1
  6
CONTINUOUS
 62
     7
  5
1D5
 10
2.362205
 20
0.519685
 30
0.0
 11
2.362205
 21
0.866142
 31
0.0
  0
LINE
  8
TRMODEL1
  6
CONTINUOUS
 62
     7
  5
1D6
 10
-2.362205
 20
0.866142
 30
0.0
 11
-2.362205
 21
0.519685
 31
0.0
  0
LINE
  8
TRMODEL1
  6
CONTINUOUS
 62
     7
  5
1D7
 10
2.362205
 20
0.519685
 30
0.0
 11
-2.362205
 21
0.519685
 31
0.0
  0
LINE
  8
TRMODEL1
  6
CONTINUOUS
 62
     7
  5
1D8
 10
2.362205
 20
0.0
 30
0.0
 11
2.362205
 21
0.519685
 31
0.0
  0
LINE
  8
TRMODEL1
  6
CONTINUOUS
 62
     7
  5
1D9
 10
-2.362205
 20
0.0
 30
0.0
 11
-2.362205
 21
0.519685
 31
0.0
  0
LINE
  8
TRMODEL1
  6
CONTINUOUS
 62
     7
  5
1DA
 10
-2.362205
 20
0.0
 30
0.0
 11
2.362205
 21
0.0
 31
0.0
  0
LINE
  8
TRMODEL1
  6
CONTINUOUS
 62
     7
  5
1DB
 10
2.362205
 20
0.866142
 30
0.0
 11
1.720472
 21
0.866142
 31
0.0
  0
LINE
  8
TRMODEL1
  6
CONTINUOUS
 62
     7
  5
1DC
 10
-1.720472
 20
0.866142
 30
0.0
 11
-2.362205
 21
0.866142
 31
0.0
  0
ENDSEC
  0
EOF
