  0
SECTION
  2
HEADER
  9
$ACADVER
  1
AC1009
  9
$DWGCODEPAGE
  3
ansi_1252
  9
$INSBASE
 10
0.0
 20
0.0
 30
0.0
  9
$EXTMIN
 10
-2.992126
 20
-1.377953
 30
0.0
  9
$EXTMAX
 10
2.992126
 20
0.984252
 30
0.0
  9
$LIMMIN
 10
0.0
 20
0.0
  9
$LIMMAX
 10
0.0
 20
0.0
  9
$ORTHOMODE
 70
     0
  9
$REGENMODE
 70
     1
  9
$FILLMODE
 70
     1
  9
$QTEXTMODE
 70
     0
  9
$MIRRTEXT
 70
     1
  9
$DRAGMODE
 70
     2
  9
$LTSCALE
 40
1.0
  9
$OSMODE
 70
     0
  9
$ATTMODE
 70
     1
  9
$TEXTSIZE
 40
0.2
  9
$TRACEWID
 40
0.05
  9
$TEXTSTYLE
  7
STANDARD
  9
$CLAYER
  8
0
  9
$CELTYPE
  6
CONTINUOUS
  9
$CECOLOR
 62
   256
  9
$DIMSCALE
 40
1.0
  9
$DIMASZ
 40
0.18
  9
$DIMEXO
 40
0.0625
  9
$DIMDLI
 40
0.38
  9
$DIMRND
 40
0.0
  9
$DIMDLE
 40
0.0
  9
$DIMEXE
 40
0.18
  9
$DIMTP
 40
0.0
  9
$DIMTM
 40
0.0
  9
$DIMTXT
 40
0.18
  9
$DIMCEN
 40
0.09
  9
$DIMTSZ
 40
0.0
  9
$DIMTOL
 70
     0
  9
$DIMLIM
 70
     0
  9
$DIMTIH
 70
     1
  9
$DIMTOH
 70
     1
  9
$DIMSE1
 70
     0
  9
$DIMSE2
 70
     0
  9
$DIMTAD
 70
     0
  9
$DIMZIN
 70
     0
  9
$DIMBLK
  1

  9
$DIMASO
 70
     1
  9
$DIMSHO
 70
     1
  9
$DIMPOST
  1

  9
$DIMAPOST
  1

  9
$DIMALT
 70
     0
  9
$DIMALTD
 70
     2
  9
$DIMALTF
 40
25.4
  9
$DIMLFAC
 40
1.0
  9
$DIMTOFL
 70
     0
  9
$DIMTVP
 40
0.0
  9
$DIMTIX
 70
     0
  9
$DIMSOXD
 70
     0
  9
$DIMSAH
 70
     0
  9
$DIMBLK1
  1

  9
$DIMBLK2
  1

  9
$DIMSTYLE
  2
STANDARD
  9
$DIMCLRD
 70
     0
  9
$DIMCLRE
 70
     0
  9
$DIMCLRT
 70
     0
  9
$DIMTFAC
 40
1.0
  9
$DIMGAP
 40
0.09
  9
$LUNITS
 70
     2
  9
$LUPREC
 70
     4
  9
$AXISMODE
 70
     0
  9
$AXISUNIT
 10
0.0
 20
0.0
  9
$SKETCHINC
 40
0.1
  9
$FILLETRAD
 40
0.0
  9
$AUNITS
 70
     0
  9
$AUPREC
 70
     0
  9
$MENU
  1
acad
  9
$ELEVATION
 40
0.0
  9
$PELEVATION
 40
0.0
  9
$THICKNESS
 40
0.0
  9
$LIMCHECK
 70
     0
  9
$BLIPMODE
 70
     1
  9
$CHAMFERA
 40
0.0
  9
$CHAMFERB
 40
0.0
  9
$SKPOLY
 70
     0
  9
$TDCREATE
 40
0.000000000
  9
$TDUPDATE
 40
0.000000000
  9
$TDINDWG
 40
0.0000000000
  9
$TDUSRTIMER
 40
0.0000000000
  9
$USRTIMER
 70
     1
  9
$ANGBASE
 50
0.0
  9
$ANGDIR
 70
     0
  9
$PDMODE
 70
     0
  9
$PDSIZE
 40
0.0
  9
$PLINEWID
 40
0.0
  9
$COORDS
 70
     0
  9
$SPLFRAME
 70
     0
  9
$SPLINETYPE
 70
     6
  9
$SPLINESEGS
 70
     8
  9
$ATTDIA
 70
     0
  9
$ATTREQ
 70
     1
  9
$HANDLING
 70
     1
  9
$HANDSEED
  5
225
  9
$SURFTAB1
 70
     6
  9
$SURFTAB2
 70
     6
  9
$SURFTYPE
 70
     6
  9
$SURFU
 70
     6
  9
$SURFV
 70
     6
  9
$UCSNAME
  2

  9
$UCSORG
 10
0.0
 20
0.0
 30
0.0
  9
$UCSXDIR
 10
1.0
 20
0.0
 30
0.0
  9
$UCSYDIR
 10
0.0
 20
1.0
 30
0.0
  9
$PUCSNAME
  2

  9
$PUCSORG
 10
0.0
 20
0.0
 30
0.0
  9
$PUCSXDIR
 10
1.0
 20
0.0
 30
0.0
  9
$PUCSYDIR
 10
0.0
 20
1.0
 30
0.0
  9
$USERI1
 70
     0
  9
$USERI2
 70
     0
  9
$USERI3
 70
     0
  9
$USERI4
 70
     0
  9
$USERI5
 70
     0
  9
$USERR1
 40
0.0
  9
$USERR2
 40
0.0
  9
$USERR3
 40
0.0
  9
$USERR4
 40
0.0
  9
$USERR5
 40
0.0
  9
$WORLDVIEW
 70
     1
  9
$SHADEDGE
 70
     3
  9
$SHADEDIF
 70
    70
  9
$TILEMODE
 70
     1
  9
$MAXACTVP
 70
    16
  9
$PINSBASE
 10
0.0
 20
0.0
 30
0.0
  9
$PLIMCHECK
 70
     0
  9
$PEXTMIN
 10
1.000000E+20
 20
1.000000E+20
 30
1.000000E+20
  9
$PEXTMAX
 10
-1.000000E+20
 20
-1.000000E+20
 30
-1.000000E+20
  9
$PLIMMIN
 10
0.0
 20
0.0
  9
$PLIMMAX
 10
12.0
 20
9.0
  9
$UNITMODE
 70
     0
  9
$VISRETAIN
 70
     0
  9
$PLINEGEN
 70
     1
  9
$PSLTSCALE
 70
     0
  9
$TREEDEPTH
 70
  3020
  0
ENDSEC
  0
SECTION
  2
TABLES
  0
TABLE
  2
VPORT
 70
     1
  0
VPORT
  2
*ACTIVE
 70
     0
 10
0.0
 20
0.0
 11
1.0
 21
1.0
 12
6.591288
 22
4.579184
 13
0.0
 23
0.0
 14
1.0
 24
1.0
 15
0.0
 25
0.0
 16
0.0
 26
0.0
 36
1.0
 17
0.0
 27
0.0
 37
0.0
 40
9.158369
 41
0.688564
 42
50.0
 43
0.0
 44
0.0
 50
0.0
 51
0.0
 71
     0
 72
   100
 73
     1
 74
     1
 75
     0
 76
     0
 77
     0
 78
     0
  0
ENDTAB
  0
TABLE
  2
LTYPE
 70
     5
  0
LTYPE
  2
CONTINUOUS
 70
    64
  3
Solid line
 72
    65
 73
     0
 40
0.0
  0
LTYPE
  2
CENTER
 70
    64
  3
Center ____ _ ____ _ ____ _ ____ _ ____ _ ____
 72
    65
 73
     4
 40
50.8
 49
31.75
 49
-6.35
 49
6.35
 49
-6.35
  0
LTYPE
  2
HIDDEN
 70
    64
  3
Hidden __ __ __ __ __ __ __ __ __ __ __ __ __ __
 72
    65
 73
     2
 40
9.525
 49
6.35
 49
-3.175
  0
LTYPE
  2
CENTER2
 70
    64
  3
Center (.5x) ___ _ ___ _ ___ _ ___ _ ___ _ ___
 72
    65
 73
     4
 40
28.575
 49
19.05
 49
-3.175
 49
3.175
 49
-3.175
  0
LTYPE
  2
HIDDEN2
 70
    64
  3
Hidden (.5x) _ _ _ _ _ _ _ _ _ _ _ _ _ _ _ _ _
 72
    65
 73
     2
 40
4.7625
 49
3.175
 49
-1.5875
  0
ENDTAB
  0
TABLE
  2
LAYER
 70
     7
  0
LAYER
  2
0
 70
     0
 62
     7
  6
CONTINUOUS
  0
LAYER
  2
TRMODEL1
 70
     0
 62
     7
  6
CONTINUOUS
  0
LAYER
  2
TRMODEL3
 70
     0
 62
     7
  6
CONTINUOUS
  0
LAYER
  2
TRDETAIL2
 70
     0
 62
     7
  6
CONTINUOUS
  0
LAYER
  2
TRDETAIL3
 70
     0
 62
     7
  6
CONTINUOUS
  0
LAYER
  2
TRDETAIL4
 70
     0
 62
     7
  6
CONTINUOUS
  0
LAYER
  2
TRDETAIL5
 70
     0
 62
     7
  6
CONTINUOUS
  0
ENDTAB
  0
TABLE
  2
STYLE
 70
     1
  0
STYLE
  2
STANDARD
 70
     0
 40
0.0
 41
1.0
 50
0.0
 71
     0
 42
0.0
  3
txt
  4

  0
ENDTAB
  0
TABLE
  2
VIEW
 70
     0
  0
ENDTAB
  0
TABLE
  2
UCS
 70
     0
  0
ENDTAB
  0
TABLE
  2
APPID
 70
     1
  0
APPID
  2
ACAD
 70
     0
  0
ENDTAB
  0
TABLE
  2
DIMSTYLE
 70
     1
  0
DIMSTYLE
  2
STANDARD
 70
     0
  3

  4

  5

  6

  7

 40
1.0
 41
0.18
 42
0.0625
 43
0.38
 44
0.18
 45
0.0
 46
0.0
 47
0.0
 48
0.0
 71
     0
 72
     0
 73
     1
 74
     1
 75
     0
 76
     0
 77
     0
 78
     0
140
0.18
141
0.09
142
0.0
143
25.4
144
1.0
145
0.0
146
1.0
147
0.09
170
     0
171
     2
172
     0
173
     0
174
     0
175
     0
176
     0
177
     0
178
     0
  0
ENDTAB
  0
ENDSEC
  0
SECTION
  2
BLOCKS
  0
ENDSEC
  0
SECTION
  2
ENTITIES
  0
LINE
  8
TRMODEL1
  6
CONTINUOUS
 62
     7
  5
133
 10
-0.059055
 20
0.749426
 30
0.0
 11
-2.318898
 21
0.749426
 31
0.0
  0
LINE
  8
TRMODEL1
  6
CONTINUOUS
 62
     7
  5
134
 10
2.318898
 20
0.749426
 30
0.0
 11
0.059055
 21
0.749426
 31
0.0
  0
LINE
  8
TRMODEL1
  6
CONTINUOUS
 62
     7
  5
135
 10
-2.318898
 20
0.843903
 30
0.0
 11
-2.318898
 21
0.984252
 31
0.0
  0
LINE
  8
TRMODEL1
  6
CONTINUOUS
 62
     7
  5
136
 10
-2.318898
 20
0.749426
 30
0.0
 11
-2.318898
 21
0.764256
 31
0.0
  0
LINE
  8
TRMODEL1
  6
CONTINUOUS
 62
     7
  5
137
 10
0.059055
 20
0.826091
 30
0.0
 11
-0.059055
 21
0.826091
 31
0.0
  0
LINE
  8
TRMODEL1
  6
CONTINUOUS
 62
     7
  5
138
 10
2.318898
 20
0.764256
 30
0.0
 11
2.318898
 21
0.798664
 31
0.0
  0
LINE
  8
TRMODEL1
  6
CONTINUOUS
 62
     7
  5
139
 10
2.318898
 20
0.798664
 30
0.0
 11
2.187552
 21
0.812682
 31
0.0
  0
LINE
  8
TRMODEL1
  6
CONTINUOUS
 62
     7
  5
13A
 10
2.187552
 20
0.812682
 30
0.0
 11
2.056002
 21
0.825882
 31
0.0
  0
LINE
  8
TRMODEL1
  6
CONTINUOUS
 62
     7
  5
13B
 10
2.056002
 20
0.825882
 30
0.0
 11
1.924259
 21
0.838263
 31
0.0
  0
LINE
  8
TRMODEL1
  6
CONTINUOUS
 62
     7
  5
13C
 10
1.924259
 20
0.838263
 30
0.0
 11
1.792336
 21
0.849824
 31
0.0
  0
LINE
  8
TRMODEL1
  6
CONTINUOUS
 62
     7
  5
13D
 10
1.792336
 20
0.849824
 30
0.0
 11
1.660245
 21
0.860564
 31
0.0
  0
LINE
  8
TRMODEL1
  6
CONTINUOUS
 62
     7
  5
13E
 10
1.660245
 20
0.860564
 30
0.0
 11
1.527998
 21
0.870481
 31
0.0
  0
LINE
  8
TRMODEL1
  6
CONTINUOUS
 62
     7
  5
13F
 10
1.527998
 20
0.870481
 30
0.0
 11
1.395608
 21
0.879575
 31
0.0
  0
LINE
  8
TRMODEL1
  6
CONTINUOUS
 62
     7
  5
140
 10
1.395608
 20
0.879575
 30
0.0
 11
1.263088
 21
0.887845
 31
0.0
  0
LINE
  8
TRMODEL1
  6
CONTINUOUS
 62
     7
  5
141
 10
1.263088
 20
0.887845
 30
0.0
 11
1.130449
 21
0.895291
 31
0.0
  0
LINE
  8
TRMODEL1
  6
CONTINUOUS
 62
     7
  5
142
 10
1.130449
 20
0.895291
 30
0.0
 11
0.997704
 21
0.901911
 31
0.0
  0
LINE
  8
TRMODEL1
  6
CONTINUOUS
 62
     7
  5
143
 10
0.997704
 20
0.901911
 30
0.0
 11
0.864866
 21
0.907704
 31
0.0
  0
LINE
  8
TRMODEL1
  6
CONTINUOUS
 62
     7
  5
144
 10
0.864866
 20
0.907704
 30
0.0
 11
0.731947
 21
0.912672
 31
0.0
  0
LINE
  8
TRMODEL1
  6
CONTINUOUS
 62
     7
  5
145
 10
0.731947
 20
0.912672
 30
0.0
 11
0.598959
 21
0.916811
 31
0.0
  0
LINE
  8
TRMODEL1
  6
CONTINUOUS
 62
     7
  5
146
 10
0.598959
 20
0.916811
 30
0.0
 11
0.465915
 21
0.920124
 31
0.0
  0
LINE
  8
TRMODEL1
  6
CONTINUOUS
 62
     7
  5
147
 10
0.465915
 20
0.920124
 30
0.0
 11
0.332828
 21
0.922608
 31
0.0
  0
LINE
  8
TRMODEL1
  6
CONTINUOUS
 62
     7
  5
148
 10
0.332828
 20
0.922608
 30
0.0
 11
0.199709
 21
0.924265
 31
0.0
  0
LINE
  8
TRMODEL1
  6
CONTINUOUS
 62
     7
  5
149
 10
0.199709
 20
0.924265
 30
0.0
 11
0.066572
 21
0.925093
 31
0.0
  0
LINE
  8
TRMODEL1
  6
CONTINUOUS
 62
     7
  5
14A
 10
0.066572
 20
0.925093
 30
0.0
 11
-0.066572
 21
0.925093
 31
0.0
  0
LINE
  8
TRMODEL1
  6
CONTINUOUS
 62
     7
  5
14B
 10
-0.066572
 20
0.925093
 30
0.0
 11
-0.199709
 21
0.924265
 31
0.0
  0
LINE
  8
TRMODEL1
  6
CONTINUOUS
 62
     7
  5
14C
 10
-0.199709
 20
0.924265
 30
0.0
 11
-0.332828
 21
0.922608
 31
0.0
  0
LINE
  8
TRMODEL1
  6
CONTINUOUS
 62
     7
  5
14D
 10
-0.332828
 20
0.922608
 30
0.0
 11
-0.465915
 21
0.920124
 31
0.0
  0
LINE
  8
TRMODEL1
  6
CONTINUOUS
 62
     7
  5
14E
 10
-0.465915
 20
0.920124
 30
0.0
 11
-0.598959
 21
0.916811
 31
0.0
  0
LINE
  8
TRMODEL1
  6
CONTINUOUS
 62
     7
  5
14F
 10
-0.598959
 20
0.916811
 30
0.0
 11
-0.731947
 21
0.912672
 31
0.0
  0
LINE
  8
TRMODEL1
  6
CONTINUOUS
 62
     7
  5
150
 10
-0.731947
 20
0.912672
 30
0.0
 11
-0.864866
 21
0.907704
 31
0.0
  0
LINE
  8
TRMODEL1
  6
CONTINUOUS
 62
     7
  5
151
 10
-0.864866
 20
0.907704
 30
0.0
 11
-0.997704
 21
0.901911
 31
0.0
  0
LINE
  8
TRMODEL1
  6
CONTINUOUS
 62
     7
  5
152
 10
-0.997704
 20
0.901911
 30
0.0
 11
-1.130449
 21
0.895291
 31
0.0
  0
LINE
  8
TRMODEL1
  6
CONTINUOUS
 62
     7
  5
153
 10
-1.130449
 20
0.895291
 30
0.0
 11
-1.263088
 21
0.887845
 31
0.0
  0
LINE
  8
TRMODEL1
  6
CONTINUOUS
 62
     7
  5
154
 10
-1.263088
 20
0.887845
 30
0.0
 11
-1.395608
 21
0.879575
 31
0.0
  0
LINE
  8
TRMODEL1
  6
CONTINUOUS
 62
     7
  5
155
 10
-1.395608
 20
0.879575
 30
0.0
 11
-1.527998
 21
0.870481
 31
0.0
  0
LINE
  8
TRMODEL1
  6
CONTINUOUS
 62
     7
  5
156
 10
-1.527998
 20
0.870481
 30
0.0
 11
-1.660245
 21
0.860564
 31
0.0
  0
LINE
  8
TRMODEL1
  6
CONTINUOUS
 62
     7
  5
157
 10
-1.660245
 20
0.860564
 30
0.0
 11
-1.792336
 21
0.849824
 31
0.0
  0
LINE
  8
TRMODEL1
  6
CONTINUOUS
 62
     7
  5
158
 10
-1.792336
 20
0.849824
 30
0.0
 11
-1.924259
 21
0.838263
 31
0.0
  0
LINE
  8
TRMODEL1
  6
CONTINUOUS
 62
     7
  5
159
 10
-1.924259
 20
0.838263
 30
0.0
 11
-2.056002
 21
0.825882
 31
0.0
  0
LINE
  8
TRMODEL1
  6
CONTINUOUS
 62
     7
  5
15A
 10
-2.056002
 20
0.825882
 30
0.0
 11
-2.187552
 21
0.812682
 31
0.0
  0
LINE
  8
TRMODEL1
  6
CONTINUOUS
 62
     7
  5
15B
 10
-2.187552
 20
0.812682
 30
0.0
 11
-2.318898
 21
0.798664
 31
0.0
  0
LINE
  8
TRMODEL1
  6
CONTINUOUS
 62
     7
  5
15C
 10
-2.318898
 20
0.798664
 30
0.0
 11
-2.318898
 21
0.764256
 31
0.0
  0
LINE
  8
TRMODEL1
  6
CONTINUOUS
 62
     7
  5
15D
 10
2.318898
 20
0.798664
 30
0.0
 11
2.318898
 21
0.843903
 31
0.0
  0
LINE
  8
TRMODEL1
  6
CONTINUOUS
 62
     7
  5
15E
 10
-2.318898
 20
0.798664
 30
0.0
 11
-2.318898
 21
0.843903
 31
0.0
  0
LINE
  8
TRMODEL1
  6
CONTINUOUS
 62
     7
  5
15F
 10
2.318898
 20
0.843903
 30
0.0
 11
2.187552
 21
0.857921
 31
0.0
  0
LINE
  8
TRMODEL1
  6
CONTINUOUS
 62
     7
  5
160
 10
2.187552
 20
0.857921
 30
0.0
 11
2.056002
 21
0.871121
 31
0.0
  0
LINE
  8
TRMODEL1
  6
CONTINUOUS
 62
     7
  5
161
 10
2.056002
 20
0.871121
 30
0.0
 11
1.924259
 21
0.883502
 31
0.0
  0
LINE
  8
TRMODEL1
  6
CONTINUOUS
 62
     7
  5
162
 10
1.924259
 20
0.883502
 30
0.0
 11
1.792336
 21
0.895063
 31
0.0
  0
LINE
  8
TRMODEL1
  6
CONTINUOUS
 62
     7
  5
163
 10
1.792336
 20
0.895063
 30
0.0
 11
1.660245
 21
0.905802
 31
0.0
  0
LINE
  8
TRMODEL1
  6
CONTINUOUS
 62
     7
  5
164
 10
1.660245
 20
0.905802
 30
0.0
 11
1.527998
 21
0.91572
 31
0.0
  0
LINE
  8
TRMODEL1
  6
CONTINUOUS
 62
     7
  5
165
 10
1.527998
 20
0.91572
 30
0.0
 11
1.395608
 21
0.924814
 31
0.0
  0
LINE
  8
TRMODEL1
  6
CONTINUOUS
 62
     7
  5
166
 10
1.395608
 20
0.924814
 30
0.0
 11
1.263088
 21
0.933084
 31
0.0
  0
LINE
  8
TRMODEL1
  6
CONTINUOUS
 62
     7
  5
167
 10
1.263088
 20
0.933084
 30
0.0
 11
1.130449
 21
0.94053
 31
0.0
  0
LINE
  8
TRMODEL1
  6
CONTINUOUS
 62
     7
  5
168
 10
1.130449
 20
0.94053
 30
0.0
 11
0.997704
 21
0.94715
 31
0.0
  0
LINE
  8
TRMODEL1
  6
CONTINUOUS
 62
     7
  5
169
 10
0.997704
 20
0.94715
 30
0.0
 11
0.864866
 21
0.952943
 31
0.0
  0
LINE
  8
TRMODEL1
  6
CONTINUOUS
 62
     7
  5
16A
 10
0.864866
 20
0.952943
 30
0.0
 11
0.731947
 21
0.95791
 31
0.0
  0
LINE
  8
TRMODEL1
  6
CONTINUOUS
 62
     7
  5
16B
 10
0.731947
 20
0.95791
 30
0.0
 11
0.598959
 21
0.96205
 31
0.0
  0
LINE
  8
TRMODEL1
  6
CONTINUOUS
 62
     7
  5
16C
 10
0.598959
 20
0.96205
 30
0.0
 11
0.465915
 21
0.965363
 31
0.0
  0
LINE
  8
TRMODEL1
  6
CONTINUOUS
 62
     7
  5
16D
 10
0.465915
 20
0.965363
 30
0.0
 11
0.332828
 21
0.967847
 31
0.0
  0
LINE
  8
TRMODEL1
  6
CONTINUOUS
 62
     7
  5
16E
 10
0.332828
 20
0.967847
 30
0.0
 11
0.199709
 21
0.969504
 31
0.0
  0
LINE
  8
TRMODEL1
  6
CONTINUOUS
 62
     7
  5
16F
 10
0.199709
 20
0.969504
 30
0.0
 11
0.066572
 21
0.970332
 31
0.0
  0
LINE
  8
TRMODEL1
  6
CONTINUOUS
 62
     7
  5
170
 10
0.066572
 20
0.970332
 30
0.0
 11
-0.066572
 21
0.970332
 31
0.0
  0
LINE
  8
TRMODEL1
  6
CONTINUOUS
 62
     7
  5
171
 10
-0.066572
 20
0.970332
 30
0.0
 11
-0.199709
 21
0.969504
 31
0.0
  0
LINE
  8
TRMODEL1
  6
CONTINUOUS
 62
     7
  5
172
 10
-0.199709
 20
0.969504
 30
0.0
 11
-0.332828
 21
0.967847
 31
0.0
  0
LINE
  8
TRMODEL1
  6
CONTINUOUS
 62
     7
  5
173
 10
-0.332828
 20
0.967847
 30
0.0
 11
-0.465915
 21
0.965363
 31
0.0
  0
LINE
  8
TRMODEL1
  6
CONTINUOUS
 62
     7
  5
174
 10
-0.465915
 20
0.965363
 30
0.0
 11
-0.598959
 21
0.96205
 31
0.0
  0
LINE
  8
TRMODEL1
  6
CONTINUOUS
 62
     7
  5
175
 10
-0.598959
 20
0.96205
 30
0.0
 11
-0.731947
 21
0.95791
 31
0.0
  0
LINE
  8
TRMODEL1
  6
CONTINUOUS
 62
     7
  5
176
 10
-0.731947
 20
0.95791
 30
0.0
 11
-0.864866
 21
0.952943
 31
0.0
  0
LINE
  8
TRMODEL1
  6
CONTINUOUS
 62
     7
  5
177
 10
-0.864866
 20
0.952943
 30
0.0
 11
-0.997704
 21
0.94715
 31
0.0
  0
LINE
  8
TRMODEL1
  6
CONTINUOUS
 62
     7
  5
178
 10
-0.997704
 20
0.94715
 30
0.0
 11
-1.130449
 21
0.94053
 31
0.0
  0
LINE
  8
TRMODEL1
  6
CONTINUOUS
 62
     7
  5
179
 10
-1.130449
 20
0.94053
 30
0.0
 11
-1.263088
 21
0.933084
 31
0.0
  0
LINE
  8
TRMODEL1
  6
CONTINUOUS
 62
     7
  5
17A
 10
-1.263088
 20
0.933084
 30
0.0
 11
-1.395608
 21
0.924814
 31
0.0
  0
LINE
  8
TRMODEL1
  6
CONTINUOUS
 62
     7
  5
17B
 10
-1.395608
 20
0.924814
 30
0.0
 11
-1.527998
 21
0.91572
 31
0.0
  0
LINE
  8
TRMODEL1
  6
CONTINUOUS
 62
     7
  5
17C
 10
-1.527998
 20
0.91572
 30
0.0
 11
-1.660245
 21
0.905802
 31
0.0
  0
LINE
  8
TRMODEL1
  6
CONTINUOUS
 62
     7
  5
17D
 10
-1.660245
 20
0.905802
 30
0.0
 11
-1.792336
 21
0.895063
 31
0.0
  0
LINE
  8
TRMODEL1
  6
CONTINUOUS
 62
     7
  5
17E
 10
-1.792336
 20
0.895063
 30
0.0
 11
-1.924259
 21
0.883502
 31
0.0
  0
LINE
  8
TRMODEL1
  6
CONTINUOUS
 62
     7
  5
17F
 10
-1.924259
 20
0.883502
 30
0.0
 11
-2.056002
 21
0.871121
 31
0.0
  0
LINE
  8
TRMODEL1
  6
CONTINUOUS
 62
     7
  5
180
 10
-2.056002
 20
0.871121
 30
0.0
 11
-2.187552
 21
0.857921
 31
0.0
  0
LINE
  8
TRMODEL1
  6
CONTINUOUS
 62
     7
  5
181
 10
-2.187552
 20
0.857921
 30
0.0
 11
-2.318898
 21
0.843903
 31
0.0
  0
LINE
  8
TRMODEL1
  6
CONTINUOUS
 62
     7
  5
182
 10
-0.059055
 20
0.984252
 30
0.0
 11
-0.059055
 21
0.970354
 31
0.0
  0
LINE
  8
TRMODEL1
  6
CONTINUOUS
 62
     7
  5
183
 10
-0.059055
 20
0.826091
 30
0.0
 11
-0.059055
 21
0.749426
 31
0.0
  0
LINE
  8
TRMODEL1
  6
CONTINUOUS
 62
     7
  5
184
 10
0.059055
 20
0.984252
 30
0.0
 11
0.059055
 21
0.970354
 31
0.0
  0
LINE
  8
TRMODEL1
  6
CONTINUOUS
 62
     7
  5
185
 10
0.059055
 20
0.984252
 30
0.0
 11
-0.059055
 21
0.984252
 31
0.0
  0
LINE
  8
TRMODEL1
  6
CONTINUOUS
 62
     7
  5
186
 10
2.318898
 20
0.764256
 30
0.0
 11
2.318898
 21
0.749426
 31
0.0
  0
LINE
  8
TRMODEL1
  6
CONTINUOUS
 62
     7
  5
187
 10
2.318898
 20
0.984252
 30
0.0
 11
2.318898
 21
0.798664
 31
0.0
  0
LINE
  8
TRMODEL1
  6
CONTINUOUS
 62
     7
  5
188
 10
2.318898
 20
0.843903
 30
0.0
 11
2.254916
 21
0.850836
 31
0.0
  0
LINE
  8
TRMODEL1
  6
CONTINUOUS
 62
     7
  5
189
 10
2.254916
 20
0.850836
 30
0.0
 11
2.190884
 21
0.857575
 31
0.0
  0
LINE
  8
TRMODEL1
  6
CONTINUOUS
 62
     7
  5
18A
 10
2.190884
 20
0.857575
 30
0.0
 11
2.126803
 21
0.86412
 31
0.0
  0
LINE
  8
TRMODEL1
  6
CONTINUOUS
 62
     7
  5
18B
 10
2.126803
 20
0.86412
 30
0.0
 11
2.062675
 21
0.870471
 31
0.0
  0
LINE
  8
TRMODEL1
  6
CONTINUOUS
 62
     7
  5
18C
 10
2.062675
 20
0.870471
 30
0.0
 11
1.998501
 21
0.876628
 31
0.0
  0
LINE
  8
TRMODEL1
  6
CONTINUOUS
 62
     7
  5
18D
 10
1.998501
 20
0.876628
 30
0.0
 11
1.934283
 21
0.882589
 31
0.0
  0
LINE
  8
TRMODEL1
  6
CONTINUOUS
 62
     7
  5
18E
 10
1.934283
 20
0.882589
 30
0.0
 11
1.870021
 21
0.888356
 31
0.0
  0
LINE
  8
TRMODEL1
  6
CONTINUOUS
 62
     7
  5
18F
 10
1.870021
 20
0.888356
 30
0.0
 11
1.805718
 21
0.893928
 31
0.0
  0
LINE
  8
TRMODEL1
  6
CONTINUOUS
 62
     7
  5
190
 10
1.805718
 20
0.893928
 30
0.0
 11
1.741375
 21
0.899305
 31
0.0
  0
LINE
  8
TRMODEL1
  6
CONTINUOUS
 62
     7
  5
191
 10
1.741375
 20
0.899305
 30
0.0
 11
1.676993
 21
0.904487
 31
0.0
  0
LINE
  8
TRMODEL1
  6
CONTINUOUS
 62
     7
  5
192
 10
1.676993
 20
0.904487
 30
0.0
 11
1.612574
 21
0.909473
 31
0.0
  0
LINE
  8
TRMODEL1
  6
CONTINUOUS
 62
     7
  5
193
 10
1.612574
 20
0.909473
 30
0.0
 11
1.548118
 21
0.914265
 31
0.0
  0
LINE
  8
TRMODEL1
  6
CONTINUOUS
 62
     7
  5
194
 10
1.548118
 20
0.914265
 30
0.0
 11
1.483629
 21
0.91886
 31
0.0
  0
LINE
  8
TRMODEL1
  6
CONTINUOUS
 62
     7
  5
195
 10
1.483629
 20
0.91886
 30
0.0
 11
1.419106
 21
0.923261
 31
0.0
  0
LINE
  8
TRMODEL1
  6
CONTINUOUS
 62
     7
  5
196
 10
1.419106
 20
0.923261
 30
0.0
 11
1.354552
 21
0.927465
 31
0.0
  0
LINE
  8
TRMODEL1
  6
CONTINUOUS
 62
     7
  5
197
 10
1.354552
 20
0.927465
 30
0.0
 11
1.289968
 21
0.931474
 31
0.0
  0
LINE
  8
TRMODEL1
  6
CONTINUOUS
 62
     7
  5
198
 10
1.289968
 20
0.931474
 30
0.0
 11
1.225355
 21
0.935287
 31
0.0
  0
LINE
  8
TRMODEL1
  6
CONTINUOUS
 62
     7
  5
199
 10
1.225355
 20
0.935287
 30
0.0
 11
1.160715
 21
0.938904
 31
0.0
  0
LINE
  8
TRMODEL1
  6
CONTINUOUS
 62
     7
  5
19A
 10
1.160715
 20
0.938904
 30
0.0
 11
1.096049
 21
0.942325
 31
0.0
  0
LINE
  8
TRMODEL1
  6
CONTINUOUS
 62
     7
  5
19B
 10
1.096049
 20
0.942325
 30
0.0
 11
1.031358
 21
0.94555
 31
0.0
  0
LINE
  8
TRMODEL1
  6
CONTINUOUS
 62
     7
  5
19C
 10
1.031358
 20
0.94555
 30
0.0
 11
0.966645
 21
0.948579
 31
0.0
  0
LINE
  8
TRMODEL1
  6
CONTINUOUS
 62
     7
  5
19D
 10
0.966645
 20
0.948579
 30
0.0
 11
0.90191
 21
0.951411
 31
0.0
  0
LINE
  8
TRMODEL1
  6
CONTINUOUS
 62
     7
  5
19E
 10
0.90191
 20
0.951411
 30
0.0
 11
0.837155
 21
0.954047
 31
0.0
  0
LINE
  8
TRMODEL1
  6
CONTINUOUS
 62
     7
  5
19F
 10
0.837155
 20
0.954047
 30
0.0
 11
0.772381
 21
0.956487
 31
0.0
  0
LINE
  8
TRMODEL1
  6
CONTINUOUS
 62
     7
  5
1A0
 10
0.772381
 20
0.956487
 30
0.0
 11
0.707591
 21
0.958731
 31
0.0
  0
LINE
  8
TRMODEL1
  6
CONTINUOUS
 62
     7
  5
1A1
 10
0.707591
 20
0.958731
 30
0.0
 11
0.642784
 21
0.960778
 31
0.0
  0
LINE
  8
TRMODEL1
  6
CONTINUOUS
 62
     7
  5
1A2
 10
0.642784
 20
0.960778
 30
0.0
 11
0.577963
 21
0.962628
 31
0.0
  0
LINE
  8
TRMODEL1
  6
CONTINUOUS
 62
     7
  5
1A3
 10
0.577963
 20
0.962628
 30
0.0
 11
0.51313
 21
0.964282
 31
0.0
  0
LINE
  8
TRMODEL1
  6
CONTINUOUS
 62
     7
  5
1A4
 10
0.51313
 20
0.964282
 30
0.0
 11
0.448285
 21
0.96574
 31
0.0
  0
LINE
  8
TRMODEL1
  6
CONTINUOUS
 62
     7
  5
1A5
 10
0.448285
 20
0.96574
 30
0.0
 11
0.383429
 21
0.967
 31
0.0
  0
LINE
  8
TRMODEL1
  6
CONTINUOUS
 62
     7
  5
1A6
 10
0.383429
 20
0.967
 30
0.0
 11
0.318566
 21
0.968064
 31
0.0
  0
LINE
  8
TRMODEL1
  6
CONTINUOUS
 62
     7
  5
1A7
 10
0.318566
 20
0.968064
 30
0.0
 11
0.253695
 21
0.968932
 31
0.0
  0
LINE
  8
TRMODEL1
  6
CONTINUOUS
 62
     7
  5
1A8
 10
0.253695
 20
0.968932
 30
0.0
 11
0.188819
 21
0.969603
 31
0.0
  0
LINE
  8
TRMODEL1
  6
CONTINUOUS
 62
     7
  5
1A9
 10
0.188819
 20
0.969603
 30
0.0
 11
0.123938
 21
0.970077
 31
0.0
  0
LINE
  8
TRMODEL1
  6
CONTINUOUS
 62
     7
  5
1AA
 10
0.123938
 20
0.970077
 30
0.0
 11
0.059055
 21
0.970354
 31
0.0
  0
LINE
  8
TRMODEL1
  6
CONTINUOUS
 62
     7
  5
1AB
 10
-0.059055
 20
0.970354
 30
0.0
 11
-0.123938
 21
0.970077
 31
0.0
  0
LINE
  8
TRMODEL1
  6
CONTINUOUS
 62
     7
  5
1AC
 10
-0.123938
 20
0.970077
 30
0.0
 11
-0.188819
 21
0.969603
 31
0.0
  0
LINE
  8
TRMODEL1
  6
CONTINUOUS
 62
     7
  5
1AD
 10
-0.188819
 20
0.969603
 30
0.0
 11
-0.253695
 21
0.968932
 31
0.0
  0
LINE
  8
TRMODEL1
  6
CONTINUOUS
 62
     7
  5
1AE
 10
-0.253695
 20
0.968932
 30
0.0
 11
-0.318566
 21
0.968064
 31
0.0
  0
LINE
  8
TRMODEL1
  6
CONTINUOUS
 62
     7
  5
1AF
 10
-0.318566
 20
0.968064
 30
0.0
 11
-0.383429
 21
0.967
 31
0.0
  0
LINE
  8
TRMODEL1
  6
CONTINUOUS
 62
     7
  5
1B0
 10
-0.383429
 20
0.967
 30
0.0
 11
-0.448285
 21
0.96574
 31
0.0
  0
LINE
  8
TRMODEL1
  6
CONTINUOUS
 62
     7
  5
1B1
 10
-0.448285
 20
0.96574
 30
0.0
 11
-0.51313
 21
0.964282
 31
0.0
  0
LINE
  8
TRMODEL1
  6
CONTINUOUS
 62
     7
  5
1B2
 10
-0.51313
 20
0.964282
 30
0.0
 11
-0.577963
 21
0.962628
 31
0.0
  0
LINE
  8
TRMODEL1
  6
CONTINUOUS
 62
     7
  5
1B3
 10
-0.577963
 20
0.962628
 30
0.0
 11
-0.642784
 21
0.960778
 31
0.0
  0
LINE
  8
TRMODEL1
  6
CONTINUOUS
 62
     7
  5
1B4
 10
-0.642784
 20
0.960778
 30
0.0
 11
-0.707591
 21
0.958731
 31
0.0
  0
LINE
  8
TRMODEL1
  6
CONTINUOUS
 62
     7
  5
1B5
 10
-0.707591
 20
0.958731
 30
0.0
 11
-0.772381
 21
0.956487
 31
0.0
  0
LINE
  8
TRMODEL1
  6
CONTINUOUS
 62
     7
  5
1B6
 10
-0.772381
 20
0.956487
 30
0.0
 11
-0.837155
 21
0.954047
 31
0.0
  0
LINE
  8
TRMODEL1
  6
CONTINUOUS
 62
     7
  5
1B7
 10
-0.837155
 20
0.954047
 30
0.0
 11
-0.90191
 21
0.951411
 31
0.0
  0
LINE
  8
TRMODEL1
  6
CONTINUOUS
 62
     7
  5
1B8
 10
-0.90191
 20
0.951411
 30
0.0
 11
-0.966645
 21
0.948579
 31
0.0
  0
LINE
  8
TRMODEL1
  6
CONTINUOUS
 62
     7
  5
1B9
 10
-0.966645
 20
0.948579
 30
0.0
 11
-1.031358
 21
0.94555
 31
0.0
  0
LINE
  8
TRMODEL1
  6
CONTINUOUS
 62
     7
  5
1BA
 10
-1.031358
 20
0.94555
 30
0.0
 11
-1.096049
 21
0.942325
 31
0.0
  0
LINE
  8
TRMODEL1
  6
CONTINUOUS
 62
     7
  5
1BB
 10
-1.096049
 20
0.942325
 30
0.0
 11
-1.160715
 21
0.938904
 31
0.0
  0
LINE
  8
TRMODEL1
  6
CONTINUOUS
 62
     7
  5
1BC
 10
-1.160715
 20
0.938904
 30
0.0
 11
-1.225355
 21
0.935287
 31
0.0
  0
LINE
  8
TRMODEL1
  6
CONTINUOUS
 62
     7
  5
1BD
 10
-1.225355
 20
0.935287
 30
0.0
 11
-1.289968
 21
0.931474
 31
0.0
  0
LINE
  8
TRMODEL1
  6
CONTINUOUS
 62
     7
  5
1BE
 10
-1.289968
 20
0.931474
 30
0.0
 11
-1.354552
 21
0.927465
 31
0.0
  0
LINE
  8
TRMODEL1
  6
CONTINUOUS
 62
     7
  5
1BF
 10
-1.354552
 20
0.927465
 30
0.0
 11
-1.419106
 21
0.923261
 31
0.0
  0
LINE
  8
TRMODEL1
  6
CONTINUOUS
 62
     7
  5
1C0
 10
-1.419106
 20
0.923261
 30
0.0
 11
-1.483629
 21
0.91886
 31
0.0
  0
LINE
  8
TRMODEL1
  6
CONTINUOUS
 62
     7
  5
1C1
 10
-1.483629
 20
0.91886
 30
0.0
 11
-1.548118
 21
0.914265
 31
0.0
  0
LINE
  8
TRMODEL1
  6
CONTINUOUS
 62
     7
  5
1C2
 10
-1.548118
 20
0.914265
 30
0.0
 11
-1.612574
 21
0.909473
 31
0.0
  0
LINE
  8
TRMODEL1
  6
CONTINUOUS
 62
     7
  5
1C3
 10
-1.612574
 20
0.909473
 30
0.0
 11
-1.676993
 21
0.904487
 31
0.0
  0
LINE
  8
TRMODEL1
  6
CONTINUOUS
 62
     7
  5
1C4
 10
-1.676993
 20
0.904487
 30
0.0
 11
-1.741375
 21
0.899305
 31
0.0
  0
LINE
  8
TRMODEL1
  6
CONTINUOUS
 62
     7
  5
1C5
 10
-1.741375
 20
0.899305
 30
0.0
 11
-1.805718
 21
0.893928
 31
0.0
  0
LINE
  8
TRMODEL1
  6
CONTINUOUS
 62
     7
  5
1C6
 10
-1.805718
 20
0.893928
 30
0.0
 11
-1.870021
 21
0.888356
 31
0.0
  0
LINE
  8
TRMODEL1
  6
CONTINUOUS
 62
     7
  5
1C7
 10
-1.870021
 20
0.888356
 30
0.0
 11
-1.934283
 21
0.882589
 31
0.0
  0
LINE
  8
TRMODEL1
  6
CONTINUOUS
 62
     7
  5
1C8
 10
-1.934283
 20
0.882589
 30
0.0
 11
-1.998501
 21
0.876628
 31
0.0
  0
LINE
  8
TRMODEL1
  6
CONTINUOUS
 62
     7
  5
1C9
 10
-1.998501
 20
0.876628
 30
0.0
 11
-2.062675
 21
0.870471
 31
0.0
  0
LINE
  8
TRMODEL1
  6
CONTINUOUS
 62
     7
  5
1CA
 10
-2.062675
 20
0.870471
 30
0.0
 11
-2.126803
 21
0.86412
 31
0.0
  0
LINE
  8
TRMODEL1
  6
CONTINUOUS
 62
     7
  5
1CB
 10
-2.126803
 20
0.86412
 30
0.0
 11
-2.190884
 21
0.857575
 31
0.0
  0
LINE
  8
TRMODEL1
  6
CONTINUOUS
 62
     7
  5
1CC
 10
-2.190884
 20
0.857575
 30
0.0
 11
-2.254916
 21
0.850836
 31
0.0
  0
LINE
  8
TRMODEL1
  6
CONTINUOUS
 62
     7
  5
1CD
 10
-2.254916
 20
0.850836
 30
0.0
 11
-2.318898
 21
0.843903
 31
0.0
  0
LINE
  8
TRMODEL1
  6
CONTINUOUS
 62
     7
  5
1CE
 10
-0.059055
 20
0.970354
 30
0.0
 11
-0.123938
 21
0.970077
 31
0.0
  0
LINE
  8
TRMODEL1
  6
CONTINUOUS
 62
     7
  5
1CF
 10
-0.123938
 20
0.970077
 30
0.0
 11
-0.188819
 21
0.969603
 31
0.0
  0
LINE
  8
TRMODEL1
  6
CONTINUOUS
 62
     7
  5
1D0
 10
-0.188819
 20
0.969603
 30
0.0
 11
-0.253695
 21
0.968932
 31
0.0
  0
LINE
  8
TRMODEL1
  6
CONTINUOUS
 62
     7
  5
1D1
 10
-0.253695
 20
0.968932
 30
0.0
 11
-0.318566
 21
0.968064
 31
0.0
  0
LINE
  8
TRMODEL1
  6
CONTINUOUS
 62
     7
  5
1D2
 10
-0.318566
 20
0.968064
 30
0.0
 11
-0.383429
 21
0.967
 31
0.0
  0
LINE
  8
TRMODEL1
  6
CONTINUOUS
 62
     7
  5
1D3
 10
-0.383429
 20
0.967
 30
0.0
 11
-0.448285
 21
0.96574
 31
0.0
  0
LINE
  8
TRMODEL1
  6
CONTINUOUS
 62
     7
  5
1D4
 10
-0.448285
 20
0.96574
 30
0.0
 11
-0.51313
 21
0.964282
 31
0.0
  0
LINE
  8
TRMODEL1
  6
CONTINUOUS
 62
     7
  5
1D5
 10
-0.51313
 20
0.964282
 30
0.0
 11
-0.577963
 21
0.962628
 31
0.0
  0
LINE
  8
TRMODEL1
  6
CONTINUOUS
 62
     7
  5
1D6
 10
-0.577963
 20
0.962628
 30
0.0
 11
-0.642784
 21
0.960778
 31
0.0
  0
LINE
  8
TRMODEL1
  6
CONTINUOUS
 62
     7
  5
1D7
 10
-0.642784
 20
0.960778
 30
0.0
 11
-0.707591
 21
0.958731
 31
0.0
  0
LINE
  8
TRMODEL1
  6
CONTINUOUS
 62
     7
  5
1D8
 10
-0.707591
 20
0.958731
 30
0.0
 11
-0.772381
 21
0.956487
 31
0.0
  0
LINE
  8
TRMODEL1
  6
CONTINUOUS
 62
     7
  5
1D9
 10
-0.772381
 20
0.956487
 30
0.0
 11
-0.837155
 21
0.954047
 31
0.0
  0
LINE
  8
TRMODEL1
  6
CONTINUOUS
 62
     7
  5
1DA
 10
-0.837155
 20
0.954047
 30
0.0
 11
-0.90191
 21
0.951411
 31
0.0
  0
LINE
  8
TRMODEL1
  6
CONTINUOUS
 62
     7
  5
1DB
 10
-0.90191
 20
0.951411
 30
0.0
 11
-0.966645
 21
0.948579
 31
0.0
  0
LINE
  8
TRMODEL1
  6
CONTINUOUS
 62
     7
  5
1DC
 10
-0.966645
 20
0.948579
 30
0.0
 11
-1.031358
 21
0.94555
 31
0.0
  0
LINE
  8
TRMODEL1
  6
CONTINUOUS
 62
     7
  5
1DD
 10
-1.031358
 20
0.94555
 30
0.0
 11
-1.096049
 21
0.942325
 31
0.0
  0
LINE
  8
TRMODEL1
  6
CONTINUOUS
 62
     7
  5
1DE
 10
-1.096049
 20
0.942325
 30
0.0
 11
-1.160715
 21
0.938904
 31
0.0
  0
LINE
  8
TRMODEL1
  6
CONTINUOUS
 62
     7
  5
1DF
 10
-1.160715
 20
0.938904
 30
0.0
 11
-1.225355
 21
0.935287
 31
0.0
  0
LINE
  8
TRMODEL1
  6
CONTINUOUS
 62
     7
  5
1E0
 10
-1.225355
 20
0.935287
 30
0.0
 11
-1.289968
 21
0.931474
 31
0.0
  0
LINE
  8
TRMODEL1
  6
CONTINUOUS
 62
     7
  5
1E1
 10
-1.289968
 20
0.931474
 30
0.0
 11
-1.354552
 21
0.927465
 31
0.0
  0
LINE
  8
TRMODEL1
  6
CONTINUOUS
 62
     7
  5
1E2
 10
-1.354552
 20
0.927465
 30
0.0
 11
-1.419106
 21
0.923261
 31
0.0
  0
LINE
  8
TRMODEL1
  6
CONTINUOUS
 62
     7
  5
1E3
 10
-1.419106
 20
0.923261
 30
0.0
 11
-1.483629
 21
0.91886
 31
0.0
  0
LINE
  8
TRMODEL1
  6
CONTINUOUS
 62
     7
  5
1E4
 10
-1.483629
 20
0.91886
 30
0.0
 11
-1.548118
 21
0.914265
 31
0.0
  0
LINE
  8
TRMODEL1
  6
CONTINUOUS
 62
     7
  5
1E5
 10
-1.548118
 20
0.914265
 30
0.0
 11
-1.612574
 21
0.909473
 31
0.0
  0
LINE
  8
TRMODEL1
  6
CONTINUOUS
 62
     7
  5
1E6
 10
-1.612574
 20
0.909473
 30
0.0
 11
-1.676993
 21
0.904487
 31
0.0
  0
LINE
  8
TRMODEL1
  6
CONTINUOUS
 62
     7
  5
1E7
 10
-1.676993
 20
0.904487
 30
0.0
 11
-1.741375
 21
0.899305
 31
0.0
  0
LINE
  8
TRMODEL1
  6
CONTINUOUS
 62
     7
  5
1E8
 10
-1.741375
 20
0.899305
 30
0.0
 11
-1.805718
 21
0.893928
 31
0.0
  0
LINE
  8
TRMODEL1
  6
CONTINUOUS
 62
     7
  5
1E9
 10
-1.805718
 20
0.893928
 30
0.0
 11
-1.870021
 21
0.888356
 31
0.0
  0
LINE
  8
TRMODEL1
  6
CONTINUOUS
 62
     7
  5
1EA
 10
-1.870021
 20
0.888356
 30
0.0
 11
-1.934283
 21
0.882589
 31
0.0
  0
LINE
  8
TRMODEL1
  6
CONTINUOUS
 62
     7
  5
1EB
 10
-1.934283
 20
0.882589
 30
0.0
 11
-1.998501
 21
0.876628
 31
0.0
  0
LINE
  8
TRMODEL1
  6
CONTINUOUS
 62
     7
  5
1EC
 10
-1.998501
 20
0.876628
 30
0.0
 11
-2.062675
 21
0.870471
 31
0.0
  0
LINE
  8
TRMODEL1
  6
CONTINUOUS
 62
     7
  5
1ED
 10
-2.062675
 20
0.870471
 30
0.0
 11
-2.126803
 21
0.86412
 31
0.0
  0
LINE
  8
TRMODEL1
  6
CONTINUOUS
 62
     7
  5
1EE
 10
-2.126803
 20
0.86412
 30
0.0
 11
-2.190884
 21
0.857575
 31
0.0
  0
LINE
  8
TRMODEL1
  6
CONTINUOUS
 62
     7
  5
1EF
 10
-2.190884
 20
0.857575
 30
0.0
 11
-2.254916
 21
0.850836
 31
0.0
  0
LINE
  8
TRMODEL1
  6
CONTINUOUS
 62
     7
  5
1F0
 10
-2.254916
 20
0.850836
 30
0.0
 11
-2.318898
 21
0.843903
 31
0.0
  0
LINE
  8
TRMODEL1
  6
CONTINUOUS
 62
     7
  5
1F1
 10
-0.059055
 20
0.970354
 30
0.0
 11
-0.123938
 21
0.970077
 31
0.0
  0
LINE
  8
TRMODEL1
  6
CONTINUOUS
 62
     7
  5
1F2
 10
-0.123938
 20
0.970077
 30
0.0
 11
-0.188819
 21
0.969603
 31
0.0
  0
LINE
  8
TRMODEL1
  6
CONTINUOUS
 62
     7
  5
1F3
 10
-0.188819
 20
0.969603
 30
0.0
 11
-0.253695
 21
0.968932
 31
0.0
  0
LINE
  8
TRMODEL1
  6
CONTINUOUS
 62
     7
  5
1F4
 10
-0.253695
 20
0.968932
 30
0.0
 11
-0.318566
 21
0.968064
 31
0.0
  0
LINE
  8
TRMODEL1
  6
CONTINUOUS
 62
     7
  5
1F5
 10
-0.318566
 20
0.968064
 30
0.0
 11
-0.383429
 21
0.967
 31
0.0
  0
LINE
  8
TRMODEL1
  6
CONTINUOUS
 62
     7
  5
1F6
 10
-0.383429
 20
0.967
 30
0.0
 11
-0.448285
 21
0.96574
 31
0.0
  0
LINE
  8
TRMODEL1
  6
CONTINUOUS
 62
     7
  5
1F7
 10
-0.448285
 20
0.96574
 30
0.0
 11
-0.51313
 21
0.964282
 31
0.0
  0
LINE
  8
TRMODEL1
  6
CONTINUOUS
 62
     7
  5
1F8
 10
-0.51313
 20
0.964282
 30
0.0
 11
-0.577963
 21
0.962628
 31
0.0
  0
LINE
  8
TRMODEL1
  6
CONTINUOUS
 62
     7
  5
1F9
 10
-0.577963
 20
0.962628
 30
0.0
 11
-0.642784
 21
0.960778
 31
0.0
  0
LINE
  8
TRMODEL1
  6
CONTINUOUS
 62
     7
  5
1FA
 10
-0.642784
 20
0.960778
 30
0.0
 11
-0.707591
 21
0.958731
 31
0.0
  0
LINE
  8
TRMODEL1
  6
CONTINUOUS
 62
     7
  5
1FB
 10
-0.707591
 20
0.958731
 30
0.0
 11
-0.772381
 21
0.956487
 31
0.0
  0
LINE
  8
TRMODEL1
  6
CONTINUOUS
 62
     7
  5
1FC
 10
-0.772381
 20
0.956487
 30
0.0
 11
-0.837155
 21
0.954047
 31
0.0
  0
LINE
  8
TRMODEL1
  6
CONTINUOUS
 62
     7
  5
1FD
 10
-0.837155
 20
0.954047
 30
0.0
 11
-0.90191
 21
0.951411
 31
0.0
  0
LINE
  8
TRMODEL1
  6
CONTINUOUS
 62
     7
  5
1FE
 10
-0.90191
 20
0.951411
 30
0.0
 11
-0.966645
 21
0.948579
 31
0.0
  0
LINE
  8
TRMODEL1
  6
CONTINUOUS
 62
     7
  5
1FF
 10
-0.966645
 20
0.948579
 30
0.0
 11
-1.031358
 21
0.94555
 31
0.0
  0
LINE
  8
TRMODEL1
  6
CONTINUOUS
 62
     7
  5
200
 10
-1.031358
 20
0.94555
 30
0.0
 11
-1.096049
 21
0.942325
 31
0.0
  0
LINE
  8
TRMODEL1
  6
CONTINUOUS
 62
     7
  5
201
 10
-1.096049
 20
0.942325
 30
0.0
 11
-1.160715
 21
0.938904
 31
0.0
  0
LINE
  8
TRMODEL1
  6
CONTINUOUS
 62
     7
  5
202
 10
-1.160715
 20
0.938904
 30
0.0
 11
-1.225355
 21
0.935287
 31
0.0
  0
LINE
  8
TRMODEL1
  6
CONTINUOUS
 62
     7
  5
203
 10
-1.225355
 20
0.935287
 30
0.0
 11
-1.289968
 21
0.931474
 31
0.0
  0
LINE
  8
TRMODEL1
  6
CONTINUOUS
 62
     7
  5
204
 10
-1.289968
 20
0.931474
 30
0.0
 11
-1.354552
 21
0.927465
 31
0.0
  0
LINE
  8
TRMODEL1
  6
CONTINUOUS
 62
     7
  5
205
 10
-1.354552
 20
0.927465
 30
0.0
 11
-1.419106
 21
0.923261
 31
0.0
  0
LINE
  8
TRMODEL1
  6
CONTINUOUS
 62
     7
  5
206
 10
-1.419106
 20
0.923261
 30
0.0
 11
-1.483629
 21
0.91886
 31
0.0
  0
LINE
  8
TRMODEL1
  6
CONTINUOUS
 62
     7
  5
207
 10
-1.483629
 20
0.91886
 30
0.0
 11
-1.548118
 21
0.914265
 31
0.0
  0
LINE
  8
TRMODEL1
  6
CONTINUOUS
 62
     7
  5
208
 10
-1.548118
 20
0.914265
 30
0.0
 11
-1.612574
 21
0.909473
 31
0.0
  0
LINE
  8
TRMODEL1
  6
CONTINUOUS
 62
     7
  5
209
 10
-1.612574
 20
0.909473
 30
0.0
 11
-1.676993
 21
0.904487
 31
0.0
  0
LINE
  8
TRMODEL1
  6
CONTINUOUS
 62
     7
  5
20A
 10
-1.676993
 20
0.904487
 30
0.0
 11
-1.741375
 21
0.899305
 31
0.0
  0
LINE
  8
TRMODEL1
  6
CONTINUOUS
 62
     7
  5
20B
 10
-1.741375
 20
0.899305
 30
0.0
 11
-1.805718
 21
0.893928
 31
0.0
  0
LINE
  8
TRMODEL1
  6
CONTINUOUS
 62
     7
  5
20C
 10
-1.805718
 20
0.893928
 30
0.0
 11
-1.870021
 21
0.888356
 31
0.0
  0
LINE
  8
TRMODEL1
  6
CONTINUOUS
 62
     7
  5
20D
 10
-1.870021
 20
0.888356
 30
0.0
 11
-1.934283
 21
0.882589
 31
0.0
  0
LINE
  8
TRMODEL1
  6
CONTINUOUS
 62
     7
  5
20E
 10
-1.934283
 20
0.882589
 30
0.0
 11
-1.998501
 21
0.876628
 31
0.0
  0
LINE
  8
TRMODEL1
  6
CONTINUOUS
 62
     7
  5
20F
 10
-1.998501
 20
0.876628
 30
0.0
 11
-2.062675
 21
0.870471
 31
0.0
  0
LINE
  8
TRMODEL1
  6
CONTINUOUS
 62
     7
  5
210
 10
-2.062675
 20
0.870471
 30
0.0
 11
-2.126803
 21
0.86412
 31
0.0
  0
LINE
  8
TRMODEL1
  6
CONTINUOUS
 62
     7
  5
211
 10
-2.126803
 20
0.86412
 30
0.0
 11
-2.190884
 21
0.857575
 31
0.0
  0
LINE
  8
TRMODEL1
  6
CONTINUOUS
 62
     7
  5
212
 10
-2.190884
 20
0.857575
 30
0.0
 11
-2.254916
 21
0.850836
 31
0.0
  0
LINE
  8
TRMODEL1
  6
CONTINUOUS
 62
     7
  5
213
 10
-2.254916
 20
0.850836
 30
0.0
 11
-2.318898
 21
0.843903
 31
0.0
  0
LINE
  8
TRMODEL1
  6
CONTINUOUS
 62
     7
  5
214
 10
0.059055
 20
0.749426
 30
0.0
 11
-0.059055
 21
0.749426
 31
0.0
  0
LINE
  8
TRMODEL1
  6
CONTINUOUS
 62
     7
  5
215
 10
0.059055
 20
0.826091
 30
0.0
 11
0.059055
 21
0.749426
 31
0.0
  0
LINE
  8
TRMODEL1
  6
CONTINUOUS
 62
     7
  5
216
 10
2.322835
 20
-1.377953
 30
0.0
 11
2.440945
 21
-1.377953
 31
0.0
  0
LINE
  8
TRMODEL1
  6
CONTINUOUS
 62
     7
  5
217
 10
-2.322835
 20
-1.377953
 30
0.0
 11
2.322835
 21
-1.377953
 31
0.0
  0
LINE
  8
TRMODEL1
  6
CONTINUOUS
 62
     7
  5
218
 10
-2.440945
 20
-1.377953
 30
0.0
 11
-2.322835
 21
-1.377953
 31
0.0
  0
LINE
  8
TRMODEL1
  6
CONTINUOUS
 62
     7
  5
219
 10
-2.440945
 20
0.0
 30
0.0
 11
-2.440945
 21
-1.377953
 31
0.0
  0
LINE
  8
TRMODEL1
  6
CONTINUOUS
 62
     7
  5
21A
 10
2.440945
 20
0.0
 30
0.0
 11
2.440945
 21
-1.377953
 31
0.0
  0
LINE
  8
TRMODEL1
  6
CONTINUOUS
 62
     7
  5
21B
 10
2.992126
 20
0.590551
 30
0.0
 11
2.992126
 21
0.984252
 31
0.0
  0
LINE
  8
TRMODEL1
  6
CONTINUOUS
 62
     7
  5
21C
 10
-2.992126
 20
0.984252
 30
0.0
 11
-2.992126
 21
0.590551
 31
0.0
  0
LINE
  8
TRMODEL1
  6
CONTINUOUS
 62
     7
  5
21D
 10
2.992126
 20
0.590551
 30
0.0
 11
-2.992126
 21
0.590551
 31
0.0
  0
LINE
  8
TRMODEL1
  6
CONTINUOUS
 62
     7
  5
21E
 10
2.992126
 20
0.0
 30
0.0
 11
2.992126
 21
0.590551
 31
0.0
  0
LINE
  8
TRMODEL1
  6
CONTINUOUS
 62
     7
  5
21F
 10
-2.992126
 20
0.0
 30
0.0
 11
-2.992126
 21
0.590551
 31
0.0
  0
LINE
  8
TRMODEL1
  6
CONTINUOUS
 62
     7
  5
220
 10
-2.992126
 20
0.0
 30
0.0
 11
2.992126
 21
0.0
 31
0.0
  0
LINE
  8
TRMODEL1
  6
CONTINUOUS
 62
     7
  5
221
 10
2.992126
 20
0.984252
 30
0.0
 11
2.318898
 21
0.984252
 31
0.0
  0
LINE
  8
TRMODEL1
  6
CONTINUOUS
 62
     7
  5
222
 10
-2.318898
 20
0.984252
 30
0.0
 11
-2.992126
 21
0.984252
 31
0.0
  0
ENDSEC
  0
EOF
