  0
SECTION
  2
HEADER
  9
$ACADVER
  1
AC1018
  9
$ACADMAINTVER
 70
   104
  9
$DWGCODEPAGE
  3
ANSI_932
  9
$AUTHOR
  1
SHIMPO
  9
$CUSTOMPROPERTYTAG
  1
マネージャ
  9
$CUSTOMPROPERTY
  1

  9
$CUSTOMPROPERTYTAG
  1
会社
  9
$CUSTOMPROPERTY
  1

  9
$CUSTOMPROPERTYTAG
  1
カテゴリ
  9
$CUSTOMPROPERTY
  1

  9
$CUSTOMPROPERTYTAG
  1
部品番号
  9
$CUSTOMPROPERTY
  1
VRXF-□-3~9B-S-8AM6
  9
$CUSTOMPROPERTYTAG
  1
説明
  9
$CUSTOMPROPERTY
  1

  9
$CUSTOMPROPERTYTAG
  1
プロジェクト
  9
$CUSTOMPROPERTY
  1

  9
$CUSTOMPROPERTYTAG
  1
設計者
  9
$CUSTOMPROPERTY
  1
SHIMPO
  9
$CUSTOMPROPERTYTAG
  1
エンジニア
  9
$CUSTOMPROPERTY
  1

  9
$CUSTOMPROPERTYTAG
  1
責任者
  9
$CUSTOMPROPERTY
  1

  9
$CUSTOMPROPERTYTAG
  1
コスト センター
  9
$CUSTOMPROPERTY
  1

  9
$CUSTOMPROPERTYTAG
  1
ベンダー
  9
$CUSTOMPROPERTY
  1

  9
$CUSTOMPROPERTYTAG
  1
ユーザ ステータス
  9
$CUSTOMPROPERTY
  1

  9
$CUSTOMPROPERTYTAG
  1
設計ステータス
  9
$CUSTOMPROPERTY
  1
作業中
  9
$CUSTOMPROPERTYTAG
  1
確認者
  9
$CUSTOMPROPERTY
  1

  9
$CUSTOMPROPERTYTAG
  1
エンジニアリング承認者
  9
$CUSTOMPROPERTY
  1

  9
$CUSTOMPROPERTYTAG
  1
製造承認者
  9
$CUSTOMPROPERTY
  1

  9
$INSBASE
 10
0.0
 20
0.0
 30
0.0
  9
$EXTMIN
 10
0.0
 20
0.0
 30
0.0
  9
$EXTMAX
 10
420.0
 20
297.0
 30
0.0
  9
$LIMMIN
 10
0.0
 20
0.0
  9
$LIMMAX
 10
420.0
 20
297.0
  9
$ORTHOMODE
 70
     0
  9
$REGENMODE
 70
     1
  9
$FILLMODE
 70
     1
  9
$QTEXTMODE
 70
     0
  9
$MIRRTEXT
 70
     0
  9
$LTSCALE
 40
1.0
  9
$ATTMODE
 70
     1
  9
$TEXTSIZE
 40
0.2
  9
$TRACEWID
 40
0.05
  9
$TEXTSTYLE
  7
Standard
  9
$CLAYER
  8
0
  9
$CELTYPE
  6
ByLayer
  9
$CECOLOR
 62
   256
  9
$CELTSCALE
 40
1.0
  9
$DISPSILH
 70
     0
  9
$DIMSCALE
 40
1.0
  9
$DIMASZ
 40
1.799999999999999
  9
$DIMEXO
 40
0.0625
  9
$DIMDLI
 40
0.38
  9
$DIMRND
 40
0.0
  9
$DIMDLE
 40
0.0
  9
$DIMEXE
 40
0.18
  9
$DIMTP
 40
0.0
  9
$DIMTM
 40
0.0
  9
$DIMTXT
 40
0.4499999880790711
  9
$DIMCEN
 40
0.09
  9
$DIMTSZ
 40
0.0
  9
$DIMTOL
 70
     0
  9
$DIMLIM
 70
     0
  9
$DIMTIH
 70
     1
  9
$DIMTOH
 70
     1
  9
$DIMSE1
 70
     0
  9
$DIMSE2
 70
     0
  9
$DIMTAD
 70
     0
  9
$DIMZIN
 70
     0
  9
$DIMBLK
  1

  9
$DIMASO
 70
     1
  9
$DIMSHO
 70
     1
  9
$DIMPOST
  1

  9
$DIMAPOST
  1

  9
$DIMALT
 70
     0
  9
$DIMALTD
 70
     2
  9
$DIMALTF
 40
25.4
  9
$DIMLFAC
 40
1.0
  9
$DIMTOFL
 70
     0
  9
$DIMTVP
 40
0.0
  9
$DIMTIX
 70
     0
  9
$DIMSOXD
 70
     0
  9
$DIMSAH
 70
     0
  9
$DIMBLK1
  1

  9
$DIMBLK2
  1

  9
$DIMSTYLE
  2
Standard
  9
$DIMCLRD
 70
     0
  9
$DIMCLRE
 70
     0
  9
$DIMCLRT
 70
     0
  9
$DIMTFAC
 40
1.0
  9
$DIMGAP
 40
0.09
  9
$DIMJUST
 70
     0
  9
$DIMSD1
 70
     0
  9
$DIMSD2
 70
     0
  9
$DIMTOLJ
 70
     1
  9
$DIMTZIN
 70
     0
  9
$DIMALTZ
 70
     0
  9
$DIMALTTZ
 70
     0
  9
$DIMUPT
 70
     0
  9
$DIMDEC
 70
     4
  9
$DIMTDEC
 70
     4
  9
$DIMALTU
 70
     2
  9
$DIMALTTD
 70
     2
  9
$DIMTXSTY
  7
Standard
  9
$DIMAUNIT
 70
     0
  9
$DIMADEC
 70
     0
  9
$DIMALTRND
 40
0.0
  9
$DIMAZIN
 70
     0
  9
$DIMDSEP
 70
    46
  9
$DIMATFIT
 70
     3
  9
$DIMFRAC
 70
     0
  9
$DIMLDRBLK
  1

  9
$DIMLUNIT
 70
     2
  9
$DIMLWD
 70
    -2
  9
$DIMLWE
 70
    -2
  9
$DIMTMOVE
 70
     0
  9
$LUNITS
 70
     2
  9
$LUPREC
 70
     4
  9
$SKETCHINC
 40
0.1
  9
$FILLETRAD
 40
0.0
  9
$AUNITS
 70
     0
  9
$AUPREC
 70
     0
  9
$MENU
  1
.
  9
$ELEVATION
 40
0.0
  9
$PELEVATION
 40
0.0
  9
$THICKNESS
 40
0.0
  9
$LIMCHECK
 70
     0
  9
$CHAMFERA
 40
0.0
  9
$CHAMFERB
 40
0.0
  9
$CHAMFERC
 40
0.0
  9
$CHAMFERD
 40
0.0
  9
$SKPOLY
 70
     0
  9
$TDCREATE
 40
2457396.838821725
  9
$TDUCREATE
 40
2457396.463821725
  9
$TDUPDATE
 40
2457396.838821725
  9
$TDUUPDATE
 40
2457396.463821725
  9
$TDINDWG
 40
0.0000811227
  9
$TDUSRTIMER
 40
0.0000811227
  9
$USRTIMER
 70
     1
  9
$ANGBASE
 50
0.0
  9
$ANGDIR
 70
     0
  9
$PDMODE
 70
     0
  9
$PDSIZE
 40
0.0
  9
$PLINEWID
 40
0.0
  9
$SPLFRAME
 70
     0
  9
$SPLINETYPE
 70
     6
  9
$SPLINESEGS
 70
     8
  9
$HANDSEED
  5
377
  9
$SURFTAB1
 70
     6
  9
$SURFTAB2
 70
     6
  9
$SURFTYPE
 70
     6
  9
$SURFU
 70
     6
  9
$SURFV
 70
     6
  9
$UCSBASE
  2

  9
$UCSNAME
  2

  9
$UCSORG
 10
0.0
 20
0.0
 30
0.0
  9
$UCSXDIR
 10
1.0
 20
0.0
 30
0.0
  9
$UCSYDIR
 10
0.0
 20
1.0
 30
0.0
  9
$UCSORTHOREF
  2

  9
$UCSORTHOVIEW
 70
     0
  9
$UCSORGTOP
 10
0.0
 20
0.0
 30
0.0
  9
$UCSORGBOTTOM
 10
0.0
 20
0.0
 30
0.0
  9
$UCSORGLEFT
 10
0.0
 20
0.0
 30
0.0
  9
$UCSORGRIGHT
 10
0.0
 20
0.0
 30
0.0
  9
$UCSORGFRONT
 10
0.0
 20
0.0
 30
0.0
  9
$UCSORGBACK
 10
0.0
 20
0.0
 30
0.0
  9
$PUCSBASE
  2

  9
$PUCSNAME
  2

  9
$PUCSORG
 10
0.0
 20
0.0
 30
0.0
  9
$PUCSXDIR
 10
1.0
 20
0.0
 30
0.0
  9
$PUCSYDIR
 10
0.0
 20
1.0
 30
0.0
  9
$PUCSORTHOREF
  2

  9
$PUCSORTHOVIEW
 70
     0
  9
$PUCSORGTOP
 10
0.0
 20
0.0
 30
0.0
  9
$PUCSORGBOTTOM
 10
0.0
 20
0.0
 30
0.0
  9
$PUCSORGLEFT
 10
0.0
 20
0.0
 30
0.0
  9
$PUCSORGRIGHT
 10
0.0
 20
0.0
 30
0.0
  9
$PUCSORGFRONT
 10
0.0
 20
0.0
 30
0.0
  9
$PUCSORGBACK
 10
0.0
 20
0.0
 30
0.0
  9
$USERI1
 70
     0
  9
$USERI2
 70
     0
  9
$USERI3
 70
     0
  9
$USERI4
 70
     0
  9
$USERI5
 70
     0
  9
$USERR1
 40
0.0
  9
$USERR2
 40
0.0
  9
$USERR3
 40
0.0
  9
$USERR4
 40
0.0
  9
$USERR5
 40
0.0
  9
$WORLDVIEW
 70
     1
  9
$SHADEDGE
 70
     3
  9
$SHADEDIF
 70
    70
  9
$TILEMODE
 70
     1
  9
$MAXACTVP
 70
    64
  9
$PINSBASE
 10
0.0
 20
0.0
 30
0.0
  9
$PLIMCHECK
 70
     0
  9
$PEXTMIN
 10
0.0
 20
0.0
 30
0.0
  9
$PEXTMAX
 10
420.0
 20
297.0
 30
0.0
  9
$PLIMMIN
 10
0.0
 20
0.0
  9
$PLIMMAX
 10
420.0
 20
297.0
  9
$UNITMODE
 70
     0
  9
$VISRETAIN
 70
     1
  9
$PLINEGEN
 70
     0
  9
$PSLTSCALE
 70
     1
  9
$TREEDEPTH
 70
  3020
  9
$CMLSTYLE
  2
Standard
  9
$CMLJUST
 70
     0
  9
$CMLSCALE
 40
1.0
  9
$PROXYGRAPHICS
 70
     1
  9
$MEASUREMENT
 70
     1
  9
$CELWEIGHT
370
    -1
  9
$ENDCAPS
280
     0
  9
$JOINSTYLE
280
     0
  9
$LWDISPLAY
290
     0
  9
$INSUNITS
 70
     4
  9
$HYPERLINKBASE
  1

  9
$STYLESHEET
  1

  9
$XEDIT
290
     1
  9
$CEPSNTYPE
380
     0
  9
$PSTYLEMODE
290
     1
  9
$FINGERPRINTGUID
  2
{84D1AA41-C2B7-430E-A3E8-93F4A9512F3C}
  9
$VERSIONGUID
  2
{19F33F40-163D-4173-9A4B-AAC9769DAF99}
  9
$EXTNAMES
290
     1
  9
$PSVPSCALE
 40
0.0
  9
$OLESTARTUP
290
     0
  9
$SORTENTS
280
   127
  9
$INDEXCTL
280
     0
  9
$HIDETEXT
280
     1
  9
$XCLIPFRAME
290
     0
  9
$HALOGAP
280
     0
  9
$OBSCOLOR
 70
   257
  9
$OBSLTYPE
280
     0
  9
$INTERSECTIONDISPLAY
280
     0
  9
$INTERSECTIONCOLOR
 70
   257
  9
$DIMASSOC
280
     1
  9
$PROJECTNAME
  1

  0
ENDSEC
  0
SECTION
  2
CLASSES
  0
CLASS
  1
ACDBDICTIONARYWDFLT
  2
AcDbDictionaryWithDefault
  3
ObjectDBX Classes
 90
        0
 91
        1
280
     0
281
     0
  0
CLASS
  1
MATERIAL
  2
AcDbMaterial
  3
ObjectDBX Classes
 90
     1153
 91
        3
280
     0
281
     0
  0
CLASS
  1
VISUALSTYLE
  2
AcDbVisualStyle
  3
ObjectDBX Classes
 90
     4095
 91
       24
280
     0
281
     0
  0
CLASS
  1
SCALE
  2
AcDbScale
  3
ObjectDBX Classes
 90
     1153
 91
       17
280
     0
281
     0
  0
CLASS
  1
TABLESTYLE
  2
AcDbTableStyle
  3
ObjectDBX Classes
 90
     4095
 91
        1
280
     0
281
     0
  0
CLASS
  1
MLEADERSTYLE
  2
AcDbMLeaderStyle
  3
ACDB_MLEADERSTYLE_CLASS
 90
     4095
 91
        1
280
     0
281
     0
  0
CLASS
  1
DICTIONARYVAR
  2
AcDbDictionaryVar
  3
ObjectDBX Classes
 90
        0
 91
        8
280
     0
281
     0
  0
CLASS
  1
CELLSTYLEMAP
  2
AcDbCellStyleMap
  3
ObjectDBX Classes
 90
     1152
 91
        1
280
     0
281
     0
  0
ENDSEC
  0
SECTION
  2
TABLES
  0
TABLE
  2
VPORT
  5
8
330
0
100
AcDbSymbolTable
 70
     1
  0
VPORT
  5
57
330
8
100
AcDbSymbolTableRecord
100
AcDbViewportTableRecord
  2
*Active
 70
     0
 10
0.0
 20
0.0
 11
1.0
 21
1.0
 12
210.0
 22
148.5
 13
0.0
 23
0.0
 14
1.0
 24
1.0
 15
0.0
 25
0.0
 16
0.0
 26
0.0
 36
1.0
 17
0.0
 27
0.0
 37
0.0
 40
297.0
 41
1.414141414141414
 42
50.0
 43
0.0
 44
0.0
 50
0.0
 51
0.0
 71
     0
 72
   100
 73
     1
 74
     1
 75
     0
 76
     0
 77
     0
 78
     0
281
     0
 65
     1
110
0.0
120
0.0
130
0.0
111
1.0
121
0.0
131
0.0
112
0.0
122
1.0
132
0.0
 79
     0
146
0.0
  0
ENDTAB
  0
TABLE
  2
LTYPE
  5
5
330
0
100
AcDbSymbolTable
 70
     1
  0
LTYPE
  5
5B
330
5
100
AcDbSymbolTableRecord
100
AcDbLinetypeTableRecord
  2
ByBlock
 70
     0
  3

 72
    65
 73
     0
 40
0.0
  0
LTYPE
  5
5C
330
5
100
AcDbSymbolTableRecord
100
AcDbLinetypeTableRecord
  2
ByLayer
 70
     0
  3

 72
    65
 73
     0
 40
0.0
  0
LTYPE
  5
5D
330
5
100
AcDbSymbolTableRecord
100
AcDbLinetypeTableRecord
  2
Continuous
 70
     0
  3
Solid line
 72
    65
 73
     0
 40
0.0
  0
ENDTAB
  0
TABLE
  2
LAYER
  5
2
330
0
100
AcDbSymbolTable
 70
    26
  0
LAYER
  5
54
330
2
100
AcDbSymbolTableRecord
100
AcDbLayerTableRecord
  2
0
 70
     0
 62
     7
  6
Continuous
370
    -3
390
F
  0
LAYER
  5
77
330
2
100
AcDbSymbolTableRecord
100
AcDbLayerTableRecord
  2
Border (ISO)
 70
     0
 62
     7
  6
Continuous
370
    70
390
F
  0
LAYER
  5
79
330
2
100
AcDbSymbolTableRecord
100
AcDbLayerTableRecord
  2
Center Mark (ISO)
 70
     0
 62
     7
  6
Continuous
370
    25
390
F
  0
LAYER
  5
7A
330
2
100
AcDbSymbolTableRecord
100
AcDbLayerTableRecord
  2
Centerline (ISO)
 70
     0
 62
     7
  6
Continuous
370
    25
390
F
  0
LAYER
  5
85
330
2
100
AcDbSymbolTableRecord
100
AcDbLayerTableRecord
  2
Title (ISO)
 70
     0
 62
     7
  6
Continuous
370
    50
390
F
  0
LAYER
  5
87
330
2
100
AcDbSymbolTableRecord
100
AcDbLayerTableRecord
  2
Visible (ISO)
 70
     0
 62
     7
  6
Continuous
370
    50
390
F
  0
LAYER
  5
88
330
2
100
AcDbSymbolTableRecord
100
AcDbLayerTableRecord
  2
Visible Narrow (ISO)
 70
     0
 62
     7
  6
Continuous
370
    35
390
F
  0
ENDTAB
  0
TABLE
  2
STYLE
  5
3
330
0
100
AcDbSymbolTable
 70
     5
  0
STYLE
  5
55
330
3
100
AcDbSymbolTableRecord
100
AcDbTextStyleTableRecord
  2
Standard
 70
     0
 40
0.0
 41
1.0
 50
0.0
 71
     0
 42
0.2
  3
tahoma.ttf
  4

1001
ACAD
1000
Tahoma
1071
      256
  0
STYLE
  5
5A
330
3
100
AcDbSymbolTableRecord
100
AcDbTextStyleTableRecord
  2
Annotative
 70
     0
 40
0.0
 41
1.0
 50
0.0
 71
     0
 42
0.2
  3
txt
  4

1001
AcadAnnotative
1000
AnnotativeData
1002
{
1070
     1
1070
     1
1002
}
  0
STYLE
  5
8D
330
3
100
AcDbSymbolTableRecord
100
AcDbTextStyleTableRecord
  2
Label Text (JIS)
 70
     0
 40
0.0
 41
1.0
 50
0.0
 71
     0
 42
0.2
  3
tahoma.ttf
  4

1001
ACAD
1000
Tahoma
1071
      256
  0
STYLE
  5
8E
330
3
100
AcDbSymbolTableRecord
100
AcDbTextStyleTableRecord
  2
Note Text (JIS)
 70
     0
 40
0.0
 41
1.0
 50
0.0
 71
     0
 42
0.2
  3
tahoma.ttf
  4

1001
ACAD
1000
Tahoma
1071
      256
  0
STYLE
  5
CC
330
3
100
AcDbSymbolTableRecord
100
AcDbTextStyleTableRecord
  2
文字スタイル12
 70
     0
 40
0.0
 41
1.0
 50
0.0
 71
     0
 42
0.2
  3
tahoma.ttf
  4

1001
ACAD
1000
Tahoma
1071
      256
  0
ENDTAB
  0
TABLE
  2
VIEW
  5
6
330
0
100
AcDbSymbolTable
 70
     0
  0
ENDTAB
  0
TABLE
  2
UCS
  5
7
330
0
100
AcDbSymbolTable
 70
     0
  0
ENDTAB
  0
TABLE
  2
APPID
  5
9
330
0
100
AcDbSymbolTable
 70
     4
  0
APPID
  5
56
330
9
100
AcDbSymbolTableRecord
100
AcDbRegAppTableRecord
  2
ACAD
 70
     0
  0
APPID
  5
5E
330
9
100
AcDbSymbolTableRecord
100
AcDbRegAppTableRecord
  2
AcadAnnotative
 70
     0
  0
APPID
  5
CF
330
9
100
AcDbSymbolTableRecord
100
AcDbRegAppTableRecord
  2
AcadAnnoPO
 70
     0
  0
APPID
  5
376
330
9
100
AcDbSymbolTableRecord
100
AcDbRegAppTableRecord
  2
ACAD_MLEADERVER
 70
     0
  0
ENDTAB
  0
TABLE
  2
DIMSTYLE
  5
A
330
0
100
AcDbSymbolTable
 70
    11
100
AcDbDimStyleTable
 71
     0
  0
DIMSTYLE
105
58
330
A
100
AcDbSymbolTableRecord
100
AcDbDimStyleTableRecord
  2
Standard
 70
     0
340
55
  0
DIMSTYLE
105
59
330
A
100
AcDbSymbolTableRecord
100
AcDbDimStyleTableRecord
  2
Annotative
 70
     0
340
55
1001
AcadAnnotative
1000
AnnotativeData
1002
{
1070
     1
1070
     1
1002
}
  0
DIMSTYLE
105
8F
330
A
100
AcDbSymbolTableRecord
100
AcDbDimStyleTableRecord
  2
Default - Method 1b (JIS)
 70
     0
 41
2.5
 42
0.0
 43
5.999999999999999
 44
3.174999999999999
 45
0.00000001
 46
10.0
 73
     0
 77
     1
 78
     8
 79
     2
140
4.5
143
0.03937
147
0.8
171
     3
172
     1
176
   256
177
   256
178
   256
271
     2
272
     2
274
     3
284
     8
286
     8
340
8E
341
90
342
90
371
    -1
372
    -1
  0
DIMSTYLE
105
96
330
A
100
AcDbSymbolTableRecord
100
AcDbDimStyleTableRecord
  2
Default - Method 1b (JIS)$7
 70
     0
 41
2.5
 42
0.0
 43
5.999999999999999
 44
3.174999999999999
 45
0.00000001
 46
10.0
 73
     0
 77
     1
 78
     8
 79
     2
140
4.5
143
0.03937
147
0.8
171
     3
172
     1
176
   256
177
   256
178
   256
271
     2
272
     2
274
     3
284
     8
286
     8
340
8E
341
90
342
90
371
    -1
372
    -1
  0
DIMSTYLE
105
97
330
A
100
AcDbSymbolTableRecord
100
AcDbDimStyleTableRecord
  2
Default - Method 2 (JIS)
 70
     0
 41
2.5
 42
0.0
 43
5.999999999999999
 44
3.174999999999999
 45
0.00000001
 46
10.0
 77
     1
 78
     8
 79
     2
140
4.5
143
0.03937
147
0.8
171
     3
172
     1
176
   256
177
   256
178
   256
271
     2
272
     2
274
     3
284
     8
286
     8
340
8E
341
90
342
90
371
    -1
372
    -1
  0
DIMSTYLE
105
98
330
A
100
AcDbSymbolTableRecord
100
AcDbDimStyleTableRecord
  2
Default - Method 2 (JIS)$7
 70
     0
 41
2.5
 42
0.0
 43
5.999999999999999
 44
3.174999999999999
 45
0.00000001
 46
10.0
 77
     1
 78
     8
 79
     2
140
4.5
143
0.03937
147
0.8
171
     3
172
     1
176
   256
177
   256
178
   256
271
     2
272
     2
274
     3
284
     8
286
     8
340
8E
341
90
342
90
371
    -1
372
    -1
  0
DIMSTYLE
105
99
330
A
100
AcDbSymbolTableRecord
100
AcDbDimStyleTableRecord
  2
Default (JIS)
 70
     0
 41
2.5
 42
0.0
 43
5.999999999999999
 44
1.0
 45
0.00000001
 46
10.0
 73
     0
 74
     0
 77
     1
 78
     8
 79
     2
140
4.5
143
0.03937
146
0.7777777910232544
147
0.8
171
     3
172
     1
176
   256
177
   256
178
   256
271
     2
272
     2
274
     3
340
8E
341
90
342
90
371
    -1
372
    -1
  0
DIMSTYLE
105
9A
330
A
100
AcDbSymbolTableRecord
100
AcDbDimStyleTableRecord
  2
Default (JIS)$7
 70
     0
 41
2.5
 42
0.0
 43
5.999999999999999
 44
1.0
 45
0.00000001
 46
10.0
 73
     0
 74
     0
 77
     1
 78
     8
 79
     2
140
4.5
143
0.03937
146
0.7777777910232544
147
0.8
171
     3
172
     1
176
   256
177
   256
178
   256
271
     2
272
     2
274
     3
340
8E
341
90
342
90
371
    -1
372
    -1
  0
DIMSTYLE
105
9B
330
A
100
AcDbSymbolTableRecord
100
AcDbDimStyleTableRecord
  2
Alternate (ISO)
 70
     0
 41
2.5
340
55
342
9C
  0
DIMSTYLE
105
AE
330
A
100
AcDbSymbolTableRecord
100
AcDbDimStyleTableRecord
  2
Datum (ISO)
 70
     0
 41
2.5
340
55
342
9C
  0
DIMSTYLE
105
BD
330
A
100
AcDbSymbolTableRecord
100
AcDbDimStyleTableRecord
  2
Large (ISO)
 70
     0
 41
5.0
340
55
342
9C
  0
ENDTAB
  0
TABLE
  2
BLOCK_RECORD
  5
1
330
0
100
AcDbSymbolTable
 70
     7
  0
BLOCK_RECORD
  5
6C
330
1
100
AcDbSymbolTableRecord
100
AcDbBlockTableRecord
  2
*Model_Space
340
6F
  0
BLOCK_RECORD
  5
68
330
1
100
AcDbSymbolTableRecord
100
AcDbBlockTableRecord
  2
*Paper_Space
340
6B
  0
BLOCK_RECORD
  5
70
330
1
100
AcDbSymbolTableRecord
100
AcDbBlockTableRecord
  2
*Paper_Space0
340
73
  0
BLOCK_RECORD
  5
90
330
1
100
AcDbSymbolTableRecord
100
AcDbBlockTableRecord
  2
_Open
340
0
  0
BLOCK_RECORD
  5
9C
330
1
100
AcDbSymbolTableRecord
100
AcDbBlockTableRecord
  2
_Closed
340
0
  0
BLOCK_RECORD
  5
A3
330
1
100
AcDbSymbolTableRecord
100
AcDbBlockTableRecord
  2
DatumFilled45
340
0
  0
BLOCK_RECORD
  5
AF
330
1
100
AcDbSymbolTableRecord
100
AcDbBlockTableRecord
  2
Filled-1
340
0
  0
BLOCK_RECORD
  5
BE
330
1
100
AcDbSymbolTableRecord
100
AcDbBlockTableRecord
  2
図面枠 VR用
340
0
102
{BLKREFS
331
C5
102
}
  0
BLOCK_RECORD
  5
C6
330
1
100
AcDbSymbolTableRecord
100
AcDbBlockTableRecord
  2
表題欄 VR用
340
0
102
{BLKREFS
331
D0
102
}
  0
ENDTAB
  0
ENDSEC
  0
SECTION
  2
BLOCKS
  0
BLOCK
  5
6D
330
6C
100
AcDbEntity
  8
0
100
AcDbBlockBegin
  2
*Model_Space
 70
     0
 10
0.0
 20
0.0
 30
0.0
  3
*Model_Space
  1

  0
ENDBLK
  5
6E
330
6C
100
AcDbEntity
  8
0
100
AcDbBlockEnd
  0
BLOCK
  5
69
330
68
100
AcDbEntity
 67
     1
  8
0
100
AcDbBlockBegin
  2
*Paper_Space
 70
     0
 10
0.0
 20
0.0
 30
0.0
  3
*Paper_Space
  1

  0
ENDBLK
  5
6A
330
68
100
AcDbEntity
 67
     1
  8
0
100
AcDbBlockEnd
  0
BLOCK
  5
71
330
70
100
AcDbEntity
 67
     1
  8
0
100
AcDbBlockBegin
  2
*Paper_Space0
 70
     0
 10
0.0
 20
0.0
 30
0.0
  3
*Paper_Space0
  1

  0
ENDBLK
  5
72
330
70
100
AcDbEntity
 67
     1
  8
0
100
AcDbBlockEnd
  0
BLOCK
  5
94
330
90
100
AcDbEntity
  8
0
100
AcDbBlockBegin
  2
_Open
 70
     0
 10
0.0
 20
0.0
 30
0.0
  3
_Open
  1

  0
LINE
  5
91
330
90
100
AcDbEntity
  8
0
  6
ByBlock
 62
     0
370
    -2
100
AcDbLine
 10
-1.0
 20
0.1666666666666666
 30
0.0
 11
0.0
 21
0.0
 31
0.0
  0
LINE
  5
92
330
90
100
AcDbEntity
  8
0
  6
ByBlock
 62
     0
370
    -2
100
AcDbLine
 10
-1.0
 20
-0.1666666666666666
 30
0.0
 11
0.0
 21
0.0
 31
0.0
  0
LINE
  5
93
330
90
100
AcDbEntity
  8
0
  6
ByBlock
 62
     0
370
    -2
100
AcDbLine
 10
0.0
 20
0.0
 30
0.0
 11
-1.0
 21
0.0
 31
0.0
  0
ENDBLK
  5
95
330
90
100
AcDbEntity
  8
0
100
AcDbBlockEnd
  0
BLOCK
  5
A1
330
9C
100
AcDbEntity
  8
0
100
AcDbBlockBegin
  2
_Closed
 70
     0
 10
0.0
 20
0.0
 30
0.0
  3
_Closed
  1

  0
LINE
  5
9D
330
9C
100
AcDbEntity
  8
0
  6
ByBlock
 62
     0
370
    -2
100
AcDbLine
 10
-1.0
 20
0.1666666666666666
 30
0.0
 11
0.0
 21
0.0
 31
0.0
  0
LINE
  5
9E
330
9C
100
AcDbEntity
  8
0
  6
ByBlock
 62
     0
370
    -2
100
AcDbLine
 10
0.0
 20
0.0
 30
0.0
 11
-1.0
 21
-0.1666666666666666
 31
0.0
  0
LINE
  5
9F
330
9C
100
AcDbEntity
  8
0
  6
ByBlock
 62
     0
370
    -2
100
AcDbLine
 10
-1.0
 20
0.1666666666666666
 30
0.0
 11
-1.0
 21
-0.1666666666666666
 31
0.0
  0
LINE
  5
A0
330
9C
100
AcDbEntity
  8
0
  6
ByBlock
 62
     0
370
    -2
100
AcDbLine
 10
0.0
 20
0.0
 30
0.0
 11
-1.0
 21
0.0
 31
0.0
  0
ENDBLK
  5
A2
330
9C
100
AcDbEntity
  8
0
100
AcDbBlockEnd
  0
BLOCK
  5
A4
330
A3
100
AcDbEntity
  8
0
100
AcDbBlockBegin
  2
DatumFilled45
 70
     0
 10
0.0
 20
0.0
 30
0.0
  3
DatumFilled45
  1

  0
POLYLINE
  5
A6
330
A3
100
AcDbEntity
  8
0
 62
     0
100
AcDb2dPolyline
 66
     1
 10
0.0
 20
0.0
 30
0.0
 70
   128
  0
VERTEX
  5
A7
330
A6
100
AcDbEntity
  8
0
 62
     0
100
AcDbVertex
100
AcDb2dVertex
 10
0.0
 20
1.0
 30
0.0
  0
VERTEX
  5
A8
330
A6
100
AcDbEntity
  8
0
 62
     0
100
AcDbVertex
100
AcDb2dVertex
 10
0.0
 20
-1.0
 30
0.0
  0
VERTEX
  5
AA
330
A6
100
AcDbEntity
  8
0
 62
     0
100
AcDbVertex
100
AcDb2dVertex
 10
-1.0
 20
0.0
 30
0.0
  0
VERTEX
  5
AB
330
A6
100
AcDbEntity
  8
0
 62
     0
100
AcDbVertex
100
AcDb2dVertex
 10
0.0
 20
1.0
 30
0.0
  0
SEQEND
  5
A9
330
A6
100
AcDbEntity
  8
0
 62
     0
  0
SOLID
  5
AD
330
A3
100
AcDbEntity
  8
0
 62
     0
100
AcDbTrace
 10
0.0
 20
1.0
 30
0.0
 11
0.0
 21
-1.0
 31
0.0
 12
-1.0
 22
0.0
 32
0.0
 13
0.0
 23
1.0
 33
0.0
  0
ENDBLK
  5
A5
330
A3
100
AcDbEntity
  8
0
100
AcDbBlockEnd
  0
BLOCK
  5
B0
330
AF
100
AcDbEntity
  8
0
100
AcDbBlockBegin
  2
Filled-1
 70
     0
 10
0.0
 20
0.0
 30
0.0
  3
Filled-1
  1

  0
LINE
  5
B2
330
AF
100
AcDbEntity
  8
0
 62
     0
100
AcDbLine
 10
-1.0
 20
0.0
 30
0.0
 11
0.0
 21
0.0
 31
0.0
  0
POLYLINE
  5
B3
330
AF
100
AcDbEntity
  8
0
 62
     0
100
AcDb2dPolyline
 66
     1
 10
0.0
 20
0.0
 30
0.0
 70
   128
  0
VERTEX
  5
B4
330
B3
100
AcDbEntity
  8
0
 62
     0
100
AcDbVertex
100
AcDb2dVertex
 10
-1.0
 20
-0.1
 30
0.0
  0
VERTEX
  5
B5
330
B3
100
AcDbEntity
  8
0
 62
     0
100
AcDbVertex
100
AcDb2dVertex
 10
0.0
 20
0.0
 30
0.0
  0
VERTEX
  5
B7
330
B3
100
AcDbEntity
  8
0
 62
     0
100
AcDbVertex
100
AcDb2dVertex
 10
-1.0
 20
0.1
 30
0.0
  0
VERTEX
  5
B8
330
B3
100
AcDbEntity
  8
0
 62
     0
100
AcDbVertex
100
AcDb2dVertex
 10
-1.0
 20
-0.1
 30
0.0
  0
SEQEND
  5
B6
330
B3
100
AcDbEntity
  8
0
 62
     0
  0
SOLID
  5
B9
330
AF
100
AcDbEntity
  8
0
 62
     0
100
AcDbTrace
 10
-1.0
 20
-0.1
 30
0.0
 11
0.0
 21
0.0
 31
0.0
 12
-1.0
 22
0.1
 32
0.0
 13
-1.0
 23
-0.1
 33
0.0
  0
LINE
  5
BA
330
AF
100
AcDbEntity
  8
0
 62
     0
100
AcDbLine
 10
-1.0
 20
-0.1
 30
0.0
 11
0.0
 21
0.0
 31
0.0
  0
LINE
  5
BB
330
AF
100
AcDbEntity
  8
0
 62
     0
100
AcDbLine
 10
0.0
 20
0.0
 30
0.0
 11
-1.0
 21
0.1
 31
0.0
  0
LINE
  5
BC
330
AF
100
AcDbEntity
  8
0
 62
     0
100
AcDbLine
 10
-1.0
 20
0.1
 30
0.0
 11
-1.0
 21
-0.1
 31
0.0
  0
ENDBLK
  5
B1
330
AF
100
AcDbEntity
  8
0
100
AcDbBlockEnd
  0
BLOCK
  5
BF
330
BE
100
AcDbEntity
  8
0
100
AcDbBlockBegin
  2
図面枠 VR用
 70
     0
 10
0.0
 20
0.0
 30
0.0
  3
図面枠 VR用
  1

  0
LINE
  5
C1
330
BE
100
AcDbEntity
  8
Border (ISO)
100
AcDbLine
 10
410.0
 20
287.0
 30
0.0
 11
410.0
 21
10.0
 31
0.0
  0
LINE
  5
C2
330
BE
100
AcDbEntity
  8
Border (ISO)
100
AcDbLine
 10
10.0
 20
287.0
 30
0.0
 11
10.0
 21
10.0
 31
0.0
  0
LINE
  5
C3
330
BE
100
AcDbEntity
  8
Border (ISO)
100
AcDbLine
 10
10.0
 20
10.0
 30
0.0
 11
410.0
 21
10.0
 31
0.0
  0
LINE
  5
C4
330
BE
100
AcDbEntity
  8
Border (ISO)
100
AcDbLine
 10
10.0
 20
287.0
 30
0.0
 11
410.0
 21
287.0
 31
0.0
  0
ENDBLK
  5
C0
330
BE
100
AcDbEntity
  8
0
100
AcDbBlockEnd
  0
BLOCK
  5
C7
330
C6
100
AcDbEntity
  8
0
100
AcDbBlockBegin
  2
表題欄 VR用
 70
     2
 10
0.0
 20
0.0
 30
0.0
  3
表題欄 VR用
  1

  0
LINE
  5
C9
330
C6
100
AcDbEntity
  8
Title (ISO)
100
AcDbLine
 10
181.6756649546459
 20
100.0
 30
0.0
 11
239.9999999999999
 21
100.0
 31
0.0
  0
LINE
  5
CA
330
C6
100
AcDbEntity
  8
Title (ISO)
100
AcDbLine
 10
239.9999999999999
 20
100.0
 30
0.0
 11
-160.0
 21
100.0
 31
0.0
  0
LINE
  5
CB
330
C6
100
AcDbEntity
  8
Title (ISO)
100
AcDbLine
 10
239.9999999999999
 20
109.0000000000001
 30
0.0
 11
239.9999999999999
 21
100.0
 31
0.0
  0
ATTDEF
  5
CD
102
{ACAD_XDICTIONARY
360
33B
102
}
330
C6
100
AcDbEntity
  8
Title (ISO)
100
AcDbText
 10
19.16816652911417
 20
102.9499999980937
 30
0.0
 40
3.100000023841857
  1
VRXF-□-3~9B-S-8AM6
  7
文字スタイル12
100
AcDbAttributeDefinition
  3
部品番号
  2
部品番号_001
 70
     0
  0
ENDBLK
  5
C8
330
C6
100
AcDbEntity
  8
0
100
AcDbBlockEnd
  0
ENDSEC
  0
SECTION
  2
ENTITIES
  0
INSERT
  5
C5
330
6C
100
AcDbEntity
  8
0
100
AcDbBlockReference
  2
図面枠 VR用
 10
0.0
 20
0.0
 30
0.0
  0
INSERT
  5
D0
330
6C
100
AcDbEntity
  8
0
100
AcDbBlockReference
 66
     1
  2
表題欄 VR用
 10
170.0
 20
-90.00000000000003
 30
0.0
  0
ATTRIB
  5
D3
102
{ACAD_XDICTIONARY
360
33E
102
}
330
D0
100
AcDbEntity
  8
Title (ISO)
100
AcDbText
 10
189.1681665291142
 20
12.94999999809369
 30
0.0
 40
3.100000023841857
  1
VRXF-□-3~9B-S-8AM6
  7
文字スタイル12
100
AcDbAttribute
  2
部品番号_001
 70
     0
  0
SEQEND
  5
D2
330
D0
100
AcDbEntity
  8
0
  0
LINE
  5
D4
330
6C
100
AcDbEntity
  8
Visible (ISO)
100
AcDbLine
 10
252.25
 20
84.71204690025059
 30
0.0
 11
252.25
 21
112.2978333378775
 31
0.0
  0
LINE
  5
D5
330
6C
100
AcDbEntity
  8
Visible Narrow (ISO)
100
AcDbLine
 10
252.3964466094067
 20
112.6513867284707
 30
0.0
 11
252.3964466094067
 21
84.35849350965732
 31
0.0
  0
ARC
  5
D6
330
6C
100
AcDbEntity
  8
Visible (ISO)
100
AcDbCircle
 10
252.75
 20
84.71204690025059
 30
0.0
 40
0.5000000000000001
100
AcDbArc
 50
180.0
 51
224.9999999999985
  0
ARC
  5
D7
330
6C
100
AcDbEntity
  8
Visible (ISO)
100
AcDbCircle
 10
252.75
 20
112.2978333378775
 30
0.0
 40
0.5
100
AcDbArc
 50
135.0000000000014
 51
180.0
  0
LINE
  5
D8
330
6C
100
AcDbEntity
  8
Visible Narrow (ISO)
100
AcDbLine
 10
253.1035533905933
 20
83.65138672847075
 30
0.0
 11
253.1035533905933
 21
113.3584935096573
 31
0.0
  0
ARC
  5
D9
330
6C
100
AcDbEntity
  8
Visible (ISO)
100
AcDbCircle
 10
252.75
 20
83.29783333787748
 30
0.0
 40
0.5000000000000001
100
AcDbArc
 50
0.0
 51
44.99999999999856
  0
ARC
  5
DA
330
6C
100
AcDbEntity
  8
Visible (ISO)
100
AcDbCircle
 10
252.75
 20
113.7120469002506
 30
0.0
 40
0.5
100
AcDbArc
 50
315.0000000000014
 51
0.0
  0
LINE
  5
DB
330
6C
100
AcDbEntity
  8
Visible (ISO)
100
AcDbLine
 10
253.25
 20
78.00494011906405
 30
0.0
 11
253.25
 21
119.004940119064
 31
0.0
  0
LINE
  5
DC
330
6C
100
AcDbEntity
  8
Visible Narrow (ISO)
100
AcDbLine
 10
255.25
 20
121.004940119064
 30
0.0
 11
255.25
 21
76.00494011906405
 31
0.0
  0
ARC
  5
DD
330
6C
100
AcDbEntity
  8
Visible (ISO)
100
AcDbCircle
 10
255.25
 20
78.00494011906405
 30
0.0
 40
2.0
100
AcDbArc
 50
180.0
 51
270.0
  0
ARC
  5
DE
330
6C
100
AcDbEntity
  8
Visible (ISO)
100
AcDbCircle
 10
255.25
 20
119.004940119064
 30
0.0
 40
2.0
100
AcDbArc
 50
90.0
 51
180.0
  0
LINE
  5
DF
330
6C
100
AcDbEntity
  8
Visible Narrow (ISO)
100
AcDbLine
 10
257.25
 20
76.00494011906405
 30
0.0
 11
257.25
 21
121.004940119064
 31
0.0
  0
ARC
  5
E0
330
6C
100
AcDbEntity
  8
Visible (ISO)
100
AcDbCircle
 10
257.25
 20
74.00494011906404
 30
0.0
 40
2.0
100
AcDbArc
 50
0.0
 51
90.0
  0
ARC
  5
E1
330
6C
100
AcDbEntity
  8
Visible (ISO)
100
AcDbCircle
 10
257.25
 20
123.004940119064
 30
0.0
 40
2.0
100
AcDbArc
 50
270.0
 51
0.0
  0
LINE
  5
E2
330
6C
100
AcDbEntity
  8
Visible (ISO)
100
AcDbLine
 10
259.25
 20
73.80494011906404
 30
0.0
 11
259.25
 21
123.204940119064
 31
0.0
  0
LINE
  5
E3
330
6C
100
AcDbEntity
  8
Visible (ISO)
100
AcDbLine
 10
259.5499999999999
 20
123.504940119064
 30
0.0
 11
259.5499999999999
 21
73.50494011906405
 31
0.0
  0
LINE
  5
E4
330
6C
100
AcDbEntity
  8
Visible (ISO)
100
AcDbLine
 10
259.25
 20
123.204940119064
 30
0.0
 11
259.5499999999999
 21
123.504940119064
 31
0.0
  0
LINE
  5
E5
330
6C
100
AcDbEntity
  8
Visible (ISO)
100
AcDbLine
 10
259.25
 20
73.80494011906404
 30
0.0
 11
259.5499999999999
 21
73.50494011906405
 31
0.0
  0
LINE
  5
E6
330
6C
100
AcDbEntity
  8
Visible Narrow (ISO)
100
AcDbLine
 10
261.85
 20
73.50494011906405
 30
0.0
 11
261.85
 21
123.504940119064
 31
0.0
  0
ARC
  5
E7
330
6C
100
AcDbEntity
  8
Visible (ISO)
100
AcDbCircle
 10
261.85
 20
73.10494011906404
 30
0.0
 40
0.4000000000000001
100
AcDbArc
 50
0.0
 51
90.0
  0
ARC
  5
E8
330
6C
100
AcDbEntity
  8
Visible (ISO)
100
AcDbCircle
 10
261.85
 20
123.904940119064
 30
0.0
 40
0.4000000000000001
100
AcDbArc
 50
270.0
 51
0.0
  0
LINE
  5
E9
330
6C
100
AcDbEntity
  8
Visible (ISO)
100
AcDbLine
 10
262.25
 20
72.80494011906404
 30
0.0
 11
262.25
 21
76.50494011906404
 31
0.0
  0
LINE
  5
EA
330
6C
100
AcDbEntity
  8
Visible (ISO)
100
AcDbLine
 10
262.25
 20
120.504940119064
 30
0.0
 11
262.25
 21
76.50494011906404
 31
0.0
  0
LINE
  5
EB
330
6C
100
AcDbEntity
  8
Visible (ISO)
100
AcDbLine
 10
262.25
 20
120.504940119064
 30
0.0
 11
262.25
 21
124.204940119064
 31
0.0
  0
LINE
  5
EC
330
6C
100
AcDbEntity
  8
Visible (ISO)
100
AcDbLine
 10
262.25
 20
124.204940119064
 30
0.0
 11
262.55
 21
124.504940119064
 31
0.0
  0
LINE
  5
ED
330
6C
100
AcDbEntity
  8
Visible Narrow (ISO)
100
AcDbLine
 10
262.25
 20
120.504940119064
 30
0.0
 11
262.55
 21
120.504940119064
 31
0.0
  0
LINE
  5
EE
330
6C
100
AcDbEntity
  8
Visible (ISO)
100
AcDbLine
 10
262.55
 20
124.504940119064
 30
0.0
 11
262.55
 21
120.504940119064
 31
0.0
  0
LINE
  5
EF
330
6C
100
AcDbEntity
  8
Visible Narrow (ISO)
100
AcDbLine
 10
262.25
 20
76.50494011906404
 30
0.0
 11
262.55
 21
76.50494011906404
 31
0.0
  0
LINE
  5
F0
330
6C
100
AcDbEntity
  8
Visible (ISO)
100
AcDbLine
 10
262.55
 20
76.50494011906404
 30
0.0
 11
262.55
 21
120.504940119064
 31
0.0
  0
LINE
  5
F1
330
6C
100
AcDbEntity
  8
Visible (ISO)
100
AcDbLine
 10
262.25
 20
72.80494011906404
 30
0.0
 11
262.55
 21
72.50494011906404
 31
0.0
  0
LINE
  5
F2
330
6C
100
AcDbEntity
  8
Visible (ISO)
100
AcDbLine
 10
262.55
 20
76.50494011906404
 30
0.0
 11
262.55
 21
72.50494011906404
 31
0.0
  0
LINE
  5
F3
330
6C
100
AcDbEntity
  8
Visible (ISO)
100
AcDbLine
 10
287.95
 20
124.504940119064
 30
0.0
 11
262.55
 21
124.504940119064
 31
0.0
  0
LINE
  5
F4
330
6C
100
AcDbEntity
  8
Visible (ISO)
100
AcDbLine
 10
287.95
 20
72.50494011906404
 30
0.0
 11
262.55
 21
72.50494011906404
 31
0.0
  0
LINE
  5
F5
330
6C
100
AcDbEntity
  8
Visible Narrow (ISO)
100
AcDbLine
 10
287.95
 20
76.50494011906404
 30
0.0
 11
262.55
 21
76.50494011906404
 31
0.0
  0
LINE
  5
F6
330
6C
100
AcDbEntity
  8
Visible Narrow (ISO)
100
AcDbLine
 10
287.95
 20
120.504940119064
 30
0.0
 11
262.55
 21
120.504940119064
 31
0.0
  0
LINE
  5
F7
330
6C
100
AcDbEntity
  8
Visible (ISO)
100
AcDbLine
 10
287.95
 20
124.504940119064
 30
0.0
 11
288.25
 21
124.204940119064
 31
0.0
  0
LINE
  5
F8
330
6C
100
AcDbEntity
  8
Visible (ISO)
100
AcDbLine
 10
288.25
 20
72.80494011906404
 30
0.0
 11
287.95
 21
72.50494011906404
 31
0.0
  0
LINE
  5
F9
330
6C
100
AcDbEntity
  8
Visible Narrow (ISO)
100
AcDbLine
 10
288.25
 20
76.50494011906404
 30
0.0
 11
287.95
 21
76.50494011906404
 31
0.0
  0
LINE
  5
FA
330
6C
100
AcDbEntity
  8
Visible (ISO)
100
AcDbLine
 10
287.95
 20
72.50494011906404
 30
0.0
 11
287.95
 21
76.50494011906404
 31
0.0
  0
LINE
  5
FB
330
6C
100
AcDbEntity
  8
Visible (ISO)
100
AcDbLine
 10
288.25
 20
76.50494011906404
 30
0.0
 11
288.25
 21
72.80494011906404
 31
0.0
  0
LINE
  5
FC
330
6C
100
AcDbEntity
  8
Visible Narrow (ISO)
100
AcDbLine
 10
288.25
 20
120.504940119064
 30
0.0
 11
287.95
 21
120.504940119064
 31
0.0
  0
LINE
  5
FD
330
6C
100
AcDbEntity
  8
Visible (ISO)
100
AcDbLine
 10
287.95
 20
120.504940119064
 30
0.0
 11
287.95
 21
76.50494011906404
 31
0.0
  0
LINE
  5
FE
330
6C
100
AcDbEntity
  8
Visible (ISO)
100
AcDbLine
 10
288.25
 20
76.50494011906404
 30
0.0
 11
288.25
 21
120.504940119064
 31
0.0
  0
LINE
  5
FF
330
6C
100
AcDbEntity
  8
Visible (ISO)
100
AcDbLine
 10
287.95
 20
120.504940119064
 30
0.0
 11
287.95
 21
124.504940119064
 31
0.0
  0
LINE
  5
100
330
6C
100
AcDbEntity
  8
Visible (ISO)
100
AcDbLine
 10
288.25
 20
124.204940119064
 30
0.0
 11
288.25
 21
120.504940119064
 31
0.0
  0
LINE
  5
101
330
6C
100
AcDbEntity
  8
Visible (ISO)
100
AcDbLine
 10
252.3964466094067
 20
112.6513867284707
 30
0.0
 11
253.1035533905933
 21
113.3584935096573
 31
0.0
  0
LINE
  5
102
330
6C
100
AcDbEntity
  8
Visible (ISO)
100
AcDbLine
 10
252.3964466094067
 20
84.35849350965732
 30
0.0
 11
253.1035533905933
 21
83.65138672847079
 31
0.0
  0
LINE
  5
103
330
6C
100
AcDbEntity
  8
Visible (ISO)
100
AcDbLine
 10
257.25
 20
76.00494011906405
 30
0.0
 11
255.25
 21
76.00494011906405
 31
0.0
  0
LINE
  5
104
330
6C
100
AcDbEntity
  8
Visible (ISO)
100
AcDbLine
 10
257.25
 20
121.004940119064
 30
0.0
 11
255.25
 21
121.004940119064
 31
0.0
  0
LINE
  5
105
330
6C
100
AcDbEntity
  8
Visible (ISO)
100
AcDbLine
 10
261.85
 20
73.50494011906405
 30
0.0
 11
259.5499999999999
 21
73.50494011906405
 31
0.0
  0
LINE
  5
106
330
6C
100
AcDbEntity
  8
Visible (ISO)
100
AcDbLine
 10
261.85
 20
123.504940119064
 30
0.0
 11
259.5499999999999
 21
123.504940119064
 31
0.0
  0
LINE
  5
107
330
6C
100
AcDbEntity
  8
Visible Narrow (ISO)
100
AcDbLine
 10
249.85
 20
92.50494011906404
 30
0.0
 11
249.85
 21
104.504940119064
 31
0.0
  0
ARC
  5
108
330
6C
100
AcDbEntity
  8
Visible (ISO)
100
AcDbCircle
 10
249.85
 20
92.10494011906403
 30
0.0
 40
0.4000000000000001
100
AcDbArc
 50
0.0
 51
90.0
  0
ARC
  5
109
330
6C
100
AcDbEntity
  8
Visible (ISO)
100
AcDbCircle
 10
249.85
 20
104.904940119064
 30
0.0
 40
0.4000000000000001
100
AcDbArc
 50
270.0
 51
0.0
  0
LINE
  5
10A
330
6C
100
AcDbEntity
  8
Visible (ISO)
100
AcDbLine
 10
250.25
 20
91.86891035333024
 30
0.0
 11
250.25
 21
105.1409698847978
 31
0.0
  0
LINE
  5
10B
330
6C
100
AcDbEntity
  8
Visible (ISO)
100
AcDbLine
 10
251.25
 20
105.504940119064
 30
0.0
 11
251.25
 21
91.50494011906403
 31
0.0
  0
LINE
  5
10C
330
6C
100
AcDbEntity
  8
Visible (ISO)
100
AcDbLine
 10
250.25
 20
105.1409698847978
 30
0.0
 11
251.25
 21
105.504940119064
 31
0.0
  0
LINE
  5
10D
330
6C
100
AcDbEntity
  8
Visible (ISO)
100
AcDbLine
 10
250.25
 20
91.86891035333024
 30
0.0
 11
251.25
 21
91.50494011906403
 31
0.0
  0
LINE
  5
10E
330
6C
100
AcDbEntity
  8
Visible Narrow (ISO)
100
AcDbLine
 10
230.75
 20
104.504940119064
 30
0.0
 11
230.75
 21
92.50494011906404
 31
0.0
  0
LINE
  5
10F
330
6C
100
AcDbEntity
  8
Visible (ISO)
100
AcDbLine
 10
230.25
 20
93.00494011906403
 30
0.0
 11
230.25
 21
104.004940119064
 31
0.0
  0
ARC
  5
110
330
6C
100
AcDbEntity
  8
Visible (ISO)
100
AcDbCircle
 10
230.75
 20
93.00494011906403
 30
0.0
 40
0.5
100
AcDbArc
 50
180.0
 51
270.0
  0
ARC
  5
111
330
6C
100
AcDbEntity
  8
Visible (ISO)
100
AcDbCircle
 10
230.75
 20
104.004940119064
 30
0.0
 40
0.5
100
AcDbArc
 50
90.0
 51
180.0
  0
LINE
  5
112
330
6C
100
AcDbEntity
  8
Visible (ISO)
100
AcDbLine
 10
249.85
 20
92.50494011906404
 30
0.0
 11
230.75
 21
92.50494011906404
 31
0.0
  0
LINE
  5
113
330
6C
100
AcDbEntity
  8
Visible (ISO)
100
AcDbLine
 10
249.85
 20
104.504940119064
 30
0.0
 11
230.75
 21
104.504940119064
 31
0.0
  0
LINE
  5
114
330
6C
100
AcDbEntity
  8
Visible (ISO)
100
AcDbLine
 10
252.25
 20
91.50494011906403
 30
0.0
 11
251.25
 21
91.50494011906403
 31
0.0
  0
LINE
  5
115
330
6C
100
AcDbEntity
  8
Visible (ISO)
100
AcDbLine
 10
252.25
 20
105.504940119064
 30
0.0
 11
251.25
 21
105.504940119064
 31
0.0
  0
ARC
  5
116
330
6C
100
AcDbEntity
  8
Visible (ISO)
100
AcDbCircle
 10
296.75
 20
73.50494011906405
 30
0.0
 40
1.000000000000005
100
AcDbArc
 50
270.0
 51
0.0
  0
LINE
  5
117
330
6C
100
AcDbEntity
  8
Visible Narrow (ISO)
100
AcDbLine
 10
296.75
 20
76.50494011906404
 30
0.0
 11
297.75
 21
76.50494011906404
 31
0.0
  0
LINE
  5
118
330
6C
100
AcDbEntity
  8
Visible Narrow (ISO)
100
AcDbLine
 10
296.75
 20
72.50494011906403
 30
0.0
 11
296.75
 21
76.50494011906403
 31
0.0
  0
LINE
  5
119
330
6C
100
AcDbEntity
  8
Visible Narrow (ISO)
100
AcDbLine
 10
296.75
 20
91.36351169052122
 30
0.0
 11
297.75
 21
91.36351169052122
 31
0.0
  0
LINE
  5
11A
330
6C
100
AcDbEntity
  8
Visible Narrow (ISO)
100
AcDbLine
 10
296.75
 20
91.36351169052122
 30
0.0
 11
296.75
 21
76.50494011906404
 31
0.0
  0
LINE
  5
11B
330
6C
100
AcDbEntity
  8
Visible (ISO)
100
AcDbLine
 10
297.75
 20
79.22115933799957
 30
0.0
 11
297.75
 21
91.36351169052121
 31
0.0
  0
SPLINE
  5
11C
330
6C
100
AcDbEntity
  8
Visible (ISO)
100
AcDbSpline
210
0.0
220
0.0
230
1.0
 70
    24
 71
     3
 72
    12
 73
     8
 74
     0
 42
0.0000000001
 43
0.0000000001
 40
0.0000000000000001
 40
0.0000000000000001
 40
0.0000000000000001
 40
0.0000000000000001
 40
0.2488504855222154
 40
0.2488504855222154
 40
0.7146796286844915
 40
0.7146796286844915
 40
0.7146921160416914
 40
0.7146921160416914
 40
0.7146921160416914
 40
0.7146921160416914
 10
296.75
 20
72.50494011906403
 30
0.0
 10
296.75
 20
72.50494011906403
 30
0.0
 10
296.7879631293964
 20
72.50494011906403
 30
0.0
 10
296.9175219770934
 20
72.50494011906403
 30
0.0
 10
297.0179447142011
 20
72.50494011906403
 30
0.0
 10
297.0179491923711
 20
72.50494011906403
 30
0.0
 10
297.0179491924256
 20
72.50494011906403
 30
0.0
 10
297.0179491924146
 20
72.50494011906403
 30
0.0
  0
SPLINE
  5
11D
330
6C
100
AcDbEntity
  8
Visible Narrow (ISO)
100
AcDbSpline
210
0.0
220
0.0
230
1.0
 70
     8
 71
     3
 72
    10
 73
     6
 74
     0
 42
0.0000000001
 43
0.0000000001
 40
-0.7146921160416913
 40
-0.7146921160416913
 40
-0.7146921160416913
 40
-0.7146921160416913
 40
-0.7146796286844915
 40
-0.7146796286844915
 40
-0.5261635983042287
 40
-0.5261635983042287
 40
-0.5261635983042287
 40
-0.5261635983042287
 10
297.8839745962073
 20
73.00494011906564
 30
0.0
 10
297.8839745962128
 20
73.00494011906457
 30
0.0
 10
297.8839745961856
 20
73.00494011911808
 30
0.0
 10
297.8839736900163
 20
73.00494175143057
 30
0.0
 10
297.8757498660148
 20
73.01754893592006
 30
0.0
 10
297.8631602769958
 20
73.04201129772252
 30
0.0
  0
LINE
  5
11E
330
6C
100
AcDbEntity
  8
Visible Narrow (ISO)
100
AcDbLine
 10
297.75
 20
105.6463685476068
 30
0.0
 11
296.75
 21
105.6463685476068
 31
0.0
  0
LINE
  5
11F
330
6C
100
AcDbEntity
  8
Visible (ISO)
100
AcDbLine
 10
297.75
 20
105.6463685476068
 30
0.0
 11
297.75
 21
117.7887209001284
 31
0.0
  0
LINE
  5
120
330
6C
100
AcDbEntity
  8
Visible Narrow (ISO)
100
AcDbLine
 10
296.75
 20
120.504940119064
 30
0.0
 11
297.75
 21
120.504940119064
 31
0.0
  0
LINE
  5
121
330
6C
100
AcDbEntity
  8
Visible Narrow (ISO)
100
AcDbLine
 10
296.75
 20
120.504940119064
 30
0.0
 11
296.75
 21
105.6463685476068
 31
0.0
  0
ARC
  5
122
330
6C
100
AcDbEntity
  8
Visible (ISO)
100
AcDbCircle
 10
296.75
 20
123.504940119064
 30
0.0
 40
1.000000000000005
100
AcDbArc
 50
0.0
 51
90.0
  0
LINE
  5
123
330
6C
100
AcDbEntity
  8
Visible Narrow (ISO)
100
AcDbLine
 10
296.75
 20
120.504940119064
 30
0.0
 11
296.75
 21
124.504940119064
 31
0.0
  0
SPLINE
  5
124
330
6C
100
AcDbEntity
  8
Visible Narrow (ISO)
100
AcDbSpline
210
0.0
220
0.0
230
1.0
 70
     8
 71
     3
 72
    14
 73
    10
 74
     0
 42
0.0000000001
 43
0.0000000001
 40
0.0
 40
0.0
 40
0.0
 40
0.0
 40
0.2488504855222188
 40
0.2488504855222188
 40
0.7146796286844913
 40
0.7146796286844913
 40
0.9939277022870381
 40
0.9939277022870381
 40
1.429359257368982
 40
1.429359257368982
 40
1.429359257368982
 40
1.429359257368982
 10
296.75
 20
105.6463685476068
 30
0.0
 10
296.75
 20
104.8168669291994
 30
0.0
 10
296.7879631293964
 20
103.9875247598856
 30
0.0
 10
296.9175219770934
 20
101.6087849508805
 30
0.0
 10
297.0179447142011
 20
100.0578531870776
 30
0.0
 10
297.0179518766834
 20
97.57422346647729
 30
0.0
 10
296.9851795782292
 20
96.6433902056594
 30
0.0
 10
296.8621861279009
 20
94.26430189600409
 30
0.0
 10
296.75
 20
92.81495020746104
 30
0.0
 10
296.75
 20
91.36351169052122
 30
0.0
  0
SPLINE
  5
125
330
6C
100
AcDbEntity
  8
Visible Narrow (ISO)
100
AcDbSpline
210
0.0
220
0.0
230
1.0
 70
     8
 71
     3
 72
    14
 73
    10
 74
     0
 42
0.0000000001
 43
0.0000000001
 40
-1.429359257368982
 40
-1.429359257368982
 40
-1.429359257368982
 40
-1.429359257368982
 40
-0.9939277022870381
 40
-0.9939277022870381
 40
-0.7146796286844913
 40
-0.7146796286844913
 40
-0.2488504855222188
 40
-0.2488504855222188
 40
0.0
 40
0.0
 40
0.0
 40
0.0
 10
297.75
 20
91.36351169052122
 30
0.0
 10
297.75
 20
92.76019919831611
 30
0.0
 10
297.8060930639505
 20
94.20232732257472
 30
0.0
 10
297.8675897891146
 20
96.60622202144041
 30
0.0
 10
297.8839759383417
 20
97.55560913344366
 30
0.0
 10
297.8839723571006
 20
100.0889114484076
 30
0.0
 10
297.8337609885467
 20
101.670149967726
 30
0.0
 10
297.7689815646983
 20
104.0348332695163
 30
0.0
 10
297.75
 20
104.8481573008997
 30
0.0
 10
297.75
 20
105.6463685476068
 30
0.0
  0
SPLINE
  5
126
330
6C
100
AcDbEntity
  8
Visible (ISO)
100
AcDbSpline
210
0.0
220
0.0
230
1.0
 70
    24
 71
     3
 72
    10
 73
     6
 74
     0
 42
0.0000000001
 43
0.0000000001
 40
0.7146921160416947
 40
0.7146921160416947
 40
0.7146921160416947
 40
0.7146921160416947
 40
0.9939277022870376
 40
0.9939277022870376
 40
1.429359257368982
 40
1.429359257368982
 40
1.429359257368982
 40
1.429359257368982
 10
297.0179491924146
 20
124.504940119064
 30
0.0
 10
297.0179489456432
 20
124.504940119064
 30
0.0
 10
296.985177429206
 20
124.504940119064
 30
0.0
 10
296.8621861279009
 20
124.504940119064
 30
0.0
 10
296.75
 20
124.504940119064
 30
0.0
 10
296.75
 20
124.504940119064
 30
0.0
  0
SPLINE
  5
127
330
6C
100
AcDbEntity
  8
Visible Narrow (ISO)
100
AcDbSpline
210
0.0
220
0.0
230
1.0
 70
     8
 71
     3
 72
     8
 73
     4
 74
     0
 42
0.0000000001
 43
0.0000000001
 40
-0.90322720772785
 40
-0.90322720772785
 40
-0.90322720772785
 40
-0.90322720772785
 40
-0.7146921160416912
 40
-0.7146921160416912
 40
-0.7146921160416912
 40
-0.7146921160416912
 10
297.8642563891648
 20
123.9681060087498
 30
0.0
 10
297.8765046784101
 20
123.9924951906754
 30
0.0
 10
297.8839745128994
 20
124.0049401028892
 30
0.0
 10
297.8839745962073
 20
124.0049401190624
 30
0.0
  0
ARC
  5
128
330
6C
100
AcDbEntity
  8
Visible (ISO)
100
AcDbCircle
 10
297.0179491924312
 20
73.50494011906403
 30
0.0
 40
1.0
100
AcDbArc
 50
270.0
 51
329.9999999999999
  0
ARC
  5
129
330
6C
100
AcDbEntity
  8
Visible (ISO)
100
AcDbCircle
 10
297.0179491924312
 20
123.504940119064
 30
0.0
 40
1.0
100
AcDbArc
 50
29.99999999999961
 51
90.0
  0
LINE
  5
12A
330
6C
100
AcDbEntity
  8
Visible Narrow (ISO)
100
AcDbLine
 10
298.75
 20
115.4681435546604
 30
0.0
 11
298.75
 21
81.54173668346761
 31
0.0
  0
ARC
  5
12B
330
6C
100
AcDbEntity
  8
Visible (ISO)
100
AcDbCircle
 10
298.75
 20
72.50494011906404
 30
0.0
 40
1.0
100
AcDbArc
 50
147.5341677910044
 51
150.0000000000004
  0
ARC
  5
12C
330
6C
100
AcDbEntity
  8
Visible (ISO)
100
AcDbCircle
 10
298.75
 20
124.504940119064
 30
0.0
 40
1.0
100
AcDbArc
 50
210.0000000000005
 51
212.4658322089977
  0
LINE
  5
12D
330
6C
100
AcDbEntity
  8
Visible (ISO)
100
AcDbLine
 10
296.75
 20
72.50494011906403
 30
0.0
 11
288.55
 21
72.50494011906403
 31
0.0
  0
LINE
  5
12E
330
6C
100
AcDbEntity
  8
Visible Narrow (ISO)
100
AcDbLine
 10
296.75
 20
76.50494011906404
 30
0.0
 11
288.55
 21
76.50494011906404
 31
0.0
  0
LINE
  5
12F
330
6C
100
AcDbEntity
  8
Visible Narrow (ISO)
100
AcDbLine
 10
296.75
 20
120.504940119064
 30
0.0
 11
288.55
 21
120.504940119064
 31
0.0
  0
LINE
  5
130
330
6C
100
AcDbEntity
  8
Visible (ISO)
100
AcDbLine
 10
296.75
 20
124.504940119064
 30
0.0
 11
288.55
 21
124.504940119064
 31
0.0
  0
LINE
  5
131
330
6C
100
AcDbEntity
  8
Visible (ISO)
100
AcDbLine
 10
288.55
 20
76.50494011906404
 30
0.0
 11
288.55
 21
72.50494011906404
 31
0.0
  0
LINE
  5
132
330
6C
100
AcDbEntity
  8
Visible (ISO)
100
AcDbLine
 10
288.55
 20
76.50494011906404
 30
0.0
 11
288.55
 21
120.504940119064
 31
0.0
  0
LINE
  5
133
330
6C
100
AcDbEntity
  8
Visible (ISO)
100
AcDbLine
 10
313.95
 20
73.50494011906405
 30
0.0
 11
313.95
 21
123.504940119064
 31
0.0
  0
LINE
  5
134
330
6C
100
AcDbEntity
  8
Visible Narrow (ISO)
100
AcDbLine
 10
288.55
 20
120.504940119064
 30
0.0
 11
288.25
 21
120.504940119064
 31
0.0
  0
LINE
  5
135
330
6C
100
AcDbEntity
  8
Visible (ISO)
100
AcDbLine
 10
288.25
 20
120.504940119064
 30
0.0
 11
288.25
 21
76.50494011906404
 31
0.0
  0
LINE
  5
136
330
6C
100
AcDbEntity
  8
Visible Narrow (ISO)
100
AcDbLine
 10
288.25
 20
76.50494011906404
 30
0.0
 11
288.55
 21
76.50494011906404
 31
0.0
  0
LINE
  5
137
330
6C
100
AcDbEntity
  8
Visible (ISO)
100
AcDbLine
 10
288.25
 20
72.80494011906404
 30
0.0
 11
288.55
 21
72.50494011906403
 31
0.0
  0
LINE
  5
138
330
6C
100
AcDbEntity
  8
Visible (ISO)
100
AcDbLine
 10
288.25
 20
72.80494011906404
 30
0.0
 11
288.25
 21
76.50494011906404
 31
0.0
  0
LINE
  5
139
330
6C
100
AcDbEntity
  8
Visible (ISO)
100
AcDbLine
 10
288.25
 20
124.204940119064
 30
0.0
 11
288.55
 21
124.504940119064
 31
0.0
  0
LINE
  5
13A
330
6C
100
AcDbEntity
  8
Visible (ISO)
100
AcDbLine
 10
288.55
 20
124.504940119064
 30
0.0
 11
288.55
 21
120.504940119064
 31
0.0
  0
LINE
  5
13B
330
6C
100
AcDbEntity
  8
Visible (ISO)
100
AcDbLine
 10
288.25
 20
120.504940119064
 30
0.0
 11
288.25
 21
124.204940119064
 31
0.0
  0
LINE
  5
13C
330
6C
100
AcDbEntity
  8
Visible (ISO)
100
AcDbLine
 10
314.25
 20
92.23755547797992
 30
0.0
 11
314.25
 21
74.61331209247903
 31
0.0
  0
LINE
  5
13D
330
6C
100
AcDbEntity
  8
Visible (ISO)
100
AcDbLine
 10
314.25
 20
73.80494011906404
 30
0.0
 11
313.95
 21
73.50494011906405
 31
0.0
  0
LINE
  5
13E
330
6C
100
AcDbEntity
  8
Visible (ISO)
100
AcDbLine
 10
314.25
 20
123.204940119064
 30
0.0
 11
313.95
 21
123.504940119064
 31
0.0
  0
LINE
  5
13F
330
6C
100
AcDbEntity
  8
Visible (ISO)
100
AcDbLine
 10
313.95
 20
73.50494011906405
 30
0.0
 11
302.7486441745856
 21
73.50494011906405
 31
0.0
  0
LINE
  5
140
330
6C
100
AcDbEntity
  8
Visible (ISO)
100
AcDbLine
 10
313.95
 20
123.504940119064
 30
0.0
 11
302.7486441745856
 21
123.504940119064
 31
0.0
  0
LINE
  5
141
330
6C
100
AcDbEntity
  8
Visible (ISO)
100
AcDbLine
 10
297.75
 20
79.22115933799957
 30
0.0
 11
297.75
 21
73.0417366834676
 31
0.0
  0
LINE
  5
142
330
6C
100
AcDbEntity
  8
Visible (ISO)
100
AcDbLine
 10
302.25
 20
73.0417366834676
 30
0.0
 11
297.75
 21
73.0417366834676
 31
0.0
  0
LINE
  5
143
330
6C
100
AcDbEntity
  8
Visible (ISO)
100
AcDbLine
 10
302.25
 20
81.54173668346761
 30
0.0
 11
297.75
 21
81.54173668346761
 31
0.0
  0
LINE
  5
144
330
6C
100
AcDbEntity
  8
Visible (ISO)
100
AcDbLine
 10
302.75
 20
81.0417366834676
 30
0.0
 11
302.75
 21
73.5417366834676
 31
0.0
  0
LINE
  5
145
330
6C
100
AcDbEntity
  8
Visible Narrow (ISO)
100
AcDbLine
 10
302.25
 20
73.0417366834676
 30
0.0
 11
302.25
 21
81.54173668346761
 31
0.0
  0
ARC
  5
146
330
6C
100
AcDbEntity
  8
Visible (ISO)
100
AcDbCircle
 10
302.25
 20
81.0417366834676
 30
0.0
 40
0.5
100
AcDbArc
 50
0.0
 51
90.0
  0
ARC
  5
147
330
6C
100
AcDbEntity
  8
Visible (ISO)
100
AcDbCircle
 10
302.25
 20
73.5417366834676
 30
0.0
 40
0.5
100
AcDbArc
 50
270.0
 51
0.0
  0
LINE
  5
148
330
6C
100
AcDbEntity
  8
Visible (ISO)
100
AcDbLine
 10
297.75
 20
123.9681435546605
 30
0.0
 11
297.75
 21
117.7887209001284
 31
0.0
  0
LINE
  5
149
330
6C
100
AcDbEntity
  8
Visible (ISO)
100
AcDbLine
 10
302.25
 20
115.4681435546604
 30
0.0
 11
297.75
 21
115.4681435546604
 31
0.0
  0
LINE
  5
14A
330
6C
100
AcDbEntity
  8
Visible (ISO)
100
AcDbLine
 10
302.25
 20
123.9681435546605
 30
0.0
 11
297.75
 21
123.9681435546605
 31
0.0
  0
LINE
  5
14B
330
6C
100
AcDbEntity
  8
Visible (ISO)
100
AcDbLine
 10
302.75
 20
123.4681435546604
 30
0.0
 11
302.75
 21
115.9681435546604
 31
0.0
  0
LINE
  5
14C
330
6C
100
AcDbEntity
  8
Visible Narrow (ISO)
100
AcDbLine
 10
302.25
 20
115.4681435546604
 30
0.0
 11
302.25
 21
123.9681435546605
 31
0.0
  0
ARC
  5
14D
330
6C
100
AcDbEntity
  8
Visible (ISO)
100
AcDbCircle
 10
302.25
 20
123.4681435546604
 30
0.0
 40
0.5
100
AcDbArc
 50
0.0
 51
90.0
  0
ARC
  5
14E
330
6C
100
AcDbEntity
  8
Visible (ISO)
100
AcDbCircle
 10
302.25
 20
115.9681435546604
 30
0.0
 40
0.5
100
AcDbArc
 50
270.0
 51
0.0
  0
LINE
  5
14F
330
6C
100
AcDbEntity
  8
Visible Narrow (ISO)
100
AcDbLine
 10
325.75
 20
88.33202667553292
 30
0.0
 11
314.25
 21
88.33202667553292
 31
0.0
  0
LINE
  5
150
330
6C
100
AcDbEntity
  8
Visible Narrow (ISO)
100
AcDbLine
 10
314.25
 20
85.34366428823174
 30
0.0
 11
325.75
 21
85.34366428823174
 31
0.0
  0
LINE
  5
151
330
6C
100
AcDbEntity
  8
Visible (ISO)
100
AcDbLine
 10
314.55
 20
93.00494011906407
 30
0.0
 11
325.75
 21
93.00494011906407
 31
0.0
  0
LINE
  5
152
330
6C
100
AcDbEntity
  8
Visible (ISO)
100
AcDbLine
 10
314.25
 20
92.89574904878421
 30
0.0
 11
314.55
 21
93.00494011906407
 31
0.0
  0
LINE
  5
153
330
6C
100
AcDbEntity
  8
Visible (ISO)
100
AcDbLine
 10
314.25
 20
92.23755547797992
 30
0.0
 11
314.25
 21
92.89574904878421
 31
0.0
  0
LINE
  5
154
330
6C
100
AcDbEntity
  8
Visible (ISO)
100
AcDbLine
 10
325.75
 20
72.50494011906401
 30
0.0
 11
325.75
 21
77.38030994478643
 31
0.0
  0
LINE
  5
155
330
6C
100
AcDbEntity
  8
Visible (ISO)
100
AcDbLine
 10
325.75
 20
93.00494011906407
 30
0.0
 11
325.75
 21
77.38030994478643
 31
0.0
  0
LINE
  5
156
330
6C
100
AcDbEntity
  8
Visible (ISO)
100
AcDbLine
 10
314.25
 20
72.80494011906404
 30
0.0
 11
314.25
 21
74.61331209247902
 31
0.0
  0
LINE
  5
157
330
6C
100
AcDbEntity
  8
Visible (ISO)
100
AcDbLine
 10
314.55
 20
72.50494011906404
 30
0.0
 11
314.25
 21
72.80494011906404
 31
0.0
  0
LINE
  5
158
330
6C
100
AcDbEntity
  8
Visible (ISO)
100
AcDbLine
 10
325.75
 20
72.50494011906404
 30
0.0
 11
314.55
 21
72.50494011906404
 31
0.0
  0
LINE
  5
159
330
6C
100
AcDbEntity
  8
Visible (ISO)
100
AcDbLine
 10
329.45
 20
124.504940119064
 30
0.0
 11
314.55
 21
124.504940119064
 31
0.0
  0
LINE
  5
15A
330
6C
100
AcDbEntity
  8
Visible (ISO)
100
AcDbLine
 10
329.45
 20
77.38030994478643
 30
0.0
 11
325.75
 21
77.38030994478643
 31
0.0
  0
LINE
  5
15B
330
6C
100
AcDbEntity
  8
Visible (ISO)
100
AcDbLine
 10
329.45
 20
119.6295702933416
 30
0.0
 11
314.55
 21
119.6295702933416
 31
0.0
  0
LINE
  5
15C
330
6C
100
AcDbEntity
  8
Visible (ISO)
100
AcDbLine
 10
329.45
 20
72.50494011906404
 30
0.0
 11
325.75
 21
72.50494011906403
 31
0.0
  0
SPLINE
  5
15D
330
6C
100
AcDbEntity
  8
Visible (ISO)
100
AcDbSpline
210
0.0
220
0.0
230
1.0
 70
    24
 71
     3
 72
     8
 73
     4
 74
     0
 42
0.0000000001
 43
0.0000000001
 40
-0.0437492227970593
 40
-0.0437492227970593
 40
-0.0437492227970593
 40
-0.0437492227970593
 40
0.0
 40
0.0
 40
0.0
 40
0.0
 10
314.25
 20
124.204940119064
 30
0.0
 10
314.3499841603398
 20
124.3049242794038
 30
0.0
 10
314.4499856521171
 20
124.4049257711811
 30
0.0
 10
314.55
 20
124.504940119064
 30
0.0
  0
LINE
  5
15E
330
6C
100
AcDbEntity
  8
Visible (ISO)
100
AcDbLine
 10
314.25
 20
119.5227896760477
 30
0.0
 11
314.25
 21
92.89574904878421
 31
0.0
  0
LINE
  5
15F
330
6C
100
AcDbEntity
  8
Visible (ISO)
100
AcDbLine
 10
314.25
 20
119.5227896760477
 30
0.0
 11
314.25
 21
124.204940119064
 31
0.0
  0
LINE
  5
160
330
6C
100
AcDbEntity
  8
Visible (ISO)
100
AcDbLine
 10
329.45
 20
119.6295702933416
 30
0.0
 11
329.45
 21
77.38030994478643
 31
0.0
  0
LINE
  5
161
330
6C
100
AcDbEntity
  8
Visible (ISO)
100
AcDbLine
 10
314.55
 20
93.00494011906407
 30
0.0
 11
314.55
 21
119.6295702933416
 31
0.0
  0
LINE
  5
162
330
6C
100
AcDbEntity
  8
Visible (ISO)
100
AcDbLine
 10
329.45
 20
72.50494011906406
 30
0.0
 11
329.45
 21
77.38030994478643
 31
0.0
  0
LINE
  5
163
330
6C
100
AcDbEntity
  8
Visible (ISO)
100
AcDbLine
 10
329.75
 20
124.204940119064
 30
0.0
 11
329.75
 21
119.5227896760477
 31
0.0
  0
LINE
  5
164
330
6C
100
AcDbEntity
  8
Visible (ISO)
100
AcDbLine
 10
329.75
 20
77.48709056208034
 30
0.0
 11
329.75
 21
119.5227896760477
 31
0.0
  0
LINE
  5
165
330
6C
100
AcDbEntity
  8
Visible (ISO)
100
AcDbLine
 10
329.75
 20
77.48709056208035
 30
0.0
 11
329.75
 21
72.80494011906404
 31
0.0
  0
SPLINE
  5
166
330
6C
100
AcDbEntity
  8
Visible (ISO)
100
AcDbSpline
210
0.0
220
0.0
230
1.0
 70
     8
 71
     3
 72
     8
 73
     4
 74
     0
 42
0.0000000001
 43
0.0000000001
 40
-0.0437492227974344
 40
-0.0437492227974344
 40
-0.0437492227974344
 40
-0.0437492227974344
 40
0.0
 40
0.0
 40
0.0
 40
0.0
 10
314.25
 20
119.5227896760477
 30
0.0
 10
314.3499841603394
 20
119.5584679789356
 30
0.0
 10
314.4499856521163
 20
119.5940616192044
 30
0.0
 10
314.55
 20
119.6295702933416
 30
0.0
  0
LINE
  5
167
330
6C
100
AcDbEntity
  8
Visible (ISO)
100
AcDbLine
 10
314.55
 20
124.504940119064
 30
0.0
 11
314.55
 21
119.6295702933416
 31
0.0
  0
SPLINE
  5
168
330
6C
100
AcDbEntity
  8
Visible (ISO)
100
AcDbSpline
210
0.0
220
0.0
230
1.0
 70
    24
 71
     3
 72
     8
 73
     4
 74
     0
 42
0.0000000001
 43
0.0000000001
 40
-0.0437492227970619
 40
-0.0437492227970619
 40
-0.0437492227970619
 40
-0.0437492227970619
 40
0.0
 40
0.0
 40
0.0
 40
0.0
 10
329.75
 20
72.80494011906404
 30
0.0
 10
329.6500158396602
 20
72.70495595872422
 30
0.0
 10
329.5500143478829
 20
72.60495446694696
 30
0.0
 10
329.45
 20
72.50494011906404
 30
0.0
  0
SPLINE
  5
169
330
6C
100
AcDbEntity
  8
Visible (ISO)
100
AcDbSpline
210
0.0
220
0.0
230
1.0
 70
     8
 71
     3
 72
     8
 73
     4
 74
     0
 42
0.0000000001
 43
0.0000000001
 40
-0.0437492227976224
 40
-0.0437492227976224
 40
-0.0437492227976224
 40
-0.0437492227976224
 40
0.0
 40
0.0
 40
0.0
 40
0.0
 10
329.75
 20
77.48709056208034
 30
0.0
 10
329.6500158396609
 20
77.45141225919255
 30
0.0
 10
329.5500143478842
 20
77.41581861892382
 30
0.0
 10
329.45
 20
77.38030994478641
 30
0.0
  0
SPLINE
  5
16A
330
6C
100
AcDbEntity
  8
Visible (ISO)
100
AcDbSpline
210
0.0
220
0.0
230
1.0
 70
     8
 71
     3
 72
     8
 73
     4
 74
     0
 42
0.0000000001
 43
0.0000000001
 40
-0.0437492227974404
 40
-0.0437492227974404
 40
-0.0437492227974404
 40
-0.0437492227974404
 40
0.0
 40
0.0
 40
0.0
 40
0.0
 10
329.75
 20
119.5227896760477
 30
0.0
 10
329.6500158396606
 20
119.5584679789356
 30
0.0
 10
329.5500143478838
 20
119.5940616192044
 30
0.0
 10
329.45
 20
119.6295702933416
 30
0.0
  0
SPLINE
  5
16B
330
6C
100
AcDbEntity
  8
Visible (ISO)
100
AcDbSpline
210
0.0
220
0.0
230
1.0
 70
    24
 71
     3
 72
     8
 73
     4
 74
     0
 42
0.0000000001
 43
0.0000000001
 40
-0.0437492227972456
 40
-0.0437492227972456
 40
-0.0437492227972456
 40
-0.0437492227972456
 40
0.0
 40
0.0
 40
0.0
 40
0.0
 10
329.75
 20
124.204940119064
 30
0.0
 10
329.6500158396605
 20
124.3049242794036
 30
0.0
 10
329.5500143478833
 20
124.4049257711807
 30
0.0
 10
329.45
 20
124.504940119064
 30
0.0
  0
LINE
  5
16C
330
6C
100
AcDbEntity
  8
Visible (ISO)
100
AcDbLine
 10
329.45
 20
119.6295702933416
 30
0.0
 11
329.45
 21
124.504940119064
 31
0.0
  0
LINE
  5
16D
330
6C
100
AcDbEntity
  8
Visible (ISO)
100
AcDbLine
 10
316.386
 20
125.504940119064
 30
0.0
 11
324.1140000000001
 21
125.504940119064
 31
0.0
  0
LINE
  5
16E
330
6C
100
AcDbEntity
  8
Visible (ISO)
100
AcDbLine
 10
325.0827652476222
 20
124.5054280429769
 30
0.0
 11
315.4172347523777
 21
124.5054280429769
 31
0.0
  0
LINE
  5
16F
330
6C
100
AcDbEntity
  8
Visible (ISO)
100
AcDbLine
 10
324.1140000000001
 20
125.504940119064
 30
0.0
 11
325.0827652476222
 21
124.5054280429769
 31
0.0
  0
LINE
  5
170
330
6C
100
AcDbEntity
  8
Visible (ISO)
100
AcDbLine
 10
316.386
 20
125.504940119064
 30
0.0
 11
315.4172347523777
 21
124.5054280429769
 31
0.0
  0
LINE
  5
171
330
6C
100
AcDbEntity
  8
Visible (ISO)
100
AcDbLine
 10
315.41725
 20
124.504940119064
 30
0.0
 11
315.4172347523777
 21
124.5054280429769
 31
0.0
  0
LINE
  5
172
330
6C
100
AcDbEntity
  8
Visible (ISO)
100
AcDbLine
 10
325.08275
 20
124.504940119064
 30
0.0
 11
325.0827652476222
 21
124.5054280429769
 31
0.0
  0
LINE
  5
173
330
6C
100
AcDbEntity
  8
Visible Narrow (ISO)
100
AcDbLine
 10
324.5014663778205
 20
124.504940119064
 30
0.0
 11
324.5014816254428
 21
124.5054280429769
 31
0.0
  0
LINE
  5
174
330
6C
100
AcDbEntity
  8
Visible Narrow (ISO)
100
AcDbLine
 10
315.9985183745572
 20
124.5054280429769
 30
0.0
 11
315.9985336221794
 21
124.504940119064
 31
0.0
  0
ELLIPSE
  5
175
330
6C
100
AcDbEntity
  8
Visible Narrow (ISO)
100
AcDbEllipse
 10
120.3777868220704
 20
186.2955841599803
 30
0.0
 11
-6.883098007128952
 21
11.95269279994461
 31
0.0
210
0.0
220
0.0
230
1.0
 40
0.5780931159156396
 41
2.020841966960126
 42
7.40393599380925
  0
ELLIPSE
  5
176
330
6C
100
AcDbEntity
  8
Visible Narrow (ISO)
100
AcDbEllipse
 10
120.4813402126637
 20
186.3552165916301
 30
0.0
 11
7.059532537549793
 21
-12.25907631202575
 31
0.0
210
0.0
220
0.0
230
1.0
 40
0.5780931159156394
 41
5.4958534353594
 42
10.21210983258956
  0
SPLINE
  5
177
330
6C
100
AcDbEntity
  8
Visible (ISO)
100
AcDbSpline
210
0.0
220
0.0
230
1.0
 70
     8
 71
     3
 72
    10
 73
     6
 74
     0
 42
0.0000000001
 43
0.0000000001
 40
1.574663743640666
 40
1.574663743640666
 40
1.574663743640666
 40
1.574663743640666
 40
1.888049525630551
 40
1.888049525630551
 40
1.918615725628044
 40
1.918615725628044
 40
1.918615725628044
 40
1.918615725628044
 10
120.442654351491
 20
174.8121940363244
 30
0.0
 10
119.3847674246534
 20
175.4261209178938
 30
0.0
 10
118.3366462532329
 20
176.2271014128205
 30
0.0
 10
117.2465040904799
 20
177.2687193715102
 30
0.0
 10
117.1501471128782
 20
177.3626838472938
 30
0.0
 10
117.0543526854193
 20
177.458003878809
 30
0.0
  0
SPLINE
  5
178
330
6C
100
AcDbEntity
  8
Visible (ISO)
100
AcDbSpline
210
0.0
220
0.0
230
1.0
 70
     8
 71
     3
 72
    10
 73
     6
 74
     0
 42
0.0000000001
 43
0.0000000001
 40
2.797640671602712
 40
2.797640671602712
 40
2.797640671602712
 40
2.797640671602712
 40
2.828206871600205
 40
2.828206871600205
 40
3.141592653590089
 40
3.141592653590089
 40
3.141592653590089
 40
3.141592653590089
 10
111.0659661464091
 20
187.8570051125527
 30
0.0
 10
111.0316057217134
 20
187.9877026333975
 30
0.0
 10
110.998700088312
 20
188.118206308182
 30
0.0
 10
110.6449774579637
 20
189.5839000714409
 30
0.0
 10
110.4782918854599
 20
190.8924655696687
 30
0.0
 10
110.4782918854602
 20
192.1155890163769
 30
0.0
  0
ELLIPSE
  5
179
330
6C
100
AcDbEntity
  8
Visible Narrow (ISO)
100
AcDbEllipse
 10
120.9813402126638
 20
186.6431474421227
 30
0.0
 11
-7.412401598391492
 21
12.87184333618803
 31
0.0
210
0.0
220
0.0
230
0.9999999999999998
 40
0.5780931159156394
 41
2.354260781769607
 42
7.07051717899977
  0
ELLIPSE
  5
17A
330
6C
100
AcDbEntity
  8
Visible Narrow (ISO)
100
AcDbEllipse
 10
121.084893603257
 20
186.7027798737726
 30
0.0
 11
7.588836128812343
 21
-13.17822684826918
 31
0.0
210
0.0
220
0.0
230
1.0
 40
0.5780931159156394
 41
5.194049349025346
 42
10.51391391892362
  0
ELLIPSE
  5
17B
330
6C
100
AcDbEntity
  8
Visible (ISO)
100
AcDbEllipse
 10
120.3777868220704
 20
186.2955841599803
 30
0.0
 11
6.276502920702612
 21
-10.8993234138774
 31
0.0
210
0.0
220
0.0
230
1.0
 40
0.5780931159156396
 41
5.209681807058251
 42
10.49828146089071
  0
ELLIPSE
  5
17C
330
6C
100
AcDbEntity
  8
Visible (ISO)
100
AcDbEllipse
 10
121.084893603257
 20
186.7027798737726
 30
0.0
 11
5.988386539010192
 21
-10.39900123374364
 31
0.0
210
0.0
220
0.0
230
1.0
 40
0.5780931159156393
 41
5.861786860782729
 42
6.651522776226411
  0
ELLIPSE
  5
17D
330
6C
100
AcDbEntity
  8
Visible (ISO)
100
AcDbEllipse
 10
121.084893603257
 20
186.7027798737726
 30
0.0
 11
-5.988386539010194
 21
10.39900123374364
 31
0.0
210
0.0
220
0.0
230
1.0
 40
0.5780931159156397
 41
5.91484783813276
 42
6.70458375357644
  0
ELLIPSE
  5
17E
330
6C
100
AcDbEntity
  8
Visible Narrow (ISO)
100
AcDbEllipse
 10
121.084893603257
 20
186.7027798737726
 30
0.0
 11
-10.23016033747574
 21
17.7649604409787
 31
0.0
210
0.0
220
0.0
230
1.0
 40
0.5780931159156394
 41
1.867827758222915
 42
7.556950202546465
  0
ELLIPSE
  5
17F
330
6C
100
AcDbEntity
  8
Visible Narrow (ISO)
100
AcDbEllipse
 10
122.4991071656303
 20
187.5171713013571
 30
0.0
 11
11.2282247606441
 21
-19.49812731326931
 31
0.0
210
0.0
220
0.0
230
1.0
 40
0.5780931159156394
 41
-0.0000000000000009
 42
3.141592653589792
  0
SPLINE
  5
180
330
6C
100
AcDbEntity
  8
Visible (ISO)
100
AcDbSpline
210
0.0
220
0.0
230
1.0
 70
     8
 71
     3
 72
    16
 73
    12
 74
     0
 42
0.0000000001
 43
0.0000000001
 40
0.7873318718204815
 40
0.7873318718204815
 40
0.7873318718204815
 40
0.7873318718204815
 40
1.061319441690369
 40
1.061319441690369
 40
1.357565277769878
 40
1.357565277769878
 40
1.685646541211931
 40
1.685646541211931
 40
2.020784772215793
 40
2.020784772215793
 40
2.077805585656352
 40
2.077805585656352
 40
2.077805585656352
 40
2.077805585656352
 10
133.7273319262745
 20
168.0190439880878
 30
0.0
 10
132.5155874722204
 20
167.3212467656169
 30
0.0
 10
131.1395657472583
 20
166.9198344269386
 30
0.0
 10
128.1616884075249
 20
166.7111825370332
 30
0.0
 10
126.5521403290665
 20
166.946445198856
 30
0.0
 10
123.1706309203182
 20
168.04719830247
 30
0.0
 10
121.3947902703547
 20
168.9775797709395
 30
0.0
 10
117.9301761361605
 20
171.4348119092979
 30
0.0
 10
116.2441531535994
 20
172.9755062041454
 30
0.0
 10
114.4301036251276
 20
175.0332675555299
 30
0.0
 10
114.1702703387529
 20
175.3387336615135
 30
0.0
 10
113.9147187149601
 20
175.6500089201097
 30
0.0
  0
SPLINE
  5
181
330
6C
100
AcDbEntity
  8
Visible (ISO)
100
AcDbSpline
210
0.0
220
0.0
230
1.0
 70
     8
 71
     3
 72
    16
 73
    12
 74
     0
 42
0.0000000001
 43
0.0000000001
 40
2.638450811574403
 40
2.638450811574403
 40
2.638450811574403
 40
2.638450811574403
 40
2.685352414643102
 40
2.685352414643102
 40
3.018171189504268
 40
3.018171189504268
 40
3.353274067908809
 40
3.353274067908809
 40
3.681683012290103
 40
3.681683012290103
 40
3.928924525410274
 40
3.928924525410274
 40
3.928924525410274
 40
3.928924525410274
 10
107.92633217595
 20
186.0490101538533
 30
0.0
 10
107.8103926919682
 20
186.3593259647764
 30
0.0
 10
107.6993062414988
 20
186.6701745894452
 30
0.0
 10
106.8402166370765
 20
189.1887679237236
 30
0.0
 10
106.3389948575704
 20
191.4074410423434
 30
0.0
 10
105.9071626611627
 20
195.6808681101711
 30
0.0
 10
105.9792308784509
 20
197.7349388948661
 30
0.0
 10
106.7508714292346
 20
201.4420768908113
 30
0.0
 10
107.4413880885222
 20
203.107875626764
 30
0.0
 10
109.2242515435747
 20
205.519294315298
 30
0.0
 10
110.177425747527
 20
206.3856188039085
 30
0.0
 10
111.2708824049862
 20
207.0152986146264
 30
0.0
  0
ELLIPSE
  5
182
330
6C
100
AcDbEntity
  8
Visible (ISO)
100
AcDbEllipse
 10
112.4488546339391
 20
216.3482602901557
 30
0.0
 11
-1.031499581344504
 21
1.791227962512341
 31
0.0
210
0.0
220
0.0
230
1.0
 40
0.5780931159156397
 41
0.0
 42
6.283185307179586
  0
ELLIPSE
  5
183
330
6C
100
AcDbEntity
  8
Visible (ISO)
100
AcDbEllipse
 10
142.4488546339347
 20
164.3868223056503
 30
0.0
 11
-1.031499581344504
 21
1.791227962512341
 31
0.0
210
0.0
220
0.0
230
1.0
 40
0.5780931159156397
 41
0.0
 42
6.283185307179586
  0
ELLIPSE
  5
184
330
6C
100
AcDbEntity
  8
Visible (ISO)
100
AcDbEllipse
 10
142.4488546339347
 20
199.0724092605938
 30
0.0
 11
-1.031499581344504
 21
1.791227962512341
 31
0.0
210
0.0
220
0.0
230
1.0
 40
0.5780931159156397
 41
0.0
 42
6.283185307179586
  0
ELLIPSE
  5
185
330
6C
100
AcDbEntity
  8
Visible Narrow (ISO)
100
AcDbEllipse
 10
123.9133207280036
 20
188.3315627289417
 30
0.0
 11
-11.2282247606441
 21
19.49812731326931
 31
0.0
210
0.0
220
0.0
230
1.0
 40
0.5780931159156394
 41
3.141592653589791
 42
6.283185307179584
  0
ELLIPSE
  5
186
330
6C
100
AcDbEntity
  8
Visible Narrow (ISO)
100
AcDbEllipse
 10
125.3275342903769
 20
189.1459541565262
 30
0.0
 11
12.22628918381247
 21
-21.23129418555992
 31
0.0
210
0.0
220
0.0
230
1.0
 40
0.5780931159156397
 41
5.826731219321815
 42
9.881232048627147
  0
ELLIPSE
  5
187
330
6C
100
AcDbEntity
  8
Visible (ISO)
100
AcDbEllipse
 10
125.3275342903769
 20
189.1459541565262
 30
0.0
 11
-12.3260956261293
 21
21.40461087278899
 31
0.0
210
0.0
220
0.0
230
0.9999999999999998
 40
0.5780931159156397
 41
2.654481983440199
 42
6.770295977329181
  0
ELLIPSE
  5
188
330
6C
100
AcDbEntity
  8
Visible (ISO)
100
AcDbEllipse
 10
125.5396663247329
 20
189.2681128706639
 30
0.0
 11
12.47580528960456
 21
-21.66458590363258
 31
0.0
210
0.0
220
0.0
230
1.0
 40
0.5780931159156394
 41
5.766950493849883
 42
9.941012774099082
  0
ELLIPSE
  5
189
330
6C
100
AcDbEntity
  8
Visible Narrow (ISO)
100
AcDbEllipse
 10
127.1660119214622
 20
190.2046630123861
 30
0.0
 11
-12.47580528960456
 21
21.66458590363257
 31
0.0
210
0.0
220
0.0
230
1.0
 40
0.5780931159156396
 41
3.141592653589793
 42
6.283185307179586
  0
ELLIPSE
  5
18A
330
6C
100
AcDbEntity
  8
Visible Narrow (ISO)
100
AcDbEllipse
 10
127.4488546339369
 20
190.367541297903
 30
0.0
 11
12.67541817423823
 21
-22.01121927809069
 31
0.0
210
0.0
220
0.0
230
1.0
 40
0.5780931159156397
 41
6.103060409100485
 42
9.604902858848481
  0
LINE
  5
18B
330
6C
100
AcDbEntity
  8
Visible (ISO)
100
AcDbLine
 10
111.8925054478352
 20
220.336808109789
 30
0.0
 11
143.0052038200386
 21
202.4201967029236
 31
0.0
  0
ELLIPSE
  5
18C
330
6C
100
AcDbEntity
  8
Visible (ISO)
100
AcDbEllipse
 10
111.8925054478352
 20
217.3118837478716
 30
0.0
 11
-1.846419182861475
 21
3.206358713737621
 31
0.0
210
0.0
220
0.0
230
1.0
 40
0.5780931159156396
 41
5.499720852205178
 42
7.070517179000074
  0
LINE
  5
18D
330
6C
100
AcDbEntity
  8
Visible (ISO)
100
AcDbLine
 10
109.2762103574453
 20
206.6439074740649
 30
0.0
 11
109.2762103574453
 21
218.8185078889035
 31
0.0
  0
LINE
  5
18E
330
6C
100
AcDbEntity
  8
Visible (ISO)
100
AcDbLine
 10
143.0052038200386
 20
160.3982744860171
 30
0.0
 11
132.4505448740686
 21
166.476298339965
 31
0.0
  0
ELLIPSE
  5
18F
330
6C
100
AcDbEntity
  8
Visible (ISO)
100
AcDbEllipse
 10
143.0052038200386
 20
163.4231988479345
 30
0.0
 11
1.846419182861475
 21
-3.206358713737621
 31
0.0
210
0.0
220
0.0
230
1.0
 40
0.5780931159156396
 41
5.499720852205178
 42
7.070517179000074
  0
LINE
  5
190
330
6C
100
AcDbEntity
  8
Visible (ISO)
100
AcDbLine
 10
145.6214989104285
 20
197.8886481999744
 30
0.0
 11
145.6214989104285
 21
161.9165747069026
 31
0.0
  0
ELLIPSE
  5
191
330
6C
100
AcDbEntity
  8
Visible (ISO)
100
AcDbEllipse
 10
143.0052038200386
 20
199.3952723410062
 30
0.0
 11
1.846419182861283
 21
-3.20635871373773
 31
0.0
210
0.0
220
0.0
230
0.9999999999999998
 40
0.5780931159156396
 41
0.7873318718207179
 42
2.358128198615618
  0
LINE
  5
192
330
6C
100
AcDbEntity
  8
Visible Narrow (ISO)
100
AcDbLine
 10
112.1046374821911
 20
220.7042309613794
 30
0.0
 11
111.8925054478352
 21
220.336808109789
 31
0.0
  0
LINE
  5
193
330
6C
100
AcDbEntity
  8
Visible Narrow (ISO)
100
AcDbLine
 10
143.0052038200386
 20
202.4201967029236
 30
0.0
 11
143.2173358543946
 21
202.7876195545141
 31
0.0
  0
LINE
  5
194
330
6C
100
AcDbEntity
  8
Visible (ISO)
100
AcDbLine
 10
143.2173358543946
 20
202.7876195545141
 30
0.0
 11
112.1046374821911
 21
220.7042309613794
 31
0.0
  0
LINE
  5
195
330
6C
100
AcDbEntity
  8
Visible Narrow (ISO)
100
AcDbLine
 10
145.6214989104285
 20
197.8886481999744
 30
0.0
 11
146.0457629791404
 21
197.8886481999743
 31
0.0
  0
ELLIPSE
  5
196
330
6C
100
AcDbEntity
  8
Visible (ISO)
100
AcDbEllipse
 10
143.2173358543946
 20
199.5174310551439
 30
0.0
 11
-1.996128846336938
 21
3.466333744581094
 31
0.0
210
0.0
220
0.0
230
1.0
 40
0.5780931159156396
 41
3.928924525410042
 42
5.49972085220493
  0
LINE
  5
197
330
6C
100
AcDbEntity
  8
Visible Narrow (ISO)
100
AcDbLine
 10
145.6214989104285
 20
161.9165747069026
 30
0.0
 11
146.0457629791404
 21
161.9165747069026
 31
0.0
  0
LINE
  5
198
330
6C
100
AcDbEntity
  8
Visible (ISO)
100
AcDbLine
 10
146.0457629791404
 20
161.9165747069026
 30
0.0
 11
146.0457629791404
 21
197.8886481999743
 31
0.0
  0
LINE
  5
199
330
6C
100
AcDbEntity
  8
Visible Narrow (ISO)
100
AcDbLine
 10
143.0052038200386
 20
160.3982744860171
 30
0.0
 11
143.2173358543946
 21
160.275169062702
 31
0.0
  0
ELLIPSE
  5
19A
330
6C
100
AcDbEntity
  8
Visible (ISO)
100
AcDbEllipse
 10
143.2173358543946
 20
163.5453575620721
 30
0.0
 11
1.996128846336731
 21
-3.466333744581215
 31
0.0
210
0.0
220
0.0
230
1.0
 40
0.5780931159156394
 41
5.499720852205171
 42
7.07051717900006
  0
LINE
  5
19B
330
6C
100
AcDbEntity
  8
Visible (ISO)
100
AcDbLine
 10
132.4486167426461
 20
166.4764619678284
 30
0.0
 11
143.2173358543946
 21
160.275169062702
 31
0.0
  0
LINE
  5
19C
330
6C
100
AcDbEntity
  8
Visible (ISO)
100
AcDbLine
 10
109.2762103574453
 20
218.8185078889035
 30
0.0
 11
109.2762103574454
 21
219.0628253171789
 31
0.0
  0
ELLIPSE
  5
19D
330
6C
100
AcDbEntity
  8
Visible (ISO)
100
AcDbEllipse
 10
112.1046374821912
 20
217.4340424620093
 30
0.0
 11
-1.996128846336731
 21
3.466333744581215
 31
0.0
210
0.0
220
0.0
230
1.0
 40
0.5780931159156394
 41
5.499720852205171
 42
7.07051717900006
  0
LINE
  5
19E
330
6C
100
AcDbEntity
  8
Visible Narrow (ISO)
100
AcDbLine
 10
130.0651497243321
 20
231.0470020917032
 30
0.0
 11
112.1046374821911
 21
220.7042309613794
 31
0.0
  0
LINE
  5
19F
330
6C
100
AcDbEntity
  8
Visible Narrow (ISO)
100
AcDbLine
 10
161.1778480965356
 20
213.1303906848379
 30
0.0
 11
143.2173358543946
 21
202.7876195545141
 31
0.0
  0
LINE
  5
1A0
330
6C
100
AcDbEntity
  8
Visible Narrow (ISO)
100
AcDbLine
 10
164.0062752212814
 20
172.2593458372263
 30
0.0
 11
146.0457629791404
 21
161.9165747069026
 31
0.0
  0
LINE
  5
1A1
330
6C
100
AcDbEntity
  8
Visible Narrow (ISO)
100
AcDbLine
 10
164.0062752212814
 20
208.2314193302981
 30
0.0
 11
146.0457629791404
 21
197.8886481999743
 31
0.0
  0
LINE
  5
1A2
330
6C
100
AcDbEntity
  8
Visible (ISO)
100
AcDbLine
 10
128.0690208779954
 20
231.2431473369142
 30
0.0
 11
110.1085086358544
 21
220.9003762065905
 31
0.0
  0
LINE
  5
1A3
330
6C
100
AcDbEntity
  8
Visible (ISO)
100
AcDbLine
 10
163.1739769428723
 20
170.4217949478147
 30
0.0
 11
145.2134647007313
 21
160.0790238174909
 31
0.0
  0
ELLIPSE
  5
1A4
330
6C
100
AcDbEntity
  8
Visible (ISO)
100
AcDbEllipse
 10
130.0651497243321
 20
227.776813592333
 30
0.0
 11
-1.99612884633673
 21
3.466333744581215
 31
0.0
210
0.0
220
0.0
230
1.0
 40
0.5780931159156394
 41
5.499720852205165
 42
6.283185307179585
  0
LINE
  5
1A5
330
6C
100
AcDbEntity
  8
Visible (ISO)
100
AcDbLine
 10
130.0651497243321
 20
231.0470020917032
 30
0.0
 11
161.1778480965356
 21
213.1303906848379
 31
0.0
  0
ELLIPSE
  5
1A6
330
6C
100
AcDbEntity
  8
Visible (ISO)
100
AcDbEllipse
 10
161.1778480965356
 20
173.8881286923959
 30
0.0
 11
1.996128846336727
 21
-3.466333744581207
 31
0.0
210
0.0
220
0.0
230
1.0
 40
0.5780931159156394
 41
0.0
 42
0.7873318718204816
  0
LINE
  5
1A7
330
6C
100
AcDbEntity
  8
Visible (ISO)
100
AcDbLine
 10
164.0062752212815
 20
208.4757367585735
 30
0.0
 11
164.0062752212814
 21
208.2314193302981
 31
0.0
  0
LINE
  5
1A8
330
6C
100
AcDbEntity
  8
Visible (ISO)
100
AcDbLine
 10
164.0062752212814
 20
208.2314193302981
 30
0.0
 11
164.0062752212814
 21
172.2593458372263
 31
0.0
  0
ELLIPSE
  5
1A9
330
6C
100
AcDbEntity
  8
Visible (ISO)
100
AcDbEllipse
 10
161.1778480965356
 20
209.8602021854677
 30
0.0
 11
1.996128846336525
 21
-3.466333744581334
 31
0.0
210
0.0
220
0.0
230
0.9999999999999998
 40
0.5780931159156394
 41
0.7873318718207188
 42
2.358128198615613
  0
ELLIPSE
  5
1AA
330
6C
100
AcDbEntity
  8
Visible (ISO)
100
AcDbEllipse
 10
161.3899801308916
 20
209.9823608996053
 30
0.0
 11
-1.846419182861664
 21
3.206358713737507
 31
0.0
210
0.0
220
0.0
230
1.0
 40
0.5780931159156396
 41
3.928924525410042
 42
5.495853435359167
  0
LINE
  5
1AB
330
6C
100
AcDbEntity
  8
Visible (ISO)
100
AcDbLine
 10
161.4000984093746
 20
213.0014359107274
 30
0.0
 11
161.1887867759767
 21
213.1240670623563
 31
0.0
  0
LINE
  5
1AC
330
6C
100
AcDbEntity
  8
Visible (ISO)
100
AcDbLine
 10
110.4782918854602
 20
192.1155890163769
 30
0.0
 11
110.4782918854604
 21
192.6914507173624
 31
0.0
  0
LINE
  5
1AD
330
6C
100
AcDbEntity
  8
Visible (ISO)
100
AcDbLine
 10
120.442654351491
 20
174.8121940363244
 30
0.0
 11
120.9407206478886
 21
174.5231496399859
 31
0.0
  0
LINE
  5
1AE
330
6C
100
AcDbEntity
  8
Visible (ISO)
100
AcDbLine
 10
135.1415454886478
 20
168.8334354156723
 30
0.0
 11
133.7273319262745
 21
168.0190439880878
 31
0.0
  0
LINE
  5
1AF
330
6C
100
AcDbEntity
  8
Visible (ISO)
100
AcDbLine
 10
112.6850959673595
 20
207.829690042211
 30
0.0
 11
111.2708824049862
 21
207.0152986146264
 31
0.0
  0
LINE
  5
1B0
330
6C
100
AcDbEntity
  8
Visible (ISO)
100
AcDbLine
 10
139.6418172110668
 20
168.5400771087535
 30
0.0
 11
138.0154716143375
 21
167.6035269670313
 31
0.0
  0
LINE
  5
1B1
330
6C
100
AcDbEntity
  8
Visible (ISO)
100
AcDbLine
 10
114.6902066318577
 20
211.8692489160187
 30
0.0
 11
113.0638610351284
 21
210.9326987742965
 31
0.0
  0
ELLIPSE
  5
1B2
330
6C
100
AcDbEntity
  8
Visible (ISO)
100
AcDbEllipse
 10
121.084893603257
 20
186.7027798737726
 30
0.0
 11
3.493225481089276
 21
-6.066084053017119
 31
0.0
210
0.0
220
0.0
230
1.0
 40
0.5780931159156396
 41
0.0
 42
0.3311014755619528
  0
ELLIPSE
  5
1B3
330
6C
100
AcDbEntity
  8
Visible (ISO)
100
AcDbEllipse
 10
121.084893603257
 20
186.7027798737726
 30
0.0
 11
-3.493225481089291
 21
6.066084053017143
 31
0.0
210
0.0
220
0.0
230
1.0
 40
0.5780931159156394
 41
5.952083831617635
 42
6.283185307179588
  0
ELLIPSE
  5
1B4
330
6C
100
AcDbEntity
  8
Visible (ISO)
100
AcDbEllipse
 10
120.3777868220704
 20
186.2955841599803
 30
0.0
 11
3.781341862781701
 21
-6.566406233150885
 31
0.0
210
0.0
220
0.0
230
1.0
 40
0.5780931159156394
 41
5.784495695013221
 42
9.923467572935743
  0
ELLIPSE
  5
1B5
330
6C
100
AcDbEntity
  8
Visible (ISO)
100
AcDbEllipse
 10
120.3777868220704
 20
186.2955841599803
 30
0.0
 11
-5.700270157317768
 21
9.898679053609873
 31
0.0
210
0.0
220
0.0
230
1.0
 40
0.5780931159156393
 41
2.123831255608388
 42
7.300946705160991
  0
ELLIPSE
  5
1B6
330
6C
100
AcDbEntity
  8
Visible (ISO)
100
AcDbEllipse
 10
121.084893603257
 20
186.7027798737726
 30
0.0
 11
-5.988386539010186
 21
10.39900123374364
 31
0.0
210
0.0
220
0.0
230
1.0
 40
0.5780931159156393
 41
5.914847838132762
 42
6.704583753576441
  0
ELLIPSE
  5
1B7
330
6C
100
AcDbEntity
  8
Visible (ISO)
100
AcDbEllipse
 10
121.084893603257
 20
186.7027798737726
 30
0.0
 11
5.988386539010188
 21
-10.39900123374364
 31
0.0
210
0.0
220
0.0
230
0.9999999999999998
 40
0.5780931159156394
 41
5.86178686078273
 42
6.651522776226412
  0
LINE
  5
1B8
330
6C
100
AcDbEntity
  8
Visible (ISO)
100
AcDbLine
 10
112.8355327359875
 20
193.9804110059022
 30
0.0
 11
113.1614212771408
 21
194.7760312054949
 31
0.0
  0
LINE
  5
1B9
330
6C
100
AcDbEntity
  8
Visible (ISO)
100
AcDbLine
 10
123.2387288910435
 20
175.9149690130434
 30
0.0
 11
124.0904400952479
 21
175.797483405892
 31
0.0
  0
ELLIPSE
  5
1BA
330
6C
100
AcDbEntity
  8
Visible (ISO)
100
AcDbEllipse
 10
104.821437635964
 20
177.3372784565502
 30
0.0
 11
-1.621854687648592
 21
2.816396167472234
 31
0.0
210
0.0
220
0.0
230
1.0
 40
0.5780931159156394
 41
0.0
 42
6.283185307179586
  0
ELLIPSE
  5
1BB
330
6C
100
AcDbEntity
  8
Visible (ISO)
100
AcDbEllipse
 10
106.2703108188205
 20
178.1716290321418
 30
0.0
 11
-1.031499581344505
 21
1.791227962512341
 31
0.0
210
0.0
220
0.0
230
1.0
 40
0.5780931159156397
 41
0.1743973651009103
 42
2.967195288488878
  0
ELLIPSE
  5
1BC
330
6C
100
AcDbEntity
  8
Visible Narrow (ISO)
100
AcDbEllipse
 10
118.6807305472224
 20
185.3183144468788
 30
0.0
 11
-2.994193269505095
 21
5.199500616871817
 31
0.0
210
0.0
220
0.0
230
1.0
 40
0.5780931159156394
 41
3.14159265358979
 42
6.283185307179583
  0
ELLIPSE
  5
1BD
330
6C
100
AcDbEntity
  8
Visible Narrow (ISO)
100
AcDbEllipse
 10
118.9635732596971
 20
185.4811927323957
 30
0.0
 11
3.193806154138767
 21
-5.546133991329939
 31
0.0
210
0.0
220
0.0
230
1.0
 40
0.5780931159156394
 41
5.927764105489359
 42
9.7801991624596
  0
ELLIPSE
  5
1BE
330
6C
100
AcDbEntity
  8
Visible (ISO)
100
AcDbEllipse
 10
118.9635732596971
 20
185.4811927323957
 30
0.0
 11
-3.311592610132601
 21
5.750673476752107
 31
0.0
210
0.0
220
0.0
230
1.0
 40
0.5780931159156396
 41
2.700194092988697
 42
6.724583867780688
  0
ELLIPSE
  5
1BF
330
6C
100
AcDbEntity
  8
Visible (ISO)
100
AcDbEllipse
 10
119.6706800408837
 20
185.888388446188
 30
0.0
 11
3.493225481089277
 21
-6.06608405301712
 31
0.0
210
0.0
220
0.0
230
0.9999999999999998
 40
0.5780931159156394
 41
6.022375548938791
 42
9.685587719010175
  0
LINE
  5
1C0
330
6C
100
AcDbEntity
  8
Visible (ISO)
100
AcDbLine
 10
114.9067276117605
 20
190.5437317520005
 30
0.0
 11
115.3913261895504
 21
191.2285955260631
 31
0.0
  0
LINE
  5
1C1
330
6C
100
AcDbEntity
  8
Visible (ISO)
100
AcDbLine
 10
121.3059265646782
 20
179.4313432358507
 30
0.0
 11
122.1415057776118
 21
179.5067192899569
 31
0.0
  0
ELLIPSE
  5
1C2
330
6C
100
AcDbEntity
  8
Visible Narrow (ISO)
100
AcDbEllipse
 10
105.1749910265573
 20
177.5408763134464
 30
0.0
 11
2.994193269505093
 21
-5.199500616871818
 31
0.0
210
0.0
220
0.0
230
1.0
 40
0.5780931159156396
 41
0.0
 42
3.141592653589791
  0
ELLIPSE
  5
1C3
330
6C
100
AcDbEntity
  8
Visible Narrow (ISO)
100
AcDbEllipse
 10
104.821437635964
 20
177.3372784565502
 30
0.0
 11
-2.744677163713003
 21
4.766208898799166
 31
0.0
210
0.0
220
0.0
230
0.9999999999999998
 40
0.5780931159156394
 41
0.0
 42
6.283185307179586
  0
SPLINE
  5
1C4
330
6C
100
AcDbEntity
  8
Visible (ISO)
100
AcDbSpline
210
0.0
220
0.0
230
1.0
 70
     8
 71
     3
 72
    26
 73
    22
 74
     0
 42
0.0000000001
 43
0.0000000001
 40
0.7873318718204816
 40
0.7873318718204816
 40
0.7873318718204816
 40
0.7873318718204816
 40
1.063660571805225
 40
1.063660571805225
 40
1.361682561479294
 40
1.361682561479294
 40
1.689634830002312
 40
1.689634830002312
 40
2.023800512745531
 40
2.023800512745531
 40
2.355817953751278
 40
2.355817953751278
 40
2.686723632284175
 40
2.686723632284175
 40
3.018705143857673
 40
3.018705143857673
 40
3.352847252007308
 40
3.352847252007308
 40
3.680895091651295
 40
3.680895091651295
 40
3.928924525410274
 40
3.928924525410274
 40
3.928924525410274
 40
3.928924525410274
 10
108.1691842960625
 20
172.3413756965746
 30
0.0
 10
107.8463557893905
 20
172.155471123596
 30
0.0
 10
107.4793736058272
 20
172.0491314422989
 30
0.0
 10
106.6846334669971
 20
171.9962650533267
 30
0.0
 10
106.254735339622
 20
172.0607745411105
 30
0.0
 10
105.3530214184779
 20
172.3587912998364
 30
0.0
 10
104.8800880573884
 20
172.6086195848834
 30
0.0
 10
103.9580322438788
 20
173.266885952791
 30
0.0
 10
103.5095652096042
 20
173.6785831620338
 30
0.0
 10
102.6874320030632
 20
174.6147079695869
 30
0.0
 10
102.3135333577109
 20
175.1383145190741
 30
0.0
 10
101.6736769270067
 20
176.2460196186512
 30
0.0
 10
101.4074860366159
 20
176.8296914984401
 30
0.0
 10
101.0078388118292
 20
178.0046107170986
 30
0.0
 10
100.8747726989895
 20
178.5956406875317
 30
0.0
 10
100.7603456866855
 20
179.7326957660888
 30
0.0
 10
100.7796683731312
 20
180.278523696442
 30
0.0
 10
100.9840668596203
 20
181.2627903544899
 30
0.0
 10
101.1669762802068
 20
181.7043728185883
 30
0.0
 10
101.6384968624786
 20
182.3437564140875
 30
0.0
 10
101.8910306365341
 20
182.5735111434071
 30
0.0
 10
102.1807977570522
 20
182.7403769303182
 30
0.0
  0
LINE
  5
1C5
330
6C
100
AcDbEntity
  8
Visible (ISO)
100
AcDbLine
 10
121.6749238167275
 20
180.118813830007
 30
0.0
 11
108.1691842960625
 21
172.3413756965746
 31
0.0
  0
LINE
  5
1C6
330
6C
100
AcDbEntity
  8
Visible (ISO)
100
AcDbLine
 10
115.6865372777173
 20
190.5178150637506
 30
0.0
 11
102.1807977570522
 21
182.7403769303182
 31
0.0
  0
LINE
  5
1C7
330
6C
100
AcDbEntity
  8
Visible (ISO)
100
AcDbLine
 10
124.5781190843463
 20
180.6366958207554
 30
0.0
 11
123.163905521973
 21
179.8223043931709
 31
0.0
  0
LINE
  5
1C8
330
6C
100
AcDbEntity
  8
Visible (ISO)
100
AcDbLine
 10
117.5916681221677
 20
192.7688639267897
 30
0.0
 11
116.1774545597944
 21
191.9544724992051
 31
0.0
  0
ELLIPSE
  5
1C9
330
6C
100
AcDbEntity
  8
Visible Narrow (ISO)
100
AcDbEllipse
 10
136.2876893987746
 20
233.8127772482327
 30
0.0
 11
0.4990322115844271
 21
0.8665834361452144
 31
0.0
210
0.0
220
0.0
230
1.0
 40
0.5780931159158103
 41
0.0
 42
0.7834644549745385
  0
ELLIPSE
  5
1CA
330
6C
100
AcDbEntity
  8
Visible Narrow (ISO)
100
AcDbEllipse
 10
136.2876893987747
 20
231.360135873705
 30
0.0
 11
-1.99612884633674
 21
3.466333744581224
 31
0.0
210
0.0
220
0.0
230
0.9999999999999998
 40
0.5780931159156394
 41
5.499720852205168
 42
6.283185307179587
  0
ELLIPSE
  5
1CB
330
6C
100
AcDbEntity
  8
Visible Narrow (ISO)
100
AcDbEllipse
 10
146.7942861156961
 20
227.7624305912578
 30
0.0
 11
0.4990322115844224
 21
0.8665834361452066
 31
0.0
210
0.0
220
0.0
230
0.9999999999999998
 40
0.5780931159158105
 41
0.0
 42
0.7834644549745633
  0
LINE
  5
1CC
330
6C
100
AcDbEntity
  8
Visible Narrow (ISO)
100
AcDbLine
 10
136.2876893987746
 20
234.6303243730752
 30
0.0
 11
146.7942861156961
 21
228.5799777161003
 31
0.0
  0
ELLIPSE
  5
1CD
330
6C
100
AcDbEntity
  8
Visible Narrow (ISO)
100
AcDbEllipse
 10
169.5217081145375
 20
176.2498638323907
 30
0.0
 11
1.000000000000004
 21
-0.0000000000000058
 31
0.0
210
0.0
220
0.0
230
1.0
 40
0.5758617009853117
 41
5.497787143782042
 42
6.283185307179615
  0
ELLIPSE
  5
1CE
330
6C
100
AcDbEntity
  8
Visible Narrow (ISO)
100
AcDbEllipse
 10
167.4003877709781
 20
177.4714509737679
 30
0.0
 11
1.996128846336738
 21
-3.466333744581226
 31
0.0
210
0.0
220
0.0
230
0.9999999999999998
 40
0.5780931159156397
 41
0.0
 42
0.7873318718204772
  0
ELLIPSE
  5
1CF
330
6C
100
AcDbEntity
  8
Visible Narrow (ISO)
100
AcDbEllipse
 10
169.5217081145375
 20
188.3974462999026
 30
0.0
 11
0.99999999999999
 21
0.0000000000000059
 31
0.0
210
0.0
220
0.0
230
1.0
 40
0.5758617009853086
 41
5.497787143781994
 42
6.283185307179582
  0
LINE
  5
1D0
330
6C
100
AcDbEntity
  8
Visible Narrow (ISO)
100
AcDbLine
 10
170.2288148957239
 20
187.9902505861102
 30
0.0
 11
170.2288148957239
 21
175.8426681185983
 31
0.0
  0
ELLIPSE
  5
1D1
330
6C
100
AcDbEntity
  8
Visible Narrow (ISO)
100
AcDbEllipse
 10
169.5217081145375
 20
200.0743548579506
 30
0.0
 11
0.9999999999999921
 21
-0.0000000000000004
 31
0.0
210
0.0
220
0.0
230
1.0
 40
0.5758617009853117
 41
5.497787143782001
 42
6.283185307179587
  0
ELLIPSE
  5
1D2
330
6C
100
AcDbEntity
  8
Visible Narrow (ISO)
100
AcDbEllipse
 10
169.5217081145375
 20
212.2219373254625
 30
0.0
 11
0.99999999999999
 21
0.0000000000000005
 31
0.0
210
0.0
220
0.0
230
1.0
 40
0.5758617009853119
 41
5.497787143781999
 42
6.283185307179582
  0
LINE
  5
1D3
330
6C
100
AcDbEntity
  8
Visible Narrow (ISO)
100
AcDbLine
 10
170.2288148957239
 20
211.8147416116701
 30
0.0
 11
170.2288148957239
 21
199.6671591441582
 31
0.0
  0
ELLIPSE
  5
1D4
330
6C
100
AcDbEntity
  8
Visible Narrow (ISO)
100
AcDbEllipse
 10
167.4003877709781
 20
215.8961658413673
 30
0.0
 11
0.499032211584413
 21
0.8665834361452107
 31
0.0
210
0.0
220
0.0
230
1.0
 40
0.5780931159158103
 41
0.0
 42
0.7834644549744834
  0
ELLIPSE
  5
1D5
330
6C
100
AcDbEntity
  8
Visible Narrow (ISO)
100
AcDbEllipse
 10
167.4003877709781
 20
213.4435244668397
 30
0.0
 11
1.996128846336531
 21
-3.466333744581346
 31
0.0
210
0.0
220
0.0
230
1.0
 40
0.5780931159156398
 41
0.787331871820725
 42
2.358128198615627
  0
ELLIPSE
  5
1D6
330
6C
100
AcDbEntity
  8
Visible Narrow (ISO)
100
AcDbEllipse
 10
156.8937910540567
 20
221.9465124983421
 30
0.0
 11
0.4990322115844069
 21
0.8665834361452052
 31
0.0
210
0.0
220
0.0
230
1.0
 40
0.5780931159158138
 41
0.0
 42
0.7834644549745118
  0
LINE
  5
1D7
330
6C
100
AcDbEntity
  8
Visible Narrow (ISO)
100
AcDbLine
 10
156.8937910540567
 20
222.7640596231847
 30
0.0
 11
167.4003877709782
 21
216.7137129662099
 31
0.0
  0
SPLINE
  5
1D8
330
6C
100
AcDbEntity
  8
Visible Narrow (ISO)
100
AcDbSpline
210
0.0
220
0.0
230
1.0
 70
     8
 71
     3
 72
    14
 73
    10
 74
     0
 42
0.0000000001
 43
0.0000000001
 40
0.0
 40
0.0
 40
0.0
 40
0.0
 40
0.2488504855222188
 40
0.2488504855222188
 40
0.7146796286844913
 40
0.7146796286844913
 40
0.9939277022870381
 40
0.9939277022870381
 40
1.429359257368982
 40
1.429359257368982
 40
1.429359257368982
 40
1.429359257368982
 10
170.2288148957239
 20
199.6671591441582
 30
0.0
 10
170.2288148957239
 20
198.989002480977
 30
0.0
 10
170.2556588819552
 20
198.3264345985162
 30
0.0
 10
170.3472708217245
 20
196.4344585143816
 30
0.0
 10
170.4182804201186
 20
195.2073904181751
 30
0.0
 10
170.4182854847585
 20
193.1769089974569
 30
0.0
 10
170.3951119702864
 20
192.4025642019058
 30
0.0
 10
170.3081424675177
 20
190.4074649888024
 30
0.0
 10
170.2288148957239
 20
189.1768699725201
 30
0.0
 10
170.2288148957239
 20
187.9902505861102
 30
0.0
  0
SPLINE
  5
1D9
330
6C
100
AcDbEntity
  8
Visible Narrow (ISO)
100
AcDbSpline
210
0.0
220
0.0
230
1.0
 70
     8
 71
     3
 72
    14
 73
    10
 74
     0
 42
0.0000000001
 43
0.0000000001
 40
0.0
 40
0.0
 40
0.0
 40
0.0
 40
0.2488504855222166
 40
0.2488504855222166
 40
0.7146796286844913
 40
0.7146796286844913
 40
0.9939277022870376
 40
0.9939277022870376
 40
1.429359257368982
 40
1.429359257368982
 40
1.429359257368982
 40
1.429359257368982
 10
146.7942861156961
 20
228.5799777161003
 30
0.0
 10
147.3808323350771
 20
228.242208212501
 30
0.0
 10
147.9941097931542
 20
227.9199620594615
 30
0.0
 10
149.7677447825491
 20
227.0041052124733
 30
0.0
 10
150.9354287482857
 20
226.4134641539858
 30
0.0
 10
152.6916252303182
 20
225.4021436936421
 30
0.0
 10
153.3266502267244
 20
225.00976764012
 30
0.0
 10
154.9219502007543
 20
223.9909306718965
 30
0.0
 10
155.8674690362533
 20
223.3550791661158
 30
0.0
 10
156.8937910540567
 20
222.7640596231847
 30
0.0
  0
SPLINE
  5
1DA
330
6C
100
AcDbEntity
  8
Visible (ISO)
100
AcDbSpline
210
0.0
220
0.0
230
1.0
 70
     8
 71
     3
 72
    16
 73
    12
 74
     0
 42
0.0000000001
 43
0.0000000001
 40
4.712388980384689
 40
4.712388980384689
 40
4.712388980384689
 40
4.712388980384689
 40
4.869081871379572
 40
4.869081871379572
 40
5.025774762374455
 40
5.025774762374455
 40
5.182467653369338
 40
5.182467653369338
 40
5.33916054436422
 40
5.33916054436422
 40
5.495853435359105
 40
5.495853435359105
 40
5.495853435359105
 40
5.495853435359105
 10
136.786721610359
 20
234.6793606843778
 30
0.0
 10
136.636623508361
 20
234.7657964327091
 30
0.0
 10
136.4819104828614
 20
234.8413558216618
 30
0.0
 10
136.1632482673603
 20
234.9666532076333
 30
0.0
 10
135.9992339287956
 20
235.0164170941908
 30
0.0
 10
135.6626795293141
 20
235.0841259419725
 30
0.0
 10
135.4900107926904
 20
235.102024040045
 30
0.0
 10
135.1405263616137
 20
235.0979854289801
 30
0.0
 10
134.9636445821535
 20
235.0758335364922
 30
0.0
 10
134.6174314883107
 20
234.9853240434519
 30
0.0
 10
134.4483545397225
 20
234.9167612705082
 30
0.0
 10
134.2915605524379
 20
234.8264696182862
 30
0.0
  0
LINE
  5
1DB
330
6C
100
AcDbEntity
  8
Visible (ISO)
100
AcDbLine
 10
147.2933183272805
 20
228.6290140274029
 30
0.0
 11
136.786721610359
 21
234.6793606843778
 31
0.0
  0
SPLINE
  5
1DC
330
6C
100
AcDbEntity
  8
Visible (ISO)
100
AcDbSpline
210
0.0
220
0.0
230
1.0
 70
     8
 71
     3
 72
    16
 73
    12
 74
     0
 42
0.0000000001
 43
0.0000000001
 40
2.354260781769312
 40
2.354260781769312
 40
2.354260781769312
 40
2.354260781769312
 40
2.511727156133408
 40
2.511727156133408
 40
2.669193530497504
 40
2.669193530497504
 40
2.8266599048616
 40
2.8266599048616
 40
2.984126279225696
 40
2.984126279225696
 40
3.141592653589793
 40
3.141592653589793
 40
3.141592653589793
 40
3.141592653589793
 10
169.3965166173149
 20
174.0051172291867
 30
0.0
 10
169.5540845870104
 20
174.0958545882364
 30
0.0
 10
169.6988950259822
 20
174.2083369943519
 30
0.0
 10
169.9518460923343
 20
174.4639000842871
 30
0.0
 10
170.0600395137122
 20
174.6066508285096
 30
0.0
 10
170.2391135605054
 20
174.9087107626879
 30
0.0
 10
170.3102184184356
 20
175.0679703097597
 30
0.0
 10
170.4201819769591
 20
175.3949107438566
 30
0.0
 10
170.4591464367138
 20
175.5626819768103
 30
0.0
 10
170.50990474881
 20
175.9030562270444
 30
0.0
 10
170.5217081145375
 20
176.0757294354915
 30
0.0
 10
170.5217081145375
 20
176.2498638323907
 30
0.0
  0
LINE
  5
1DD
330
6C
100
AcDbEntity
  8
Visible (ISO)
100
AcDbLine
 10
170.5217081145375
 20
176.2498638323907
 30
0.0
 11
170.5217081145375
 21
188.3974462999026
 31
0.0
  0
LINE
  5
1DE
330
6C
100
AcDbEntity
  8
Visible (ISO)
100
AcDbLine
 10
170.5217081145375
 20
200.0743548579506
 30
0.0
 11
170.5217081145375
 21
212.2219373254625
 31
0.0
  0
SPLINE
  5
1DF
330
6C
100
AcDbEntity
  8
Visible (ISO)
100
AcDbSpline
210
0.0
220
0.0
230
1.0
 70
     8
 71
     3
 72
    16
 73
    12
 74
     0
 42
0.0000000001
 43
0.0000000001
 40
3.141592653589793
 40
3.141592653589793
 40
3.141592653589793
 40
3.141592653589793
 40
3.455751918948772
 40
3.455751918948772
 40
3.769911184307751
 40
3.769911184307751
 40
4.084070449666731
 40
4.084070449666731
 40
4.39822971502571
 40
4.39822971502571
 40
4.712388980384689
 40
4.712388980384689
 40
4.712388980384689
 40
4.712388980384689
 10
170.5217081145375
 20
212.2219373254625
 30
0.0
 10
170.5217081145375
 20
212.5693507616613
 30
0.0
 10
170.474976640166
 20
212.9228187956428
 30
0.0
 10
170.3047310159147
 20
213.6266545600612
 30
0.0
 10
170.1809180901958
 20
213.977000585605
 30
0.0
 10
169.8682253944315
 20
214.6546730510997
 30
0.0
 10
169.6793208802995
 20
214.9818715878937
 30
0.0
 10
169.2488501719848
 20
215.5913665270049
 30
0.0
 10
169.0074084837239
 20
215.8736220265061
 30
0.0
 10
168.4830783450981
 20
216.372537558344
 30
0.0
 10
168.2003571160603
 20
216.5894511079268
 30
0.0
 10
167.8994199825625
 20
216.7627492775125
 30
0.0
  0
LINE
  5
1E0
330
6C
100
AcDbEntity
  8
Visible (ISO)
100
AcDbLine
 10
167.8994199825625
 20
216.7627492775125
 30
0.0
 11
157.3928232656411
 21
222.8130959344874
 31
0.0
  0
SPLINE
  5
1E1
330
6C
100
AcDbEntity
  8
Visible (ISO)
100
AcDbSpline
210
0.0
220
0.0
230
1.0
 70
     8
 71
     3
 72
    16
 73
    12
 74
     0
 42
0.0000000001
 43
0.0000000001
 40
-1.429359257368982
 40
-1.429359257368982
 40
-1.429359257368982
 40
-1.429359257368982
 40
-1.143487405895185
 40
-1.143487405895185
 40
-0.8576155544213893
 40
-0.8576155544213893
 40
-0.571743702947593
 40
-0.571743702947593
 40
-0.2858718514737965
 40
-0.2858718514737965
 40
0.0
 40
0.0
 40
0.0
 40
0.0
 10
170.5217081145375
 20
188.3974462999026
 30
0.0
 10
170.5217081145375
 20
189.14540235087
 30
0.0
 10
170.5559070880468
 20
189.930467550075
 30
0.0
 10
170.6318127058573
 20
191.524516034999
 30
0.0
 10
170.6731892637195
 20
192.334440700456
 30
0.0
 10
170.7160302632342
 20
193.9470920111718
 30
0.0
 10
170.7160452755555
 20
194.7485409587923
 30
0.0
 10
170.6731148657701
 20
196.314803385863
 30
0.0
 10
170.6316429326284
 20
197.0788523355614
 30
0.0
 10
170.5558195375611
 20
198.5838298094172
 30
0.0
 10
170.5217081145375
 20
199.3263988069831
 30
0.0
 10
170.5217081145375
 20
200.0743548579506
 30
0.0
  0
SPLINE
  5
1E2
330
6C
100
AcDbEntity
  8
Visible (ISO)
100
AcDbSpline
210
0.0
220
0.0
230
1.0
 70
     8
 71
     3
 72
    16
 73
    12
 74
     0
 42
0.0000000001
 43
0.0000000001
 40
-1.429359257368982
 40
-1.429359257368982
 40
-1.429359257368982
 40
-1.429359257368982
 40
-1.143487405895185
 40
-1.143487405895185
 40
-0.8576155544213893
 40
-0.8576155544213893
 40
-0.571743702947593
 40
-0.571743702947593
 40
-0.2858718514737965
 40
-0.2858718514737965
 40
0.0
 40
0.0
 40
0.0
 40
0.0
 10
157.3928232656411
 20
222.8130959344874
 30
0.0
 10
156.7459584239976
 20
223.1856006225039
 30
0.0
 10
156.1212147503138
 20
223.5846265665049
 30
0.0
 10
154.8571131537479
 20
224.3999344073678
 30
0.0
 10
154.2169863323589
 20
224.8163289049817
 30
0.0
 10
152.8838113501261
 20
225.6334889090018
 30
0.0
 10
152.1905792951202
 20
226.0326716215802
 30
0.0
 10
150.7741918256306
 20
226.7989617430827
 30
0.0
 10
150.0529914243895
 20
227.1666222238112
 30
0.0
 10
148.6367460942087
 20
227.8947954567403
 30
0.0
 10
147.9401831689241
 20
228.2565093393864
 30
0.0
 10
147.2933183272805
 20
228.6290140274029
 30
0.0
  0
ELLIPSE
  5
1E3
330
6C
100
AcDbEntity
  8
Visible Narrow (ISO)
100
AcDbEllipse
 10
153.2582521472497
 20
205.230184851321
 30
0.0
 11
-12.47580528960585
 21
21.66458590363183
 31
0.0
210
0.0
220
0.0
230
1.0
 40
0.5780931159156396
 41
3.741774392635196
 42
4.144993205035079
  0
ELLIPSE
  5
1E4
330
6C
100
AcDbEntity
  8
Visible Narrow (ISO)
100
AcDbEllipse
 10
153.2582521472497
 20
205.2301848513209
 30
0.0
 11
-12.47580528960466
 21
21.66458590363274
 31
0.0
210
0.0
220
0.0
230
1.0
 40
0.5780931159156394
 41
5.284642291572683
 42
5.685453226775496
  0
LINE
  5
1E5
330
6C
100
AcDbEntity
  8
Visible Narrow (ISO)
100
AcDbLine
 10
170.2288148957239
 20
175.8426681185983
 30
0.0
 11
164.4305392899934
 21
172.5036632655017
 31
0.0
  0
LINE
  5
1E6
330
6C
100
AcDbEntity
  8
Visible Narrow (ISO)
100
AcDbLine
 10
170.2288148957239
 20
211.8147416116701
 30
0.0
 11
164.4305392899934
 21
208.4757367585735
 31
0.0
  0
LINE
  5
1E7
330
6C
100
AcDbEntity
  8
Visible Narrow (ISO)
100
AcDbLine
 10
136.2876893987746
 20
234.6303243730752
 30
0.0
 11
130.4894137930441
 21
231.2913195199786
 31
0.0
  0
LINE
  5
1E8
330
6C
100
AcDbEntity
  8
Visible Narrow (ISO)
100
AcDbLine
 10
167.4003877709782
 20
216.7137129662099
 30
0.0
 11
161.6021121652476
 21
213.3747081131132
 31
0.0
  0
LINE
  5
1E9
330
6C
100
AcDbEntity
  8
Visible (ISO)
100
AcDbLine
 10
169.3965166173149
 20
174.0051172291867
 30
0.0
 11
163.5982410115843
 21
170.66611237609
 31
0.0
  0
LINE
  5
1EA
330
6C
100
AcDbEntity
  8
Visible (ISO)
100
AcDbLine
 10
134.2915605524379
 20
234.8264696182862
 30
0.0
 11
128.4932849467074
 21
231.4874647651896
 31
0.0
  0
ELLIPSE
  5
1EB
330
6C
100
AcDbEntity
  8
Visible (ISO)
100
AcDbEllipse
 10
161.6021121652476
 20
174.1324461206712
 30
0.0
 11
1.996128846336719
 21
-3.466333744581194
 31
0.0
210
0.0
220
0.0
230
1.0
 40
0.5780931159156394
 41
6.177125067769363
 42
7.070517179000067
  0
LINE
  5
1EC
330
6C
100
AcDbEntity
  8
Visible (ISO)
100
AcDbLine
 10
164.4305392899934
 20
172.5036632655017
 30
0.0
 11
164.4305392899934
 21
208.4757367585735
 31
0.0
  0
ELLIPSE
  5
1ED
330
6C
100
AcDbEntity
  8
Visible (ISO)
100
AcDbEllipse
 10
164.0062752212868
 20
211.4195597009636
 30
0.0
 11
-12.47580528960456
 21
21.66458590363257
 31
0.0
210
0.0
220
0.0
230
1.0
 40
0.5780931159156396
 41
3.141592653589793
 42
6.283185307179586
  0
LINE
  5
1EE
330
6C
100
AcDbEntity
  8
Visible Narrow (ISO)
100
AcDbLine
 10
164.4305392899934
 20
208.4757367585735
 30
0.0
 11
164.0062752212815
 21
208.4757367585735
 31
0.0
  0
LINE
  5
1EF
330
6C
100
AcDbEntity
  8
Visible Narrow (ISO)
100
AcDbLine
 10
164.0062752212815
 20
172.5036632655017
 30
0.0
 11
164.4305392899934
 21
172.5036632655017
 31
0.0
  0
LINE
  5
1F0
330
6C
100
AcDbEntity
  8
Visible Narrow (ISO)
100
AcDbLine
 10
130.277691960701
 20
230.9246071579366
 30
0.0
 11
130.4894137930441
 21
231.2913195199786
 31
0.0
  0
ELLIPSE
  5
1F1
330
6C
100
AcDbEntity
  8
Visible (ISO)
100
AcDbEllipse
 10
130.4894137930441
 20
228.0211310206084
 30
0.0
 11
-1.996128846336729
 21
3.466333744581211
 31
0.0
210
0.0
220
0.0
230
1.0
 40
0.5780931159156396
 41
5.499720852205171
 42
6.389245546589803
  0
LINE
  5
1F2
330
6C
100
AcDbEntity
  8
Visible Narrow (ISO)
100
AcDbLine
 10
161.3899899138405
 20
213.0073022060592
 30
0.0
 11
161.6021121652476
 21
213.3747081131132
 31
0.0
  0
LINE
  5
1F3
330
6C
100
AcDbEntity
  8
Visible (ISO)
100
AcDbLine
 10
161.6021121652476
 20
213.3747081131132
 30
0.0
 11
130.4894137930441
 21
231.2913195199786
 31
0.0
  0
ELLIPSE
  5
1F4
330
6C
100
AcDbEntity
  8
Visible (ISO)
100
AcDbEllipse
 10
161.6021121652476
 20
210.104519613743
 30
0.0
 11
-1.996128846336938
 21
3.466333744581094
 31
0.0
210
0.0
220
0.0
230
1.0
 40
0.5780931159156396
 41
3.928924525410039
 42
5.499720852204923
  0
ELLIPSE
  5
1F5
330
6C
100
AcDbEntity
  8
Visible (ISO)
100
AcDbEllipse
 10
161.3899801308916
 20
209.9823608996053
 30
0.0
 11
1.846419182861283
 21
-3.20635871373773
 31
0.0
210
0.0
220
0.0
230
0.9999999999999998
 40
0.5780931159156394
 41
0.7873318718207143
 42
2.354260781769854
  0
ELLIPSE
  5
1F6
330
6C
100
AcDbEntity
  8
Visible (ISO)
100
AcDbEllipse
 10
164.2184072556428
 20
211.5417184151013
 30
0.0
 11
-12.32609562613058
 21
21.40461087278824
 31
0.0
210
0.0
220
0.0
230
1.0
 40
0.5780931159156394
 41
3.92892452540973
 42
5.495853435359167
  0
LINE
  5
1F7
330
6C
100
AcDbEntity
  8
Visible (ISO)
100
AcDbLine
 10
181.683944750948
 20
201.483984284423
 30
0.0
 11
181.6839447509479
 21
201.2396668561475
 31
0.0
  0
LINE
  5
1F8
330
6C
100
AcDbEntity
  8
Visible (ISO)
100
AcDbLine
 10
164.2859536011914
 20
231.6960840298886
 30
0.0
 11
164.0746419677934
 21
231.8187151815176
 31
0.0
  0
LINE
  5
1F9
330
6C
100
AcDbEntity
  8
Visible (ISO)
100
AcDbLine
 10
176.4820805108914
 20
189.754973797331
 30
0.0
 11
170.5217081145375
 21
186.3226236106618
 31
0.0
  0
LINE
  5
1FA
330
6C
100
AcDbEntity
  8
Visible (ISO)
100
AcDbLine
 10
151.5304699316823
 20
233.0841456045962
 30
0.0
 11
145.5436636415265
 21
229.6365731508785
 31
0.0
  0
ELLIPSE
  5
1FB
330
6C
100
AcDbEntity
  8
Visible (ISO)
100
AcDbEllipse
 10
137.5511453660653
 20
230.8037081297815
 30
0.0
 11
-2.12088689923279
 21
3.682979603617563
 31
0.0
210
0.0
220
0.0
230
1.0
 40
0.5780931159156393
 41
5.349510390077457
 42
5.649931314332881
  0
LINE
  5
1FC
330
6C
100
AcDbEntity
  8
Visible (ISO)
100
AcDbLine
 10
138.6122389821724
 20
236.3190684454643
 30
0.0
 11
136.2208885574583
 21
234.9419813222368
 31
0.0
  0
ELLIPSE
  5
1FD
330
6C
100
AcDbEntity
  8
Visible Narrow (ISO)
100
AcDbEllipse
 10
140.7331258814052
 20
232.6360888418467
 30
0.0
 11
-2.120886899232778
 21
3.682979603617537
 31
0.0
210
0.0
220
0.0
230
1.0
 40
0.5780931159156396
 41
3.862879611505618
 42
6.283185307179573
  0
SPLINE
  5
1FE
330
6C
100
AcDbEntity
  8
Visible (ISO)
100
AcDbSpline
210
0.0
220
0.0
230
1.0
 70
     8
 71
     3
 72
    22
 73
    18
 74
     0
 42
0.0000000001
 43
0.0000000001
 40
4.566229289291056
 40
4.566229289291056
 40
4.566229289291056
 40
4.566229289291056
 40
4.802546288712032
 40
4.802546288712032
 40
5.142694208174126
 40
5.142694208174126
 40
5.480221552450054
 40
5.480221552450054
 40
5.816024212501504
 40
5.816024212501504
 40
6.153261118577677
 40
6.153261118577677
 40
6.493366287016447
 40
6.493366287016447
 40
6.823246433215266
 40
6.823246433215266
 40
7.066649762154001
 40
7.066649762154001
 40
7.066649762154001
 40
7.066649762154001
 10
143.8518498278548
 20
230.6108239313703
 30
0.0
 10
143.8876851552845
 20
230.8716391848248
 30
0.0
 10
143.893752776745
 20
231.1461077929374
 30
0.0
 10
143.8421853672177
 20
231.8353163011741
 30
0.0
 10
143.7551918896628
 20
232.2589076107312
 30
0.0
 10
143.483513195837
 20
233.0997091765436
 30
0.0
 10
143.2994919930176
 20
233.5167676738969
 30
0.0
 10
142.8542471236054
 20
234.306363451869
 30
0.0
 10
142.5935120975598
 20
234.6789524337301
 30
0.0
 10
142.017013624127
 20
235.3471381344798
 30
0.0
 10
141.701209944235
 20
235.6423686819644
 30
0.0
 10
141.0373106429886
 20
236.1249764955706
 30
0.0
 10
140.6889620425319
 20
236.3118145595658
 30
0.0
 10
139.9941308576638
 20
236.5405603373089
 30
0.0
 10
139.6461728741577
 20
236.5865711446739
 30
0.0
 10
139.0644453879724
 20
236.5183422784517
 30
0.0
 10
138.8254717462716
 20
236.4418610277041
 30
0.0
 10
138.6122389821724
 20
236.3190684454643
 30
0.0
  0
ELLIPSE
  5
1FF
330
6C
100
AcDbEntity
  8
Visible (ISO)
100
AcDbEllipse
 10
167.5511453660608
 20
178.842270145276
 30
0.0
 11
-2.120886899232992
 21
3.682979603617406
 31
0.0
210
0.0
220
0.0
230
0.9999999999999998
 40
0.5780931159156394
 41
3.776942666500787
 42
4.080906384319208
  0
LINE
  5
200
330
6C
100
AcDbEntity
  8
Visible (ISO)
100
AcDbLine
 10
172.8540127806335
 20
176.9916712537237
 30
0.0
 11
170.4648181453984
 21
175.6158255670926
 31
0.0
  0
ELLIPSE
  5
201
330
6C
100
AcDbEntity
  8
Visible Narrow (ISO)
100
AcDbEllipse
 10
170.7331258814008
 20
180.6746508573413
 30
0.0
 11
2.120886899232556
 21
-3.682979603617665
 31
0.0
210
0.0
220
0.0
230
0.9999999999999998
 40
0.5780931159156394
 41
0.0
 42
2.428536916487241
  0
SPLINE
  5
202
330
6C
100
AcDbEntity
  8
Visible (ISO)
100
AcDbSpline
210
0.0
220
0.0
230
1.0
 70
     8
 71
     3
 72
    22
 73
    18
 74
     0
 42
0.0000000001
 43
0.0000000001
 40
0.7834644549744152
 40
0.7834644549744152
 40
0.7834644549744152
 40
0.7834644549744152
 40
1.046252243718922
 40
1.046252243718922
 40
1.333179178103496
 40
1.333179178103496
 40
1.660953635122239
 40
1.660953635122239
 40
2.001101554584332
 40
2.001101554584332
 40
2.338628898860261
 40
2.338628898860261
 40
2.67443155891171
 40
2.67443155891171
 40
3.011668464987883
 40
3.011668464987883
 40
3.292013984953324
 40
3.292013984953324
 40
3.292013984953324
 40
3.292013984953324
 10
172.8540127806335
 20
176.9916712537237
 30
0.0
 10
173.0842272432286
 20
177.1242429457451
 30
0.0
 10
173.2825572447424
 20
177.309894553571
 30
0.0
 10
173.6062458532619
 20
177.7702920536784
 30
0.0
 10
173.7245463360822
 20
178.0503286308277
 30
0.0
 10
173.8790393149187
 20
178.6988851590525
 30
0.0
 10
173.9019340623935
 20
179.075325326481
 30
0.0
 10
173.8421853672133
 20
179.8738783166686
 30
0.0
 10
173.7551918896584
 20
180.2974696262257
 30
0.0
 10
173.4835131958325
 20
181.1382711920381
 30
0.0
 10
173.2994919930132
 20
181.5553296893914
 30
0.0
 10
172.8542471236009
 20
182.3449254673635
 30
0.0
 10
172.5935120975553
 20
182.7175144492246
 30
0.0
 10
172.0170136241225
 20
183.3857001499743
 30
0.0
 10
171.7012099442305
 20
183.6809306974589
 30
0.0
 10
171.0958842800826
 20
184.1209596216432
 30
0.0
 10
170.8109073738292
 20
184.2829380918826
 30
0.0
 10
170.5217081145375
 20
184.3987979512124
 30
0.0
  0
ELLIPSE
  5
203
330
6C
100
AcDbEntity
  8
Visible (ISO)
100
AcDbEllipse
 10
167.5511453660608
 20
213.5278571002196
 30
0.0
 11
-2.120886899232757
 21
3.682979603617506
 31
0.0
210
0.0
220
0.0
230
1.0
 40
0.5780931159156396
 41
5.344275527740442
 42
5.649931314332846
  0
ELLIPSE
  5
204
330
6C
100
AcDbEntity
  8
Visible (ISO)
100
AcDbEllipse
 10
167.5511453660608
 20
213.5278571002195
 30
0.0
 11
-2.120886899232995
 21
3.682979603617412
 31
0.0
210
0.0
220
0.0
230
1.0
 40
0.5780931159156394
 41
3.776942666500755
 42
4.086494379003274
  0
LINE
  5
205
330
6C
100
AcDbEntity
  8
Visible (ISO)
100
AcDbLine
 10
172.8540127806336
 20
211.6772582086672
 30
0.0
 11
170.5217081145375
 21
210.3341732764335
 31
0.0
  0
LINE
  5
206
330
6C
100
AcDbEntity
  8
Visible (ISO)
100
AcDbLine
 10
168.612238982168
 20
219.0432174159023
 30
0.0
 11
166.2757810310722
 21
217.697740765904
 31
0.0
  0
ELLIPSE
  5
207
330
6C
100
AcDbEntity
  8
Visible Narrow (ISO)
100
AcDbEllipse
 10
170.7331258814008
 20
215.3602378122848
 30
0.0
 11
-2.120886899232774
 21
3.682979603617539
 31
0.0
210
0.0
220
0.0
230
1.0
 40
0.5780931159156397
 41
3.141592653589792
 42
6.283185307179585
  0
SPLINE
  5
208
330
6C
100
AcDbEntity
  8
Visible (ISO)
100
AcDbSpline
210
0.0
220
0.0
230
1.0
 70
     8
 71
     3
 72
    26
 73
    22
 74
     0
 42
0.0000000001
 43
0.0000000001
 40
5.495853435359104
 40
5.495853435359104
 40
5.495853435359104
 40
5.495853435359104
 40
5.758641224103612
 40
5.758641224103612
 40
6.045568158488185
 40
6.045568158488185
 40
6.373342615506929
 40
6.373342615506929
 40
6.713490534969023
 40
6.713490534969023
 40
7.051017879244951
 40
7.051017879244951
 40
7.3868205392964
 40
7.3868205392964
 40
7.724057445372573
 40
7.724057445372573
 40
8.064162613811344
 40
8.064162613811344
 40
8.394042760010163
 40
8.394042760010163
 40
8.637446088948898
 40
8.637446088948898
 40
8.637446088948898
 40
8.637446088948898
 10
172.8540127806336
 20
211.6772582086672
 30
0.0
 10
173.0842272432286
 20
211.8098299006886
 30
0.0
 10
173.2825572447424
 20
211.9954815085146
 30
0.0
 10
173.6062458532619
 20
212.455879008622
 30
0.0
 10
173.7245463360823
 20
212.7359155857713
 30
0.0
 10
173.8790393149187
 20
213.3844721139961
 30
0.0
 10
173.9019340623935
 20
213.7609122814246
 30
0.0
 10
173.8421853672133
 20
214.5594652716122
 30
0.0
 10
173.7551918896584
 20
214.9830565811692
 30
0.0
 10
173.4835131958326
 20
215.8238581469817
 30
0.0
 10
173.2994919930132
 20
216.240916644335
 30
0.0
 10
172.854247123601
 20
217.030512422307
 30
0.0
 10
172.5935120975554
 20
217.4031014041682
 30
0.0
 10
172.0170136241226
 20
218.0712871049178
 30
0.0
 10
171.7012099442306
 20
218.3665176524025
 30
0.0
 10
171.0373106429841
 20
218.8491254660086
 30
0.0
 10
170.6889620425275
 20
219.0359635300038
 30
0.0
 10
169.9941308576594
 20
219.264709307747
 30
0.0
 10
169.6461728741533
 20
219.310720115112
 30
0.0
 10
169.064445387968
 20
219.2424912488897
 30
0.0
 10
168.8254717462671
 20
219.1660099981422
 30
0.0
 10
168.612238982168
 20
219.0432174159023
 30
0.0
  0
ELLIPSE
  5
209
330
6C
100
AcDbEntity
  8
Visible (ISO)
100
AcDbEllipse
 10
183.3051352392877
 20
197.2498840197038
 30
0.0
 11
0.8733063702723187
 21
-1.516521013254278
 31
0.0
210
0.0
220
0.0
230
1.0
 40
0.5780931159156397
 41
4.859736262823311
 42
7.660879499427108
  0
ELLIPSE
  5
20A
330
6C
100
AcDbEntity
  8
Visible (ISO)
100
AcDbEllipse
 10
161.3951352392909
 20
235.199054227721
 30
0.0
 11
-0.8733063702723189
 21
1.516521013254279
 31
0.0
210
0.0
220
0.0
230
1.0
 40
0.5780931159156397
 41
4.938243287965974
 42
7.673375569681713
  0
LINE
  5
20B
330
6C
100
AcDbEntity
  8
Visible (ISO)
100
AcDbLine
 10
182.8153156008463
 20
196.5802793840028
 30
0.0
 11
190.7349115501368
 21
201.1408713784762
 31
0.0
  0
LINE
  5
20C
330
6C
100
AcDbEntity
  8
Visible (ISO)
100
AcDbLine
 10
182.3910515321344
 20
196.491010538437
 30
0.0
 11
182.8153156008463
 21
196.5802793840028
 31
0.0
  0
LINE
  5
20D
330
6C
100
AcDbEntity
  8
Visible (ISO)
100
AcDbLine
 10
181.1786797389532
 20
196.6789819075851
 30
0.0
 11
182.3910515321344
 21
196.491010538437
 31
0.0
  0
LINE
  5
20E
330
6C
100
AcDbEntity
  8
Visible (ISO)
100
AcDbLine
 10
187.2875044855767
 20
186.366385015391
 30
0.0
 11
178.533222189354
 21
191.407640909401
 31
0.0
  0
ELLIPSE
  5
20F
330
6C
100
AcDbEntity
  8
Visible (ISO)
100
AcDbEllipse
 10
172.3501352392894
 20
216.2244691237123
 30
0.0
 11
16.71757908807004
 21
-29.03054511086752
 31
0.0
210
0.0
220
0.0
230
1.0
 40
0.5780931159156396
 41
6.182028839112131
 42
6.388209192093102
  0
LINE
  5
210
330
6C
100
AcDbEntity
  8
Visible (ISO)
100
AcDbLine
 10
190.7349115501368
 20
201.1408713784762
 30
0.0
 11
190.7349115501368
 21
188.3669999027675
 31
0.0
  0
LINE
  5
211
330
6C
100
AcDbEntity
  8
Visible (ISO)
100
AcDbLine
 10
157.4127659930019
 20
246.0825532320338
 30
0.0
 11
168.4610479427639
 21
239.7202707954766
 31
0.0
  0
ELLIPSE
  5
212
330
6C
100
AcDbEntity
  8
Visible (ISO)
100
AcDbEllipse
 10
172.3501352392897
 20
216.2244691237118
 30
0.0
 11
-16.71757908807046
 21
29.03054511086827
 31
0.0
210
0.0
220
0.0
230
1.0
 40
0.5780931159156394
 41
6.182028839112136
 42
6.388209192093099
  0
LINE
  5
213
330
6C
100
AcDbEntity
  8
Visible (ISO)
100
AcDbLine
 10
153.9653589284418
 20
234.023354527783
 30
0.0
 11
153.9653589284418
 21
244.0819383446573
 31
0.0
  0
LINE
  5
214
330
6C
100
AcDbEntity
  8
Visible (ISO)
100
AcDbLine
 10
160.2521102128775
 20
234.8367180852151
 30
0.0
 11
159.8112500043253
 21
233.6901580116948
 31
0.0
  0
LINE
  5
215
330
6C
100
AcDbEntity
  8
Visible (ISO)
100
AcDbLine
 10
160.5414519934734
 20
235.1596788010032
 30
0.0
 11
160.2521102128775
 21
234.8367180852151
 31
0.0
  0
LINE
  5
216
330
6C
100
AcDbEntity
  8
Visible (ISO)
100
AcDbLine
 10
168.4610479427639
 20
239.7202707954766
 30
0.0
 11
160.5414519934734
 21
235.1596788010032
 31
0.0
  0
LINE
  5
217
330
6C
100
AcDbEntity
  8
Visible (ISO)
100
AcDbLine
 10
160.0290610833925
 20
247.5891773730652
 30
0.0
 11
157.4127659930019
 21
246.0825532320338
 31
0.0
  0
LINE
  5
218
330
6C
100
AcDbEntity
  8
Visible (ISO)
100
AcDbLine
 10
189.9037995759674
 20
230.3854596482346
 30
0.0
 11
179.3679085362863
 21
224.3182435127297
 31
0.0
  0
LINE
  5
219
330
6C
100
AcDbEntity
  8
Visible (ISO)
100
AcDbLine
 10
193.3512066405275
 20
189.8736240437989
 30
0.0
 11
190.7349115501368
 21
188.3669999027675
 31
0.0
  0
LINE
  5
21A
330
6C
100
AcDbEntity
  8
Visible (ISO)
100
AcDbLine
 10
193.3512066405275
 20
224.4143853684843
 30
0.0
 11
182.8153156008463
 21
218.3471692329793
 31
0.0
  0
LINE
  5
21B
330
6C
100
AcDbEntity
  8
Visible (ISO)
100
AcDbLine
 10
158.2488512416098
 20
246.7616383756115
 30
0.0
 11
155.6325561512192
 21
245.2550142345801
 31
0.0
  0
LINE
  5
21C
330
6C
100
AcDbEntity
  8
Visible (ISO)
100
AcDbLine
 10
191.68400941775
 20
188.7005481538762
 30
0.0
 11
189.0677143273594
 21
187.1939240128448
 31
0.0
  0
ELLIPSE
  5
21D
330
6C
100
AcDbEntity
  8
Visible (ISO)
100
AcDbEllipse
 10
174.9664303296794
 20
217.7310932647448
 30
0.0
 11
-16.71757908806962
 21
29.03054511086669
 31
0.0
210
0.0
220
0.0
230
0.9999999999999998
 40
0.5780931159156396
 41
6.18202883911212
 42
6.283185307179573
  0
LINE
  5
21E
330
6C
100
AcDbEntity
  8
Visible (ISO)
100
AcDbLine
 10
179.3679085362863
 20
224.3182435127297
 30
0.0
 11
160.5414519934734
 21
235.1596788010032
 31
0.0
  0
LINE
  5
21F
330
6C
100
AcDbEntity
  8
Visible (ISO)
100
AcDbLine
 10
160.0290610833925
 20
247.5891773730652
 30
0.0
 11
189.9037995759674
 21
230.3854596482346
 31
0.0
  0
LINE
  5
220
330
6C
100
AcDbEntity
  8
Visible (ISO)
100
AcDbLine
 10
160.2521102128775
 20
234.8367180852151
 30
0.0
 11
179.0802712033425
 21
223.9943012708174
 31
0.0
  0
SPLINE
  5
221
330
6C
100
AcDbEntity
  8
Visible (ISO)
100
AcDbSpline
210
0.0
220
0.0
230
1.0
 70
     8
 71
     3
 72
     8
 73
     4
 74
     0
 42
0.0000000001
 43
0.0000000001
 40
-0.0437492227970593
 40
-0.0437492227970593
 40
-0.0437492227970593
 40
-0.0437492227970593
 40
0.0
 40
0.0
 40
0.0
 40
0.0
 10
179.0802712033425
 20
223.9943012708174
 30
0.0
 10
179.1761990510434
 20
224.1022281031591
 30
0.0
 10
179.2720792884091
 20
224.2102106363104
 30
0.0
 10
179.3679085362863
 20
224.3182435127297
 30
0.0
  0
LINE
  5
222
330
6C
100
AcDbEntity
  8
Visible (ISO)
100
AcDbLine
 10
182.3910515321344
 20
218.2598710463218
 30
0.0
 11
182.3910515321344
 21
196.491010538437
 31
0.0
  0
ELLIPSE
  5
223
330
6C
100
AcDbEntity
  8
Visible (ISO)
100
AcDbEllipse
 10
164.218407255643
 20
211.5417184151014
 30
0.0
 11
16.56786942459464
 21
-28.77057008002367
 31
0.0
210
0.0
220
0.0
230
1.0
 40
0.5780931159156394
 41
1.47284171009166
 42
1.672618360344197
  0
LINE
  5
224
330
6C
100
AcDbEntity
  8
Visible (ISO)
100
AcDbLine
 10
193.3512066405275
 20
224.4143853684843
 30
0.0
 11
193.3512066405275
 21
189.8736240437989
 31
0.0
  0
LINE
  5
225
330
6C
100
AcDbEntity
  8
Visible (ISO)
100
AcDbLine
 10
182.8153156008463
 20
196.5802793840028
 30
0.0
 11
182.8153156008463
 21
218.3471692329793
 31
0.0
  0
ELLIPSE
  5
226
330
6C
100
AcDbEntity
  8
Visible (ISO)
100
AcDbEllipse
 10
174.9664303296813
 20
217.7310932647416
 30
0.0
 11
16.7175790880688
 21
-29.03054511086537
 31
0.0
210
0.0
220
0.0
230
1.0
 40
0.5780931159156396
 41
0.0
 42
0.1050238849135194
  0
ELLIPSE
  5
227
330
6C
100
AcDbEntity
  8
Visible (ISO)
100
AcDbEllipse
 10
175.1785623640362
 20
217.8532519788817
 30
0.0
 11
-16.56786942459461
 21
28.77057008002366
 31
0.0
210
0.0
220
0.0
230
1.0
 40
0.5780931159156394
 41
4.614434363681453
 42
4.81421101393399
  0
SPLINE
  5
228
330
6C
100
AcDbEntity
  8
Visible (ISO)
100
AcDbSpline
210
0.0
220
0.0
230
1.0
 70
     8
 71
     3
 72
     8
 73
     4
 74
     0
 42
0.0000000001
 43
0.0000000001
 40
-0.0437492227974344
 40
-0.0437492227974344
 40
-0.0437492227974344
 40
-0.0437492227974344
 40
0.0
 40
0.0
 40
0.0
 40
0.0
 10
182.3910515321344
 20
218.2598710463218
 30
0.0
 10
182.5324504877089
 20
218.289039740267
 30
0.0
 10
182.6738739536372
 20
218.3181392185315
 30
0.0
 10
182.8153156008463
 20
218.3471692329793
 30
0.0
  0
ELLIPSE
  5
229
330
6C
100
AcDbEntity
  8
Visible (ISO)
100
AcDbEllipse
 10
164.4305392899988
 20
211.6638771292389
 30
0.0
 11
-16.71757908807012
 21
29.03054511086766
 31
0.0
210
0.0
220
0.0
230
1.0
 40
0.5780931159156397
 41
4.611232512317238
 42
4.817412865298205
  0
SPLINE
  5
22A
330
6C
100
AcDbEntity
  8
Visible (ISO)
100
AcDbSpline
210
0.0
220
0.0
230
1.0
 70
    24
 71
     3
 72
     8
 73
     4
 74
     0
 42
0.0000000001
 43
0.0000000001
 40
-0.0437492227974404
 40
-0.0437492227974404
 40
-0.0437492227974404
 40
-0.0437492227974404
 40
0.0
 40
0.0
 40
0.0
 40
0.0
 10
193.3512066405275
 20
224.5714046101021
 30
0.0
 10
193.3512066405275
 20
224.5191470609727
 30
0.0
 10
193.3512066405275
 20
224.4668061815884
 30
0.0
 10
193.3512066405275
 20
224.4143853684843
 30
0.0
  0
SPLINE
  5
22B
330
6C
100
AcDbEntity
  8
Visible (ISO)
100
AcDbSpline
210
0.0
220
0.0
230
1.0
 70
     8
 71
     3
 72
     8
 73
     4
 74
     0
 42
0.0000000001
 43
0.0000000001
 40
-0.0437492227972456
 40
-0.0437492227972456
 40
-0.0437492227972456
 40
-0.0437492227972456
 40
0.0
 40
0.0
 40
0.0
 40
0.0
 10
190.0404263117356
 20
230.3058348345977
 30
0.0
 10
189.9949552038615
 20
230.3323354238643
 30
0.0
 10
189.9494119752984
 20
230.3588775993664
 30
0.0
 10
189.9037995759674
 20
230.3854596482346
 30
0.0
  0
ELLIPSE
  5
22C
330
6C
100
AcDbEntity
  8
Visible (ISO)
100
AcDbEllipse
 10
174.9664303296799
 20
217.7310932647438
 30
0.0
 11
16.71757908807012
 21
-29.03054511086767
 31
0.0
210
0.0
220
0.0
230
1.0
 40
0.5780931159156396
 41
1.469639858727445
 42
1.675820211708413
  0
ELLIPSE
  5
22D
330
6C
100
AcDbEntity
  8
Visible (ISO)
100
AcDbEllipse
 10
174.4714555828475
 20
232.5975015013681
 30
0.0
 11
-3.863999999999998
 21
0.0000000000002306
 31
0.0
210
0.0
220
0.0
230
1.0
 40
0.5758617009853118
 41
0.0
 42
6.283185307179586
  0
ELLIPSE
  5
22E
330
6C
100
AcDbEntity
  8
Visible (ISO)
100
AcDbEllipse
 10
174.4714555828475
 20
231.7803532773178
 30
0.0
 11
-4.832765247622278
 21
0.0000000000000017
 31
0.0
210
0.0
220
0.0
230
1.0
 40
0.5758617009853118
 41
5.531721013547659
 42
10.1762422544013
  0
LINE
  5
22F
330
6C
100
AcDbEntity
  8
Visible (ISO)
100
AcDbLine
 10
177.2948416095688
 20
234.1166184847121
 30
0.0
 11
178.0027086549389
 21
233.68033665314
 31
0.0
  0
LINE
  5
230
330
6C
100
AcDbEntity
  8
Visible (ISO)
100
AcDbLine
 10
171.6480695561262
 20
234.1166184847121
 30
0.0
 11
170.9402025107561
 21
233.68033665314
 31
0.0
  0
LINE
  5
231
330
6C
100
AcDbEntity
  8
Visible (ISO)
100
AcDbLine
 10
171.6830679037214
 20
232.1672486043147
 30
0.0
 11
172.4302141305285
 21
233.7729742762227
 31
0.0
  0
LINE
  5
232
330
6C
100
AcDbEntity
  8
Visible (ISO)
100
AcDbLine
 10
172.4302141305285
 20
233.7729742762227
 30
0.0
 11
175.2186018096546
 21
234.2032271732761
 31
0.0
  0
LINE
  5
233
330
6C
100
AcDbEntity
  8
Visible (ISO)
100
AcDbLine
 10
175.2186018096546
 20
234.2032271732761
 30
0.0
 11
177.2598432619736
 21
233.0277543984216
 31
0.0
  0
LINE
  5
234
330
6C
100
AcDbEntity
  8
Visible (ISO)
100
AcDbLine
 10
177.2598432619736
 20
233.0277543984216
 30
0.0
 11
176.5126970351665
 21
231.4220287265136
 31
0.0
  0
LINE
  5
235
330
6C
100
AcDbEntity
  8
Visible (ISO)
100
AcDbLine
 10
176.5126970351665
 20
231.4220287265136
 30
0.0
 11
173.7243093560404
 21
230.9917758294602
 31
0.0
  0
LINE
  5
236
330
6C
100
AcDbEntity
  8
Visible (ISO)
100
AcDbLine
 10
173.7243093560404
 20
230.9917758294602
 30
0.0
 11
171.6830679037214
 21
232.1672486043147
 31
0.0
  0
LINE
  5
237
330
6C
100
AcDbEntity
  8
Visible (ISO)
100
AcDbLine
 10
172.4302141305285
 20
231.7369957072607
 30
0.0
 11
172.4302141305285
 21
233.7729742762227
 31
0.0
  0
SPLINE
  5
238
330
6C
100
AcDbEntity
  8
Visible (ISO)
100
AcDbSpline
210
0.0
220
0.0
230
1.0
 70
    12
 71
     2
 72
     6
 73
     3
 74
     0
 42
0.0000000001
 43
0.0000000001
 40
0.0
 40
0.0
 40
0.0
 40
0.0581035144460564
 40
0.0581035144460564
 40
0.0581035144460564
 10
175.2186018096546
 20
231.3418122363272
 30
0.0
 41
1.0
 10
174.9079402479458
 20
231.2179724172356
 30
0.0
 41
1.0307715404329
 10
174.6245160528025
 20
231.1306792330753
 30
0.0
 41
1.049301524236019
  0
LINE
  5
239
330
6C
100
AcDbEntity
  8
Visible (ISO)
100
AcDbLine
 10
175.2186018096546
 20
231.3418122363272
 30
0.0
 11
175.2186018096546
 21
234.2032271732761
 31
0.0
  0
SPLINE
  5
23A
330
6C
100
AcDbEntity
  8
Visible (ISO)
100
AcDbSpline
210
0.0
220
0.0
230
1.0
 70
    12
 71
     2
 72
     6
 73
     3
 74
     0
 42
0.0000000001
 43
0.0000000001
 40
0.2777031406804476
 40
0.2777031406804476
 40
0.2777031406804476
 40
0.2921090345194801
 40
0.2921090345194801
 40
0.2921090345194801
 10
175.3324235654857
 20
231.2399105499606
 30
0.0
 41
1.014506172702379
 10
175.2762821968707
 20
231.2893447765693
 30
0.0
 41
1.007629341339608
 10
175.2186018096546
 20
231.3418122363272
 30
0.0
 41
1.0
  0
LINE
  5
23B
330
6C
100
AcDbEntity
  8
Visible (ISO)
100
AcDbLine
 10
169.6398765043818
 20
231.7186956524198
 30
0.0
 11
169.6398612604538
 21
231.7190943599368
 31
0.0
  0
LINE
  5
23C
330
6C
100
AcDbEntity
  8
Visible (ISO)
100
AcDbLine
 10
179.3030346613133
 20
231.7186956524198
 30
0.0
 11
179.3030499052412
 21
231.7190943599368
 31
0.0
  0
CIRCLE
  5
23D
330
6C
100
AcDbEntity
  8
Visible Narrow (ISO)
100
AcDbCircle
 10
139.9999999999918
 20
98.50494011906405
 30
0.0
 40
13.79289321881345
  0
CIRCLE
  5
23E
330
6C
100
AcDbEntity
  8
Visible Narrow (ISO)
100
AcDbCircle
 10
139.9999999999918
 20
98.50494011906405
 30
0.0
 40
14.14644660940673
  0
CIRCLE
  5
23F
330
6C
100
AcDbEntity
  8
Visible Narrow (ISO)
100
AcDbCircle
 10
139.999999999992
 20
98.50494011906405
 30
0.0
 40
14.85355339059327
  0
CIRCLE
  5
240
330
6C
100
AcDbEntity
  8
Visible Narrow (ISO)
100
AcDbCircle
 10
139.999999999992
 20
98.50494011906405
 30
0.0
 40
15.20710678118654
  0
CIRCLE
  5
241
330
6C
100
AcDbEntity
  8
Visible (ISO)
100
AcDbCircle
 10
139.9999999999918
 20
98.50494011906405
 30
0.0
 40
12.57735026918963
  0
CIRCLE
  5
242
330
6C
100
AcDbEntity
  8
Visible (ISO)
100
AcDbCircle
 10
139.999999999992
 20
98.50494011906405
 30
0.0
 40
12.0
  0
CIRCLE
  5
243
330
6C
100
AcDbEntity
  8
Visible Narrow (ISO)
100
AcDbCircle
 10
139.999999999992
 20
98.50494011906405
 30
0.0
 40
20.5
  0
CIRCLE
  5
244
330
6C
100
AcDbEntity
  8
Visible (ISO)
100
AcDbCircle
 10
139.9999999999926
 20
98.50494011906405
 30
0.0
 40
22.5
  0
CIRCLE
  5
245
330
6C
100
AcDbEntity
  8
Visible (ISO)
100
AcDbCircle
 10
118.7867965643983
 20
119.7181435546605
 30
0.0
 40
2.067
  0
CIRCLE
  5
246
330
6C
100
AcDbEntity
  8
Visible (ISO)
100
AcDbCircle
 10
118.7867965643983
 20
77.29173668346762
 30
0.0
 40
2.067
  0
CIRCLE
  5
247
330
6C
100
AcDbEntity
  8
Visible (ISO)
100
AcDbCircle
 10
161.2132034355911
 20
77.2917366834676
 30
0.0
 40
2.067
  0
CIRCLE
  5
248
330
6C
100
AcDbEntity
  8
Visible Narrow (ISO)
100
AcDbCircle
 10
118.7867965643983
 20
119.7181435546605
 30
0.0
 40
2.5
  0
CIRCLE
  5
249
330
6C
100
AcDbEntity
  8
Visible Narrow (ISO)
100
AcDbCircle
 10
118.7867965643983
 20
77.29173668346762
 30
0.0
 40
2.5
  0
CIRCLE
  5
24A
330
6C
100
AcDbEntity
  8
Visible Narrow (ISO)
100
AcDbCircle
 10
161.2132034355911
 20
77.2917366834676
 30
0.0
 40
2.5
  0
CIRCLE
  5
24B
330
6C
100
AcDbEntity
  8
Visible (ISO)
100
AcDbCircle
 10
161.2132034355911
 20
119.7181435546605
 30
0.0
 40
2.067
  0
CIRCLE
  5
24C
330
6C
100
AcDbEntity
  8
Visible Narrow (ISO)
100
AcDbCircle
 10
139.9999999999938
 20
98.50494011906405
 30
0.0
 40
24.5
  0
CIRCLE
  5
24D
330
6C
100
AcDbEntity
  8
Visible (ISO)
100
AcDbCircle
 10
139.9999999999938
 20
98.50494011906405
 30
0.0
 40
24.70000000000001
  0
CIRCLE
  5
24E
330
6C
100
AcDbEntity
  8
Visible (ISO)
100
AcDbCircle
 10
139.9999999999939
 20
98.50494011906405
 30
0.0
 40
25.0
  0
CIRCLE
  5
24F
330
6C
100
AcDbEntity
  8
Visible Narrow (ISO)
100
AcDbCircle
 10
139.9999999999947
 20
98.50494011906405
 30
0.0
 40
25.4
  0
LINE
  5
250
330
6C
100
AcDbEntity
  8
Visible (ISO)
100
AcDbLine
 10
117.9999999999947
 20
124.204940119064
 30
0.0
 11
161.9999999999947
 21
124.204940119064
 31
0.0
  0
ARC
  5
251
330
6C
100
AcDbEntity
  8
Visible (ISO)
100
AcDbCircle
 10
117.9999999999947
 20
120.504940119064
 30
0.0
 40
3.7
100
AcDbArc
 50
90.0
 51
180.0
  0
LINE
  5
252
330
6C
100
AcDbEntity
  8
Visible (ISO)
100
AcDbLine
 10
114.2999999999947
 20
76.50494011906404
 30
0.0
 11
114.2999999999947
 21
120.504940119064
 31
0.0
  0
ARC
  5
253
330
6C
100
AcDbEntity
  8
Visible (ISO)
100
AcDbCircle
 10
117.9999999999947
 20
76.50494011906404
 30
0.0
 40
3.7
100
AcDbArc
 50
180.0
 51
270.0
  0
LINE
  5
254
330
6C
100
AcDbEntity
  8
Visible (ISO)
100
AcDbLine
 10
161.9999999999947
 20
72.80494011906404
 30
0.0
 11
117.9999999999947
 21
72.80494011906404
 31
0.0
  0
ARC
  5
255
330
6C
100
AcDbEntity
  8
Visible (ISO)
100
AcDbCircle
 10
161.9999999999947
 20
76.50494011906404
 30
0.0
 40
3.7
100
AcDbArc
 50
270.0
 51
0.0
  0
LINE
  5
256
330
6C
100
AcDbEntity
  8
Visible (ISO)
100
AcDbLine
 10
165.6999999999947
 20
120.504940119064
 30
0.0
 11
165.6999999999947
 21
76.50494011906404
 31
0.0
  0
ARC
  5
257
330
6C
100
AcDbEntity
  8
Visible (ISO)
100
AcDbCircle
 10
161.9999999999947
 20
120.504940119064
 30
0.0
 40
3.7
100
AcDbArc
 50
0.0
 51
90.0
  0
LINE
  5
258
330
6C
100
AcDbEntity
  8
Visible Narrow (ISO)
100
AcDbLine
 10
117.9999999999948
 20
124.504940119064
 30
0.0
 11
117.9999999999947
 21
124.204940119064
 31
0.0
  0
LINE
  5
259
330
6C
100
AcDbEntity
  8
Visible Narrow (ISO)
100
AcDbLine
 10
161.9999999999947
 20
124.204940119064
 30
0.0
 11
161.9999999999948
 21
124.504940119064
 31
0.0
  0
LINE
  5
25A
330
6C
100
AcDbEntity
  8
Visible (ISO)
100
AcDbLine
 10
161.9999999999948
 20
124.504940119064
 30
0.0
 11
117.9999999999948
 21
124.504940119064
 31
0.0
  0
LINE
  5
25B
330
6C
100
AcDbEntity
  8
Visible Narrow (ISO)
100
AcDbLine
 10
165.6999999999947
 20
120.504940119064
 30
0.0
 11
165.9999999999948
 21
120.504940119064
 31
0.0
  0
ARC
  5
25C
330
6C
100
AcDbEntity
  8
Visible (ISO)
100
AcDbCircle
 10
161.9999999999948
 20
120.504940119064
 30
0.0
 40
4.000000000000003
100
AcDbArc
 50
0.0
 51
90.0
  0
LINE
  5
25D
330
6C
100
AcDbEntity
  8
Visible Narrow (ISO)
100
AcDbLine
 10
165.6999999999947
 20
76.50494011906404
 30
0.0
 11
165.9999999999948
 21
76.50494011906404
 31
0.0
  0
LINE
  5
25E
330
6C
100
AcDbEntity
  8
Visible (ISO)
100
AcDbLine
 10
165.9999999999948
 20
76.50494011906404
 30
0.0
 11
165.9999999999948
 21
120.504940119064
 31
0.0
  0
LINE
  5
25F
330
6C
100
AcDbEntity
  8
Visible Narrow (ISO)
100
AcDbLine
 10
161.9999999999947
 20
72.80494011906404
 30
0.0
 11
161.9999999999948
 21
72.50494011906404
 31
0.0
  0
ARC
  5
260
330
6C
100
AcDbEntity
  8
Visible (ISO)
100
AcDbCircle
 10
161.9999999999948
 20
76.50494011906404
 30
0.0
 40
4.000000000000003
100
AcDbArc
 50
270.0
 51
0.0
  0
LINE
  5
261
330
6C
100
AcDbEntity
  8
Visible Narrow (ISO)
100
AcDbLine
 10
117.9999999999947
 20
72.80494011906404
 30
0.0
 11
117.9999999999948
 21
72.50494011906404
 31
0.0
  0
LINE
  5
262
330
6C
100
AcDbEntity
  8
Visible (ISO)
100
AcDbLine
 10
117.9999999999948
 20
72.50494011906404
 30
0.0
 11
161.9999999999948
 21
72.50494011906404
 31
0.0
  0
LINE
  5
263
330
6C
100
AcDbEntity
  8
Visible Narrow (ISO)
100
AcDbLine
 10
114.2999999999947
 20
76.50494011906404
 30
0.0
 11
113.9999999999948
 21
76.50494011906404
 31
0.0
  0
ARC
  5
264
330
6C
100
AcDbEntity
  8
Visible (ISO)
100
AcDbCircle
 10
117.9999999999948
 20
76.50494011906404
 30
0.0
 40
4.000000000000003
100
AcDbArc
 50
180.0
 51
269.9999999999998
  0
LINE
  5
265
330
6C
100
AcDbEntity
  8
Visible Narrow (ISO)
100
AcDbLine
 10
114.2999999999947
 20
120.504940119064
 30
0.0
 11
113.9999999999948
 21
120.504940119064
 31
0.0
  0
LINE
  5
266
330
6C
100
AcDbEntity
  8
Visible (ISO)
100
AcDbLine
 10
113.9999999999948
 20
120.504940119064
 30
0.0
 11
113.9999999999948
 21
76.50494011906404
 31
0.0
  0
ARC
  5
267
330
6C
100
AcDbEntity
  8
Visible (ISO)
100
AcDbCircle
 10
117.9999999999948
 20
120.504940119064
 30
0.0
 40
4.000000000000003
100
AcDbArc
 50
90.0
 51
180.0
  0
CIRCLE
  5
268
330
6C
100
AcDbEntity
  8
Visible Narrow (ISO)
100
AcDbCircle
 10
161.2132034355911
 20
119.7181435546605
 30
0.0
 40
2.5
  0
CIRCLE
  5
269
330
6C
100
AcDbEntity
  8
Visible (ISO)
100
AcDbCircle
 10
139.9999999999918
 20
98.50494011906405
 30
0.0
 40
7.577350269189627
  0
CIRCLE
  5
26A
330
6C
100
AcDbEntity
  8
Visible (ISO)
100
AcDbCircle
 10
139.9999999999918
 20
98.50494011906405
 30
0.0
 40
11.42264973081037
  0
CIRCLE
  5
26B
330
6C
100
AcDbEntity
  8
Visible (ISO)
100
AcDbCircle
 10
139.999999999992
 20
98.50494011906405
 30
0.0
 40
12.0
  0
CIRCLE
  5
26C
330
6C
100
AcDbEntity
  8
Visible (ISO)
100
AcDbCircle
 10
139.9999999999852
 20
98.50494011906405
 30
0.0
 40
3.249999999999999
  0
CIRCLE
  5
26D
330
6C
100
AcDbEntity
  8
Visible (ISO)
100
AcDbCircle
 10
139.9999999999858
 20
98.50494011906405
 30
0.0
 40
2.067
  0
CIRCLE
  5
26E
330
6C
100
AcDbEntity
  8
Visible Narrow (ISO)
100
AcDbCircle
 10
139.9999999999911
 20
98.50494011906405
 30
0.0
 40
6.400000000000001
  0
CIRCLE
  5
26F
330
6C
100
AcDbEntity
  8
Visible (ISO)
100
AcDbCircle
 10
139.9999999999911
 20
98.50494011906405
 30
0.0
 40
6.636029765733799
  0
CIRCLE
  5
270
330
6C
100
AcDbEntity
  8
Visible (ISO)
100
AcDbCircle
 10
139.9999999999915
 20
98.50494011906405
 30
0.0
 40
7.000000000000001
  0
CIRCLE
  5
271
330
6C
100
AcDbEntity
  8
Visible (ISO)
100
AcDbCircle
 10
139.9999999999854
 20
98.50494011906405
 30
0.0
 40
6.0
  0
CIRCLE
  5
272
330
6C
100
AcDbEntity
  8
Visible Narrow (ISO)
100
AcDbCircle
 10
139.9999999999852
 20
98.50494011906405
 30
0.0
 40
5.5
  0
CIRCLE
  5
273
330
6C
100
AcDbEntity
  8
Visible Narrow (ISO)
100
AcDbCircle
 10
139.9999999999856
 20
98.50494011906405
 30
0.0
 40
2.5
  0
LINE
  5
274
330
6C
100
AcDbEntity
  8
Visible (ISO)
100
AcDbLine
 10
144.6360000000119
 20
125.504940119064
 30
0.0
 11
152.3640000000119
 21
125.504940119064
 31
0.0
  0
LINE
  5
275
330
6C
100
AcDbEntity
  8
Visible (ISO)
100
AcDbLine
 10
153.3327652476342
 20
124.5054280429769
 30
0.0
 11
143.6672347523896
 21
124.5054280429769
 31
0.0
  0
LINE
  5
276
330
6C
100
AcDbEntity
  8
Visible (ISO)
100
AcDbLine
 10
152.3640000000119
 20
125.504940119064
 30
0.0
 11
153.3327652476342
 21
124.5054280429769
 31
0.0
  0
LINE
  5
277
330
6C
100
AcDbEntity
  8
Visible (ISO)
100
AcDbLine
 10
144.6360000000119
 20
125.504940119064
 30
0.0
 11
143.6672347523896
 21
124.5054280429769
 31
0.0
  0
LINE
  5
278
330
6C
100
AcDbEntity
  8
Visible (ISO)
100
AcDbLine
 10
143.6672500000119
 20
124.504940119064
 30
0.0
 11
143.6672347523896
 21
124.5054280429769
 31
0.0
  0
LINE
  5
279
330
6C
100
AcDbEntity
  8
Visible (ISO)
100
AcDbLine
 10
153.3327500000119
 20
124.504940119064
 30
0.0
 11
153.3327652476342
 21
124.5054280429769
 31
0.0
  0
LINE
  5
27A
330
6C
100
AcDbEntity
  8
Visible Narrow (ISO)
100
AcDbLine
 10
152.7514663778324
 20
124.504940119064
 30
0.0
 11
152.7514816254547
 21
124.5054280429769
 31
0.0
  0
LINE
  5
27B
330
6C
100
AcDbEntity
  8
Visible Narrow (ISO)
100
AcDbLine
 10
144.2485183745691
 20
124.5054280429769
 30
0.0
 11
144.2485336221914
 21
124.504940119064
 31
0.0
  0
LINE
  5
27C
330
6C
100
AcDbEntity
  8
Visible (ISO)
100
AcDbLine
 10
252.25
 20
184.2071067811864
 30
0.0
 11
252.25
 21
211.7928932188133
 31
0.0
  0
LINE
  5
27D
330
6C
100
AcDbEntity
  8
Visible Narrow (ISO)
100
AcDbLine
 10
252.3964466094067
 20
212.1464466094066
 30
0.0
 11
252.3964466094067
 21
183.8535533905931
 31
0.0
  0
ARC
  5
27E
330
6C
100
AcDbEntity
  8
Visible (ISO)
100
AcDbCircle
 10
252.75
 20
184.2071067811864
 30
0.0
 40
0.5000000000000001
100
AcDbArc
 50
180.0
 51
225.0
  0
ARC
  5
27F
330
6C
100
AcDbEntity
  8
Visible (ISO)
100
AcDbCircle
 10
252.75
 20
211.7928932188133
 30
0.0
 40
0.5
100
AcDbArc
 50
135.0
 51
180.0
  0
LINE
  5
280
330
6C
100
AcDbEntity
  8
Visible Narrow (ISO)
100
AcDbLine
 10
253.1035533905933
 20
183.1464466094065
 30
0.0
 11
253.1035533905933
 21
212.8535533905932
 31
0.0
  0
ARC
  5
281
330
6C
100
AcDbEntity
  8
Visible (ISO)
100
AcDbCircle
 10
252.75
 20
182.7928932188133
 30
0.0
 40
0.5000000000000001
100
AcDbArc
 50
0.0
 51
45.0
  0
ARC
  5
282
330
6C
100
AcDbEntity
  8
Visible (ISO)
100
AcDbCircle
 10
252.75
 20
213.2071067811864
 30
0.0
 40
0.5
100
AcDbArc
 50
315.0
 51
0.0
  0
LINE
  5
283
330
6C
100
AcDbEntity
  8
Visible (ISO)
100
AcDbLine
 10
253.25
 20
177.4999999999998
 30
0.0
 11
253.25
 21
218.4999999999999
 31
0.0
  0
LINE
  5
284
330
6C
100
AcDbEntity
  8
Visible Narrow (ISO)
100
AcDbLine
 10
255.25
 20
220.4999999999999
 30
0.0
 11
255.25
 21
175.4999999999998
 31
0.0
  0
ARC
  5
285
330
6C
100
AcDbEntity
  8
Visible (ISO)
100
AcDbCircle
 10
255.25
 20
177.4999999999998
 30
0.0
 40
2.0
100
AcDbArc
 50
180.0
 51
270.0
  0
ARC
  5
286
330
6C
100
AcDbEntity
  8
Visible (ISO)
100
AcDbCircle
 10
255.25
 20
218.4999999999999
 30
0.0
 40
2.0
100
AcDbArc
 50
90.0
 51
180.0
  0
LINE
  5
287
330
6C
100
AcDbEntity
  8
Visible Narrow (ISO)
100
AcDbLine
 10
257.25
 20
175.4999999999998
 30
0.0
 11
257.25
 21
220.4999999999999
 31
0.0
  0
ARC
  5
288
330
6C
100
AcDbEntity
  8
Visible (ISO)
100
AcDbCircle
 10
257.25
 20
173.4999999999999
 30
0.0
 40
2.0
100
AcDbArc
 50
0.0
 51
90.0
  0
ARC
  5
289
330
6C
100
AcDbEntity
  8
Visible (ISO)
100
AcDbCircle
 10
257.25
 20
222.4999999999999
 30
0.0
 40
2.0
100
AcDbArc
 50
270.0
 51
0.0
  0
LINE
  5
28A
330
6C
100
AcDbEntity
  8
Visible (ISO)
100
AcDbLine
 10
259.25
 20
173.2999999999998
 30
0.0
 11
259.25
 21
222.6999999999998
 31
0.0
  0
LINE
  5
28B
330
6C
100
AcDbEntity
  8
Visible (ISO)
100
AcDbLine
 10
259.5499999999999
 20
222.9999999999999
 30
0.0
 11
259.5499999999999
 21
172.9999999999998
 31
0.0
  0
LINE
  5
28C
330
6C
100
AcDbEntity
  8
Visible (ISO)
100
AcDbLine
 10
259.25
 20
222.6999999999999
 30
0.0
 11
259.5499999999999
 21
222.9999999999999
 31
0.0
  0
LINE
  5
28D
330
6C
100
AcDbEntity
  8
Visible (ISO)
100
AcDbLine
 10
259.25
 20
173.2999999999998
 30
0.0
 11
259.5499999999999
 21
172.9999999999998
 31
0.0
  0
LINE
  5
28E
330
6C
100
AcDbEntity
  8
Visible Narrow (ISO)
100
AcDbLine
 10
261.85
 20
172.9999999999998
 30
0.0
 11
261.85
 21
222.9999999999999
 31
0.0
  0
ARC
  5
28F
330
6C
100
AcDbEntity
  8
Visible (ISO)
100
AcDbCircle
 10
261.85
 20
172.5999999999999
 30
0.0
 40
0.4000000000000001
100
AcDbArc
 50
0.0
 51
90.0
  0
ARC
  5
290
330
6C
100
AcDbEntity
  8
Visible (ISO)
100
AcDbCircle
 10
261.85
 20
223.3999999999999
 30
0.0
 40
0.4000000000000001
100
AcDbArc
 50
270.0
 51
0.0
  0
LINE
  5
291
330
6C
100
AcDbEntity
  8
Visible (ISO)
100
AcDbLine
 10
262.25
 20
220.0000000000075
 30
0.0
 11
262.25
 21
176.0000000000075
 31
0.0
  0
LINE
  5
292
330
6C
100
AcDbEntity
  8
Visible (ISO)
100
AcDbLine
 10
262.25
 20
220.0000000000075
 30
0.0
 11
262.25
 21
223.7000000000064
 31
0.0
  0
LINE
  5
293
330
6C
100
AcDbEntity
  8
Visible (ISO)
100
AcDbLine
 10
262.25
 20
172.3000000000064
 30
0.0
 11
262.25
 21
176.0000000000075
 31
0.0
  0
LINE
  5
294
330
6C
100
AcDbEntity
  8
Visible Narrow (ISO)
100
AcDbLine
 10
262.55
 20
220.0000000000076
 30
0.0
 11
262.25
 21
220.0000000000075
 31
0.0
  0
LINE
  5
295
330
6C
100
AcDbEntity
  8
Visible Narrow (ISO)
100
AcDbLine
 10
262.25
 20
176.0000000000075
 30
0.0
 11
262.55
 21
176.0000000000076
 31
0.0
  0
LINE
  5
296
330
6C
100
AcDbEntity
  8
Visible (ISO)
100
AcDbLine
 10
262.55
 20
176.0000000000076
 30
0.0
 11
262.55
 21
220.0000000000076
 31
0.0
  0
LINE
  5
297
330
6C
100
AcDbEntity
  8
Visible (ISO)
100
AcDbLine
 10
262.25
 20
172.3000000000064
 30
0.0
 11
262.55
 21
172.0000000000064
 31
0.0
  0
LINE
  5
298
330
6C
100
AcDbEntity
  8
Visible (ISO)
100
AcDbLine
 10
262.55
 20
176.0000000000076
 30
0.0
 11
262.55
 21
172.0000000000064
 31
0.0
  0
LINE
  5
299
330
6C
100
AcDbEntity
  8
Visible (ISO)
100
AcDbLine
 10
262.25
 20
223.7000000000064
 30
0.0
 11
262.55
 21
224.0000000000064
 31
0.0
  0
LINE
  5
29A
330
6C
100
AcDbEntity
  8
Visible (ISO)
100
AcDbLine
 10
262.55
 20
224.0000000000064
 30
0.0
 11
262.55
 21
220.0000000000076
 31
0.0
  0
LINE
  5
29B
330
6C
100
AcDbEntity
  8
Visible (ISO)
100
AcDbLine
 10
287.95
 20
224.0000000000064
 30
0.0
 11
262.55
 21
224.0000000000064
 31
0.0
  0
LINE
  5
29C
330
6C
100
AcDbEntity
  8
Visible Narrow (ISO)
100
AcDbLine
 10
287.95
 20
220.0000000000076
 30
0.0
 11
262.55
 21
220.0000000000076
 31
0.0
  0
LINE
  5
29D
330
6C
100
AcDbEntity
  8
Visible Narrow (ISO)
100
AcDbLine
 10
287.95
 20
176.0000000000076
 30
0.0
 11
262.55
 21
176.0000000000076
 31
0.0
  0
LINE
  5
29E
330
6C
100
AcDbEntity
  8
Visible (ISO)
100
AcDbLine
 10
287.95
 20
172.0000000000064
 30
0.0
 11
262.55
 21
172.0000000000064
 31
0.0
  0
LINE
  5
29F
330
6C
100
AcDbEntity
  8
Visible (ISO)
100
AcDbLine
 10
287.95
 20
220.0000000000076
 30
0.0
 11
287.95
 21
224.0000000000064
 31
0.0
  0
LINE
  5
2A0
330
6C
100
AcDbEntity
  8
Visible (ISO)
100
AcDbLine
 10
287.95
 20
220.0000000000076
 30
0.0
 11
287.95
 21
176.0000000000076
 31
0.0
  0
LINE
  5
2A1
330
6C
100
AcDbEntity
  8
Visible Narrow (ISO)
100
AcDbLine
 10
287.95
 20
176.0000000000076
 30
0.0
 11
288.25
 21
176.0000000000075
 31
0.0
  0
LINE
  5
2A2
330
6C
100
AcDbEntity
  8
Visible (ISO)
100
AcDbLine
 10
288.25
 20
176.0000000000075
 30
0.0
 11
288.25
 21
220.0000000000075
 31
0.0
  0
LINE
  5
2A3
330
6C
100
AcDbEntity
  8
Visible Narrow (ISO)
100
AcDbLine
 10
288.25
 20
220.0000000000075
 30
0.0
 11
287.95
 21
220.0000000000076
 31
0.0
  0
LINE
  5
2A4
330
6C
100
AcDbEntity
  8
Visible (ISO)
100
AcDbLine
 10
288.25
 20
223.7000000000064
 30
0.0
 11
287.95
 21
224.0000000000064
 31
0.0
  0
LINE
  5
2A5
330
6C
100
AcDbEntity
  8
Visible (ISO)
100
AcDbLine
 10
288.25
 20
223.7000000000064
 30
0.0
 11
288.25
 21
220.0000000000075
 31
0.0
  0
LINE
  5
2A6
330
6C
100
AcDbEntity
  8
Visible (ISO)
100
AcDbLine
 10
288.25
 20
172.3000000000064
 30
0.0
 11
287.95
 21
172.0000000000064
 31
0.0
  0
LINE
  5
2A7
330
6C
100
AcDbEntity
  8
Visible (ISO)
100
AcDbLine
 10
287.95
 20
172.0000000000064
 30
0.0
 11
287.95
 21
176.0000000000076
 31
0.0
  0
LINE
  5
2A8
330
6C
100
AcDbEntity
  8
Visible (ISO)
100
AcDbLine
 10
288.25
 20
176.0000000000075
 30
0.0
 11
288.25
 21
172.3000000000064
 31
0.0
  0
LINE
  5
2A9
330
6C
100
AcDbEntity
  8
Visible (ISO)
100
AcDbLine
 10
252.3964466094067
 20
212.1464466094066
 30
0.0
 11
253.1035533905933
 21
212.8535533905932
 31
0.0
  0
LINE
  5
2AA
330
6C
100
AcDbEntity
  8
Visible (ISO)
100
AcDbLine
 10
252.3964466094067
 20
183.8535533905931
 30
0.0
 11
253.1035533905933
 21
183.1464466094065
 31
0.0
  0
LINE
  5
2AB
330
6C
100
AcDbEntity
  8
Visible (ISO)
100
AcDbLine
 10
257.25
 20
175.4999999999998
 30
0.0
 11
255.25
 21
175.4999999999998
 31
0.0
  0
LINE
  5
2AC
330
6C
100
AcDbEntity
  8
Visible (ISO)
100
AcDbLine
 10
257.25
 20
220.4999999999999
 30
0.0
 11
255.25
 21
220.4999999999999
 31
0.0
  0
LINE
  5
2AD
330
6C
100
AcDbEntity
  8
Visible (ISO)
100
AcDbLine
 10
261.85
 20
172.9999999999998
 30
0.0
 11
259.5499999999999
 21
172.9999999999998
 31
0.0
  0
LINE
  5
2AE
330
6C
100
AcDbEntity
  8
Visible (ISO)
100
AcDbLine
 10
261.85
 20
222.9999999999999
 30
0.0
 11
259.5499999999999
 21
222.9999999999999
 31
0.0
  0
LINE
  5
2AF
330
6C
100
AcDbEntity
  8
Visible Narrow (ISO)
100
AcDbLine
 10
249.85
 20
191.9999999999998
 30
0.0
 11
249.85
 21
203.9999999999999
 31
0.0
  0
ARC
  5
2B0
330
6C
100
AcDbEntity
  8
Visible (ISO)
100
AcDbCircle
 10
249.85
 20
191.5999999999998
 30
0.0
 40
0.4000000000000001
100
AcDbArc
 50
0.0
 51
90.0
  0
ARC
  5
2B1
330
6C
100
AcDbEntity
  8
Visible (ISO)
100
AcDbCircle
 10
249.85
 20
204.3999999999999
 30
0.0
 40
0.4000000000000001
100
AcDbArc
 50
270.0
 51
0.0
  0
LINE
  5
2B2
330
6C
100
AcDbEntity
  8
Visible (ISO)
100
AcDbLine
 10
250.25
 20
191.3639702342661
 30
0.0
 11
250.25
 21
204.6360297657336
 31
0.0
  0
LINE
  5
2B3
330
6C
100
AcDbEntity
  8
Visible (ISO)
100
AcDbLine
 10
251.25
 20
204.9999999999998
 30
0.0
 11
251.25
 21
190.9999999999999
 31
0.0
  0
LINE
  5
2B4
330
6C
100
AcDbEntity
  8
Visible (ISO)
100
AcDbLine
 10
250.25
 20
204.6360297657336
 30
0.0
 11
251.25
 21
204.9999999999998
 31
0.0
  0
LINE
  5
2B5
330
6C
100
AcDbEntity
  8
Visible (ISO)
100
AcDbLine
 10
250.25
 20
191.3639702342661
 30
0.0
 11
251.25
 21
190.9999999999999
 31
0.0
  0
LINE
  5
2B6
330
6C
100
AcDbEntity
  8
Visible Narrow (ISO)
100
AcDbLine
 10
230.75
 20
203.9999999999999
 30
0.0
 11
230.75
 21
191.9999999999998
 31
0.0
  0
LINE
  5
2B7
330
6C
100
AcDbEntity
  8
Visible (ISO)
100
AcDbLine
 10
230.25
 20
192.4999999999998
 30
0.0
 11
230.25
 21
203.4999999999999
 31
0.0
  0
ARC
  5
2B8
330
6C
100
AcDbEntity
  8
Visible (ISO)
100
AcDbCircle
 10
230.75
 20
192.4999999999998
 30
0.0
 40
0.5
100
AcDbArc
 50
180.0
 51
270.0
  0
ARC
  5
2B9
330
6C
100
AcDbEntity
  8
Visible (ISO)
100
AcDbCircle
 10
230.75
 20
203.4999999999999
 30
0.0
 40
0.5
100
AcDbArc
 50
90.0
 51
180.0
  0
LINE
  5
2BA
330
6C
100
AcDbEntity
  8
Visible (ISO)
100
AcDbLine
 10
249.85
 20
191.9999999999998
 30
0.0
 11
230.75
 21
191.9999999999998
 31
0.0
  0
LINE
  5
2BB
330
6C
100
AcDbEntity
  8
Visible (ISO)
100
AcDbLine
 10
249.85
 20
203.9999999999999
 30
0.0
 11
230.75
 21
203.9999999999999
 31
0.0
  0
LINE
  5
2BC
330
6C
100
AcDbEntity
  8
Visible (ISO)
100
AcDbLine
 10
252.25
 20
190.9999999999999
 30
0.0
 11
251.25
 21
190.9999999999999
 31
0.0
  0
LINE
  5
2BD
330
6C
100
AcDbEntity
  8
Visible (ISO)
100
AcDbLine
 10
252.25
 20
204.9999999999998
 30
0.0
 11
251.25
 21
204.9999999999998
 31
0.0
  0
LINE
  5
2BE
330
6C
100
AcDbEntity
  8
Visible Narrow (ISO)
100
AcDbLine
 10
297.75
 20
220.0000000000073
 30
0.0
 11
296.75
 21
220.0000000000076
 31
0.0
  0
ARC
  5
2BF
330
6C
100
AcDbEntity
  8
Visible (ISO)
100
AcDbCircle
 10
296.75
 20
223.0000000000064
 30
0.0
 40
1.000000000000005
100
AcDbArc
 50
0.0
 51
90.0
  0
LINE
  5
2C0
330
6C
100
AcDbEntity
  8
Visible Narrow (ISO)
100
AcDbLine
 10
296.75
 20
220.0000000000076
 30
0.0
 11
296.75
 21
224.0000000000064
 31
0.0
  0
LINE
  5
2C1
330
6C
100
AcDbEntity
  8
Visible Narrow (ISO)
100
AcDbLine
 10
297.75
 20
205.1414284285501
 30
0.0
 11
296.75
 21
205.1414284285504
 31
0.0
  0
LINE
  5
2C2
330
6C
100
AcDbEntity
  8
Visible (ISO)
100
AcDbLine
 10
297.75
 20
205.1414284285501
 30
0.0
 11
297.75
 21
217.2837807810717
 31
0.0
  0
LINE
  5
2C3
330
6C
100
AcDbEntity
  8
Visible Narrow (ISO)
100
AcDbLine
 10
296.75
 20
220.0000000000076
 30
0.0
 11
296.75
 21
205.1414284285504
 31
0.0
  0
SPLINE
  5
2C4
330
6C
100
AcDbEntity
  8
Visible (ISO)
100
AcDbSpline
210
0.0
220
0.0
230
1.0
 70
    24
 71
     3
 72
    10
 73
     6
 74
     0
 42
0.0000000001
 43
0.0000000001
 40
0.7146921160416956
 40
0.7146921160416956
 40
0.7146921160416956
 40
0.7146921160416956
 40
0.9939277022870381
 40
0.9939277022870381
 40
1.429359257368982
 40
1.429359257368982
 40
1.429359257368982
 40
1.429359257368982
 10
297.0179491924146
 20
223.9999999999999
 30
0.0
 10
297.0179489456432
 20
224.0000000000001
 30
0.0
 10
296.985177429206
 20
224.0000000000004
 30
0.0
 10
296.8621861279009
 20
224.0000000000011
 30
0.0
 10
296.75
 20
224.0000000000015
 30
0.0
 10
296.75
 20
224.000000000002
 30
0.0
  0
SPLINE
  5
2C5
330
6C
100
AcDbEntity
  8
Visible Narrow (ISO)
100
AcDbSpline
210
0.0
220
0.0
230
1.0
 70
     8
 71
     3
 72
     8
 73
     4
 74
     0
 42
0.0000000001
 43
0.0000000001
 40
-0.9032272077278381
 40
-0.9032272077278381
 40
-0.9032272077278381
 40
-0.9032272077278381
 40
-0.7146921160416915
 40
-0.7146921160416915
 40
-0.7146921160416915
 40
-0.7146921160416915
 10
297.8642563891648
 20
223.4631658896863
 30
0.0
 10
297.8765046784101
 20
223.4875550716116
 30
0.0
 10
297.8839745128994
 20
223.4999999838252
 30
0.0
 10
297.8839745962073
 20
223.4999999999983
 30
0.0
  0
ARC
  5
2C6
330
6C
100
AcDbEntity
  8
Visible (ISO)
100
AcDbCircle
 10
296.75
 20
173.0000000000064
 30
0.0
 40
1.000000000000005
100
AcDbArc
 50
270.0
 51
0.0
  0
LINE
  5
2C7
330
6C
100
AcDbEntity
  8
Visible Narrow (ISO)
100
AcDbLine
 10
296.75
 20
176.0000000000075
 30
0.0
 11
297.75
 21
176.0000000000073
 31
0.0
  0
LINE
  5
2C8
330
6C
100
AcDbEntity
  8
Visible Narrow (ISO)
100
AcDbLine
 10
296.75
 20
172.0000000000064
 30
0.0
 11
296.75
 21
176.0000000000076
 31
0.0
  0
LINE
  5
2C9
330
6C
100
AcDbEntity
  8
Visible Narrow (ISO)
100
AcDbLine
 10
296.75
 20
190.8585715714647
 30
0.0
 11
297.75
 21
190.8585715714644
 31
0.0
  0
LINE
  5
2CA
330
6C
100
AcDbEntity
  8
Visible Narrow (ISO)
100
AcDbLine
 10
296.75
 20
190.8585715714647
 30
0.0
 11
296.75
 21
176.0000000000076
 31
0.0
  0
LINE
  5
2CB
330
6C
100
AcDbEntity
  8
Visible (ISO)
100
AcDbLine
 10
297.75
 20
178.7162192189428
 30
0.0
 11
297.75
 21
190.8585715714644
 31
0.0
  0
SPLINE
  5
2CC
330
6C
100
AcDbEntity
  8
Visible (ISO)
100
AcDbSpline
210
0.0
220
0.0
230
1.0
 70
    24
 71
     3
 72
    12
 73
     8
 74
     0
 42
0.0000000001
 43
0.0000000001
 40
0.0
 40
0.0
 40
0.0
 40
0.0
 40
0.2488504855222188
 40
0.2488504855222188
 40
0.7146796286844913
 40
0.7146796286844913
 40
0.7146921160416914
 40
0.7146921160416914
 40
0.7146921160416914
 40
0.7146921160416914
 10
296.75
 20
172.000000000002
 30
0.0
 10
296.75
 20
172.0000000000017
 30
0.0
 10
296.7879631293964
 20
172.0000000000015
 30
0.0
 10
296.9175219770934
 20
172.0000000000007
 30
0.0
 10
297.0179447142011
 20
172.0000000000003
 30
0.0
 10
297.0179491923711
 20
171.9999999999998
 30
0.0
 10
297.0179491924256
 20
171.9999999999998
 30
0.0
 10
297.0179491924146
 20
171.9999999999998
 30
0.0
  0
SPLINE
  5
2CD
330
6C
100
AcDbEntity
  8
Visible Narrow (ISO)
100
AcDbSpline
210
0.0
220
0.0
230
1.0
 70
     8
 71
     3
 72
    10
 73
     6
 74
     0
 42
0.0000000001
 43
0.0000000001
 40
-0.7146921160416911
 40
-0.7146921160416911
 40
-0.7146921160416911
 40
-0.7146921160416911
 40
-0.7146796286844913
 40
-0.7146796286844913
 40
-0.5261635983042278
 40
-0.5261635983042278
 40
-0.5261635983042278
 40
-0.5261635983042278
 10
297.8839745962073
 20
172.5000000000014
 30
0.0
 10
297.8839745962128
 20
172.5000000000004
 30
0.0
 10
297.8839745961856
 20
172.5000000000539
 30
0.0
 10
297.8839736900163
 20
172.5000016323666
 30
0.0
 10
297.8757498660148
 20
172.5126088168562
 30
0.0
 10
297.8631602769958
 20
172.5370711786589
 30
0.0
  0
SPLINE
  5
2CE
330
6C
100
AcDbEntity
  8
Visible Narrow (ISO)
100
AcDbSpline
210
0.0
220
0.0
230
1.0
 70
     8
 71
     3
 72
    14
 73
    10
 74
     0
 42
0.0000000001
 43
0.0000000001
 40
0.0
 40
0.0
 40
0.0
 40
0.0
 40
0.2488504855222166
 40
0.2488504855222166
 40
0.7146796286844913
 40
0.7146796286844913
 40
0.9939277022870376
 40
0.9939277022870376
 40
1.429359257368982
 40
1.429359257368982
 40
1.429359257368982
 40
1.429359257368982
 10
296.75
 20
205.1414284285504
 30
0.0
 10
296.75
 20
204.311926810143
 30
0.0
 10
296.7879631293964
 20
203.4825846408292
 30
0.0
 10
296.9175219770934
 20
201.103844831824
 30
0.0
 10
297.0179447142011
 20
199.5529130680211
 30
0.0
 10
297.0179518766834
 20
197.0692833474208
 30
0.0
 10
296.9851795782292
 20
196.1384500866029
 30
0.0
 10
296.8621861279009
 20
193.7593617769476
 30
0.0
 10
296.75
 20
192.3100100884045
 30
0.0
 10
296.75
 20
190.8585715714647
 30
0.0
  0
SPLINE
  5
2CF
330
6C
100
AcDbEntity
  8
Visible Narrow (ISO)
100
AcDbSpline
210
0.0
220
0.0
230
1.0
 70
     8
 71
     3
 72
    14
 73
    10
 74
     0
 42
0.0000000001
 43
0.0000000001
 40
-1.429359257368982
 40
-1.429359257368982
 40
-1.429359257368982
 40
-1.429359257368982
 40
-0.9939277022870376
 40
-0.9939277022870376
 40
-0.7146796286844913
 40
-0.7146796286844913
 40
-0.2488504855222166
 40
-0.2488504855222166
 40
0.0
 40
0.0
 40
0.0
 40
0.0
 10
297.75
 20
190.8585715714644
 30
0.0
 10
297.75
 20
192.2552590792594
 30
0.0
 10
297.8060930639505
 20
193.697387203518
 30
0.0
 10
297.8675897891146
 20
196.1012819023838
 30
0.0
 10
297.8839759383417
 20
197.050669014387
 30
0.0
 10
297.8839723571006
 20
199.583971329351
 30
0.0
 10
297.8337609885467
 20
201.1652098486694
 30
0.0
 10
297.7689815646983
 20
203.5298931504597
 30
0.0
 10
297.75
 20
204.343217181843
 30
0.0
 10
297.75
 20
205.1414284285501
 30
0.0
  0
ARC
  5
2D0
330
6C
100
AcDbEntity
  8
Visible (ISO)
100
AcDbCircle
 10
297.0179491924312
 20
222.9999999999999
 30
0.0
 40
1.0
100
AcDbArc
 50
30.00000000000048
 51
90.0
  0
ARC
  5
2D1
330
6C
100
AcDbEntity
  8
Visible (ISO)
100
AcDbCircle
 10
297.0179491924312
 20
172.9999999999998
 30
0.0
 40
1.0
100
AcDbArc
 50
270.0
 51
329.9999999999995
  0
LINE
  5
2D2
330
6C
100
AcDbEntity
  8
Visible Narrow (ISO)
100
AcDbLine
 10
298.75
 20
214.9632034356018
 30
0.0
 11
298.75
 21
181.0367965644089
 31
0.0
  0
ARC
  5
2D3
330
6C
100
AcDbEntity
  8
Visible (ISO)
100
AcDbCircle
 10
298.75
 20
171.9999999999998
 30
0.0
 40
1.0
100
AcDbArc
 50
147.5341677910031
 51
149.9999999999995
  0
ARC
  5
2D4
330
6C
100
AcDbEntity
  8
Visible (ISO)
100
AcDbCircle
 10
298.75
 20
223.9999999999999
 30
0.0
 40
1.0
100
AcDbArc
 50
210.0000000000005
 51
212.4658322089969
  0
LINE
  5
2D5
330
6C
100
AcDbEntity
  8
Visible (ISO)
100
AcDbLine
 10
296.75
 20
172.0000000000064
 30
0.0
 11
288.55
 21
172.0000000000064
 31
0.0
  0
LINE
  5
2D6
330
6C
100
AcDbEntity
  8
Visible (ISO)
100
AcDbLine
 10
296.75
 20
224.0000000000064
 30
0.0
 11
288.55
 21
224.0000000000064
 31
0.0
  0
LINE
  5
2D7
330
6C
100
AcDbEntity
  8
Visible Narrow (ISO)
100
AcDbLine
 10
296.75
 20
220.0000000000076
 30
0.0
 11
288.55
 21
220.0000000000076
 31
0.0
  0
LINE
  5
2D8
330
6C
100
AcDbEntity
  8
Visible Narrow (ISO)
100
AcDbLine
 10
296.75
 20
176.0000000000076
 30
0.0
 11
288.55
 21
176.0000000000076
 31
0.0
  0
LINE
  5
2D9
330
6C
100
AcDbEntity
  8
Visible (ISO)
100
AcDbLine
 10
313.95
 20
172.9999999999998
 30
0.0
 11
313.95
 21
222.9999999999999
 31
0.0
  0
LINE
  5
2DA
330
6C
100
AcDbEntity
  8
Visible (ISO)
100
AcDbLine
 10
288.55
 20
172.0000000000064
 30
0.0
 11
288.25
 21
172.3000000000063
 31
0.0
  0
LINE
  5
2DB
330
6C
100
AcDbEntity
  8
Visible (ISO)
100
AcDbLine
 10
288.25
 20
223.7000000000064
 30
0.0
 11
288.55
 21
224.0000000000064
 31
0.0
  0
LINE
  5
2DC
330
6C
100
AcDbEntity
  8
Visible Narrow (ISO)
100
AcDbLine
 10
288.25
 20
220.0000000000075
 30
0.0
 11
288.55
 21
220.0000000000076
 31
0.0
  0
LINE
  5
2DD
330
6C
100
AcDbEntity
  8
Visible (ISO)
100
AcDbLine
 10
288.55
 20
224.0000000000064
 30
0.0
 11
288.55
 21
220.0000000000076
 31
0.0
  0
LINE
  5
2DE
330
6C
100
AcDbEntity
  8
Visible (ISO)
100
AcDbLine
 10
288.25
 20
220.0000000000075
 30
0.0
 11
288.25
 21
223.7000000000064
 31
0.0
  0
LINE
  5
2DF
330
6C
100
AcDbEntity
  8
Visible Narrow (ISO)
100
AcDbLine
 10
288.25
 20
176.0000000000075
 30
0.0
 11
288.55
 21
176.0000000000076
 31
0.0
  0
LINE
  5
2E0
330
6C
100
AcDbEntity
  8
Visible (ISO)
100
AcDbLine
 10
288.55
 20
176.0000000000076
 30
0.0
 11
288.55
 21
220.0000000000076
 31
0.0
  0
LINE
  5
2E1
330
6C
100
AcDbEntity
  8
Visible (ISO)
100
AcDbLine
 10
288.25
 20
220.0000000000075
 30
0.0
 11
288.25
 21
176.0000000000075
 31
0.0
  0
LINE
  5
2E2
330
6C
100
AcDbEntity
  8
Visible (ISO)
100
AcDbLine
 10
288.55
 20
176.0000000000076
 30
0.0
 11
288.55
 21
172.0000000000064
 31
0.0
  0
LINE
  5
2E3
330
6C
100
AcDbEntity
  8
Visible (ISO)
100
AcDbLine
 10
288.25
 20
172.3000000000064
 30
0.0
 11
288.25
 21
176.0000000000075
 31
0.0
  0
LINE
  5
2E4
330
6C
100
AcDbEntity
  8
Visible (ISO)
100
AcDbLine
 10
314.25
 20
221.8916280265867
 30
0.0
 11
314.25
 21
204.2673846410911
 31
0.0
  0
LINE
  5
2E5
330
6C
100
AcDbEntity
  8
Visible (ISO)
100
AcDbLine
 10
314.25
 20
173.2999999999998
 30
0.0
 11
313.95
 21
172.9999999999998
 31
0.0
  0
LINE
  5
2E6
330
6C
100
AcDbEntity
  8
Visible (ISO)
100
AcDbLine
 10
314.25
 20
222.6999999999998
 30
0.0
 11
313.95
 21
222.9999999999999
 31
0.0
  0
LINE
  5
2E7
330
6C
100
AcDbEntity
  8
Visible (ISO)
100
AcDbLine
 10
313.95
 20
172.9999999999998
 30
0.0
 11
302.7486441745856
 21
172.9999999999998
 31
0.0
  0
LINE
  5
2E8
330
6C
100
AcDbEntity
  8
Visible (ISO)
100
AcDbLine
 10
313.95
 20
222.9999999999999
 30
0.0
 11
302.7486441745856
 21
222.9999999999999
 31
0.0
  0
LINE
  5
2E9
330
6C
100
AcDbEntity
  8
Visible (ISO)
100
AcDbLine
 10
297.75
 20
223.4632034356025
 30
0.0
 11
297.75
 21
217.2837807810717
 31
0.0
  0
LINE
  5
2EA
330
6C
100
AcDbEntity
  8
Visible (ISO)
100
AcDbLine
 10
302.25
 20
214.9632034356026
 30
0.0
 11
297.75
 21
214.9632034356026
 31
0.0
  0
LINE
  5
2EB
330
6C
100
AcDbEntity
  8
Visible (ISO)
100
AcDbLine
 10
302.25
 20
223.4632034356025
 30
0.0
 11
297.75
 21
223.4632034356025
 31
0.0
  0
LINE
  5
2EC
330
6C
100
AcDbEntity
  8
Visible (ISO)
100
AcDbLine
 10
302.75
 20
222.9632034356026
 30
0.0
 11
302.75
 21
215.4632034356026
 31
0.0
  0
LINE
  5
2ED
330
6C
100
AcDbEntity
  8
Visible Narrow (ISO)
100
AcDbLine
 10
302.25
 20
214.9632034356026
 30
0.0
 11
302.25
 21
223.4632034356025
 31
0.0
  0
ARC
  5
2EE
330
6C
100
AcDbEntity
  8
Visible (ISO)
100
AcDbCircle
 10
302.25
 20
222.9632034356026
 30
0.0
 40
0.5
100
AcDbArc
 50
0.0
 51
90.0
  0
ARC
  5
2EF
330
6C
100
AcDbEntity
  8
Visible (ISO)
100
AcDbCircle
 10
302.25
 20
215.4632034356026
 30
0.0
 40
0.5
100
AcDbArc
 50
270.0
 51
0.0
  0
LINE
  5
2F0
330
6C
100
AcDbEntity
  8
Visible (ISO)
100
AcDbLine
 10
297.75
 20
178.7162192189428
 30
0.0
 11
297.75
 21
172.5367965644097
 31
0.0
  0
LINE
  5
2F1
330
6C
100
AcDbEntity
  8
Visible (ISO)
100
AcDbLine
 10
302.25
 20
172.5367965644097
 30
0.0
 11
297.75
 21
172.5367965644097
 31
0.0
  0
LINE
  5
2F2
330
6C
100
AcDbEntity
  8
Visible (ISO)
100
AcDbLine
 10
302.25
 20
181.0367965644097
 30
0.0
 11
297.75
 21
181.0367965644097
 31
0.0
  0
LINE
  5
2F3
330
6C
100
AcDbEntity
  8
Visible (ISO)
100
AcDbLine
 10
302.75
 20
180.5367965644097
 30
0.0
 11
302.75
 21
173.0367965644097
 31
0.0
  0
LINE
  5
2F4
330
6C
100
AcDbEntity
  8
Visible Narrow (ISO)
100
AcDbLine
 10
302.25
 20
172.5367965644097
 30
0.0
 11
302.25
 21
181.0367965644097
 31
0.0
  0
ARC
  5
2F5
330
6C
100
AcDbEntity
  8
Visible (ISO)
100
AcDbCircle
 10
302.25
 20
180.5367965644097
 30
0.0
 40
0.5
100
AcDbArc
 50
0.0
 51
90.0
  0
ARC
  5
2F6
330
6C
100
AcDbEntity
  8
Visible (ISO)
100
AcDbCircle
 10
302.25
 20
173.0367965644097
 30
0.0
 40
0.5
100
AcDbArc
 50
270.0
 51
0.0
  0
LINE
  5
2F7
330
6C
100
AcDbEntity
  8
Visible Narrow (ISO)
100
AcDbLine
 10
325.75
 20
211.1612758308352
 30
0.0
 11
314.25
 21
211.1612758308352
 31
0.0
  0
LINE
  5
2F8
330
6C
100
AcDbEntity
  8
Visible Narrow (ISO)
100
AcDbLine
 10
314.25
 20
208.1729134435349
 30
0.0
 11
325.75
 21
208.1729134435349
 31
0.0
  0
LINE
  5
2F9
330
6C
100
AcDbEntity
  8
Visible (ISO)
100
AcDbLine
 10
314.55
 20
224.0000000000015
 30
0.0
 11
325.75
 21
224.0000000000015
 31
0.0
  0
LINE
  5
2FA
330
6C
100
AcDbEntity
  8
Visible (ISO)
100
AcDbLine
 10
314.25
 20
223.7000000000015
 30
0.0
 11
314.55
 21
224.0000000000015
 31
0.0
  0
LINE
  5
2FB
330
6C
100
AcDbEntity
  8
Visible (ISO)
100
AcDbLine
 10
314.25
 20
221.8916280265867
 30
0.0
 11
314.25
 21
223.7000000000015
 31
0.0
  0
LINE
  5
2FC
330
6C
100
AcDbEntity
  8
Visible (ISO)
100
AcDbLine
 10
325.75
 20
219.1246301742852
 30
0.0
 11
325.75
 21
203.5000000000076
 31
0.0
  0
LINE
  5
2FD
330
6C
100
AcDbEntity
  8
Visible (ISO)
100
AcDbLine
 10
325.75
 20
219.1246301742852
 30
0.0
 11
325.75
 21
224.0000000000061
 31
0.0
  0
LINE
  5
2FE
330
6C
100
AcDbEntity
  8
Visible (ISO)
100
AcDbLine
 10
314.25
 20
203.6091910702873
 30
0.0
 11
314.25
 21
204.2673846410911
 31
0.0
  0
LINE
  5
2FF
330
6C
100
AcDbEntity
  8
Visible (ISO)
100
AcDbLine
 10
314.55
 20
203.5000000000076
 30
0.0
 11
314.25
 21
203.6091910702873
 31
0.0
  0
LINE
  5
300
330
6C
100
AcDbEntity
  8
Visible (ISO)
100
AcDbLine
 10
325.75
 20
203.5000000000076
 30
0.0
 11
314.55
 21
203.5000000000076
 31
0.0
  0
LINE
  5
301
330
6C
100
AcDbEntity
  8
Visible (ISO)
100
AcDbLine
 10
329.45
 20
224.0000000000061
 30
0.0
 11
325.75
 21
224.0000000000061
 31
0.0
  0
LINE
  5
302
330
6C
100
AcDbEntity
  8
Visible (ISO)
100
AcDbLine
 10
329.45
 20
219.1246301742852
 30
0.0
 11
325.75
 21
219.1246301742852
 31
0.0
  0
LINE
  5
303
330
6C
100
AcDbEntity
  8
Visible (ISO)
100
AcDbLine
 10
329.45
 20
176.8753698257299
 30
0.0
 11
314.55
 21
176.8753698257299
 31
0.0
  0
LINE
  5
304
330
6C
100
AcDbEntity
  8
Visible (ISO)
100
AcDbLine
 10
329.45
 20
172.0000000000061
 30
0.0
 11
314.55
 21
172.0000000000061
 31
0.0
  0
LINE
  5
305
330
6C
100
AcDbEntity
  8
Visible (ISO)
100
AcDbLine
 10
329.45
 20
219.1246301742852
 30
0.0
 11
329.45
 21
224.0000000000061
 31
0.0
  0
LINE
  5
306
330
6C
100
AcDbEntity
  8
Visible (ISO)
100
AcDbLine
 10
314.55
 20
176.8753698257299
 30
0.0
 11
314.55
 21
203.5000000000076
 31
0.0
  0
LINE
  5
307
330
6C
100
AcDbEntity
  8
Visible (ISO)
100
AcDbLine
 10
329.45
 20
219.1246301742852
 30
0.0
 11
329.45
 21
176.8753698257299
 31
0.0
  0
LINE
  5
308
330
6C
100
AcDbEntity
  8
Visible (ISO)
100
AcDbLine
 10
314.25
 20
203.6091910702873
 30
0.0
 11
314.25
 21
176.9821504430238
 31
0.0
  0
SPLINE
  5
309
330
6C
100
AcDbEntity
  8
Visible (ISO)
100
AcDbSpline
210
0.0
220
0.0
230
1.0
 70
     8
 71
     3
 72
     8
 73
     4
 74
     0
 42
0.0000000001
 43
0.0000000001
 40
-0.0437492227970593
 40
-0.0437492227970593
 40
-0.0437492227970593
 40
-0.0437492227970593
 40
0.0
 40
0.0
 40
0.0
 40
0.0
 10
314.25
 20
176.9821504430238
 30
0.0
 10
314.3499841603398
 20
176.9464721401357
 30
0.0
 10
314.4499856521171
 20
176.9108784998668
 30
0.0
 10
314.55
 20
176.8753698257299
 30
0.0
  0
LINE
  5
30A
330
6C
100
AcDbEntity
  8
Visible (ISO)
100
AcDbLine
 10
314.25
 20
172.3000000000061
 30
0.0
 11
314.25
 21
176.9821504430237
 31
0.0
  0
LINE
  5
30B
330
6C
100
AcDbEntity
  8
Visible (ISO)
100
AcDbLine
 10
329.75
 20
223.7000000000061
 30
0.0
 11
329.75
 21
219.0178495569912
 31
0.0
  0
LINE
  5
30C
330
6C
100
AcDbEntity
  8
Visible (ISO)
100
AcDbLine
 10
329.75
 20
176.9821504430238
 30
0.0
 11
329.75
 21
219.0178495569912
 31
0.0
  0
LINE
  5
30D
330
6C
100
AcDbEntity
  8
Visible (ISO)
100
AcDbLine
 10
329.75
 20
176.9821504430238
 30
0.0
 11
329.75
 21
172.3000000000061
 31
0.0
  0
SPLINE
  5
30E
330
6C
100
AcDbEntity
  8
Visible (ISO)
100
AcDbSpline
210
0.0
220
0.0
230
1.0
 70
    24
 71
     3
 72
     8
 73
     4
 74
     0
 42
0.0000000001
 43
0.0000000001
 40
-0.0437492227974344
 40
-0.0437492227974344
 40
-0.0437492227974344
 40
-0.0437492227974344
 40
0.0
 40
0.0
 40
0.0
 40
0.0
 10
314.25
 20
172.3000000000061
 30
0.0
 10
314.3499841603394
 20
172.2000158396667
 30
0.0
 10
314.4499856521163
 20
172.1000143478899
 30
0.0
 10
314.55
 20
172.0000000000061
 30
0.0
  0
LINE
  5
30F
330
6C
100
AcDbEntity
  8
Visible (ISO)
100
AcDbLine
 10
314.55
 20
176.87536982573
 30
0.0
 11
314.55
 21
172.0000000000061
 31
0.0
  0
SPLINE
  5
310
330
6C
100
AcDbEntity
  8
Visible (ISO)
100
AcDbSpline
210
0.0
220
0.0
230
1.0
 70
    24
 71
     3
 72
     8
 73
     4
 74
     0
 42
0.0000000001
 43
0.0000000001
 40
-0.043749223240024
 40
-0.043749223240024
 40
-0.043749223240024
 40
-0.043749223240024
 40
0.0
 40
0.0
 40
0.0
 40
0.0
 10
329.45
 20
224.0000000000061
 30
0.0
 10
329.5500143478838
 20
223.8999856521223
 30
0.0
 10
329.6500158396606
 20
223.7999841603455
 30
0.0
 10
329.75
 20
223.7000000000061
 30
0.0
  0
SPLINE
  5
311
330
6C
100
AcDbEntity
  8
Visible (ISO)
100
AcDbSpline
210
0.0
220
0.0
230
1.0
 70
    24
 71
     3
 72
     8
 73
     4
 74
     0
 42
0.0000000001
 43
0.0000000001
 40
-0.0437492227974404
 40
-0.0437492227974404
 40
-0.0437492227974404
 40
-0.0437492227974404
 40
0.0
 40
0.0
 40
0.0
 40
0.0
 10
329.75
 20
172.3000000000061
 30
0.0
 10
329.6500158396606
 20
172.2000158396667
 30
0.0
 10
329.5500143478838
 20
172.1000143478899
 30
0.0
 10
329.45
 20
172.0000000000061
 30
0.0
  0
SPLINE
  5
312
330
6C
100
AcDbEntity
  8
Visible (ISO)
100
AcDbSpline
210
0.0
220
0.0
230
1.0
 70
     8
 71
     3
 72
     8
 73
     4
 74
     0
 42
0.0000000001
 43
0.0000000001
 40
-0.0437492227972456
 40
-0.0437492227972456
 40
-0.0437492227972456
 40
-0.0437492227972456
 40
0.0
 40
0.0
 40
0.0
 40
0.0
 10
329.75
 20
176.9821504430238
 30
0.0
 10
329.6500158396605
 20
176.9464721401358
 30
0.0
 10
329.5500143478833
 20
176.910878499867
 30
0.0
 10
329.45
 20
176.8753698257299
 30
0.0
  0
LINE
  5
313
330
6C
100
AcDbEntity
  8
Visible (ISO)
100
AcDbLine
 10
329.45
 20
172.0000000000061
 30
0.0
 11
329.45
 21
176.8753698257299
 31
0.0
  0
SPLINE
  5
314
330
6C
100
AcDbEntity
  8
Visible (ISO)
100
AcDbSpline
210
0.0
220
0.0
230
1.0
 70
     8
 71
     3
 72
     8
 73
     4
 74
     0
 42
0.0000000001
 43
0.0000000001
 40
-0.0437492227970619
 40
-0.0437492227970619
 40
-0.0437492227970619
 40
-0.0437492227970619
 40
0.0
 40
0.0
 40
0.0
 40
0.0
 10
329.75
 20
219.0178495569912
 30
0.0
 10
329.6500158396602
 20
219.0535278598793
 30
0.0
 10
329.5500143478829
 20
219.0891215001482
 30
0.0
 10
329.45
 20
219.1246301742852
 30
0.0
  0
CIRCLE
  5
315
330
6C
100
AcDbEntity
  8
Visible Narrow (ISO)
100
AcDbCircle
 10
320.25
 20
189.5000000000075
 30
0.0
 40
4.84565700644843
  0
CIRCLE
  5
316
330
6C
100
AcDbEntity
  8
Visible (ISO)
100
AcDbCircle
 10
320.25
 20
189.5000000000078
 30
0.0
 40
3.863999999999999
  0
CIRCLE
  5
317
330
6C
100
AcDbEntity
  8
Visible (ISO)
100
AcDbCircle
 10
320.25
 20
189.5000000000075
 30
0.0
 40
4.832765247622278
  0
LINE
  5
318
330
6C
100
AcDbEntity
  8
Visible (ISO)
100
AcDbLine
 10
317.75
 20
190.9433756729819
 30
0.0
 11
320.25
 21
192.386751345956
 31
0.0
  0
LINE
  5
319
330
6C
100
AcDbEntity
  8
Visible (ISO)
100
AcDbLine
 10
320.25
 20
192.386751345956
 30
0.0
 11
322.75
 21
190.9433756729819
 31
0.0
  0
LINE
  5
31A
330
6C
100
AcDbEntity
  8
Visible (ISO)
100
AcDbLine
 10
322.75
 20
190.9433756729819
 30
0.0
 11
322.75
 21
188.0566243270338
 31
0.0
  0
LINE
  5
31B
330
6C
100
AcDbEntity
  8
Visible (ISO)
100
AcDbLine
 10
322.75
 20
188.0566243270338
 30
0.0
 11
320.25
 21
186.6132486540597
 31
0.0
  0
LINE
  5
31C
330
6C
100
AcDbEntity
  8
Visible (ISO)
100
AcDbLine
 10
320.25
 20
186.6132486540597
 30
0.0
 11
317.75
 21
188.0566243270338
 31
0.0
  0
LINE
  5
31D
330
6C
100
AcDbEntity
  8
Visible (ISO)
100
AcDbLine
 10
317.75
 20
188.0566243270338
 30
0.0
 11
317.75
 21
190.9433756729819
 31
0.0
  0
LINE
  5
31E
330
6C
100
AcDbEntity
  8
Center Mark (ISO)
100
AcDbLine
 10
167.4999999999939
 20
98.50494011906405
 30
0.0
 11
112.4999999999939
 21
98.50494011906405
 31
0.0
  0
LINE
  5
31F
330
6C
100
AcDbEntity
  8
Center Mark (ISO)
100
AcDbLine
 10
139.9999999999939
 20
126.004940119064
 30
0.0
 11
139.9999999999939
 21
71.00494011906405
 31
0.0
  0
LINE
  5
320
330
6C
100
AcDbEntity
  8
Center Mark (ISO)
100
AcDbLine
 10
122.0161532340773
 20
80.52109335314657
 30
0.0
 11
115.5574398947193
 21
74.06238001378866
 31
0.0
  0
LINE
  5
321
330
6C
100
AcDbEntity
  8
Center Mark (ISO)
100
AcDbLine
 10
122.0161532340773
 20
116.4887868849815
 30
0.0
 11
115.5574398947193
 21
122.9475002243394
 31
0.0
  0
LINE
  5
322
330
6C
100
AcDbEntity
  8
Center Mark (ISO)
100
AcDbLine
 10
157.9838467659122
 20
80.52109335314657
 30
0.0
 11
164.4425601052701
 21
74.06238001378866
 31
0.0
  0
LINE
  5
323
330
6C
100
AcDbEntity
  8
Center Mark (ISO)
100
AcDbLine
 10
164.4425601052701
 20
122.9475002243394
 30
0.0
 11
157.9838467659122
 21
116.4887868849815
 31
0.0
  0
CIRCLE
  5
324
330
6C
100
AcDbEntity
  8
Centerline (ISO)
100
AcDbCircle
 10
139.9999999999947
 20
98.50494011906405
 30
0.0
 40
30.0
  0
LINE
  5
325
330
6C
100
AcDbEntity
  8
Center Mark (ISO)
100
AcDbLine
 10
120.4999999999948
 20
76.50494011906404
 30
0.0
 11
111.4999999999948
 21
76.50494011906404
 31
0.0
  0
LINE
  5
326
330
6C
100
AcDbEntity
  8
Center Mark (ISO)
100
AcDbLine
 10
117.9999999999948
 20
79.00494011906404
 30
0.0
 11
117.9999999999948
 21
70.00494011906403
 31
0.0
  0
LINE
  5
327
330
6C
100
AcDbEntity
  8
Center Mark (ISO)
100
AcDbLine
 10
120.4999999999948
 20
120.504940119064
 30
0.0
 11
111.4999999999948
 21
120.504940119064
 31
0.0
  0
LINE
  5
328
330
6C
100
AcDbEntity
  8
Center Mark (ISO)
100
AcDbLine
 10
117.9999999999948
 20
127.004940119064
 30
0.0
 11
117.9999999999948
 21
118.004940119064
 31
0.0
  0
LINE
  5
329
330
6C
100
AcDbEntity
  8
Center Mark (ISO)
100
AcDbLine
 10
168.4999999999948
 20
76.50494011906404
 30
0.0
 11
159.4999999999948
 21
76.50494011906404
 31
0.0
  0
LINE
  5
32A
330
6C
100
AcDbEntity
  8
Center Mark (ISO)
100
AcDbLine
 10
161.9999999999948
 20
79.00494011906404
 30
0.0
 11
161.9999999999948
 21
70.00494011906403
 31
0.0
  0
LINE
  5
32B
330
6C
100
AcDbEntity
  8
Center Mark (ISO)
100
AcDbLine
 10
168.4999999999948
 20
120.504940119064
 30
0.0
 11
159.4999999999948
 21
120.504940119064
 31
0.0
  0
LINE
  5
32C
330
6C
100
AcDbEntity
  8
Center Mark (ISO)
100
AcDbLine
 10
161.9999999999948
 20
127.004940119064
 30
0.0
 11
161.9999999999948
 21
118.004940119064
 31
0.0
  0
ENDSEC
  0
SECTION
  2
OBJECTS
  0
DICTIONARY
  5
C
330
0
100
AcDbDictionary
281
     1
  3
ACAD_CIP_PREVIOUS_PRODUCT_INFO
350
32D
  3
ACAD_COLOR
350
63
  3
ACAD_GROUP
350
D
  3
ACAD_LAYOUT
350
62
  3
ACAD_MATERIAL
350
10
  3
ACAD_MLEADERSTYLE
350
66
  3
ACAD_MLINESTYLE
350
5F
  3
ACAD_PLOTSETTINGS
350
61
  3
ACAD_PLOTSTYLENAME
350
E
  3
ACAD_SCALELIST
350
42
  3
ACAD_TABLESTYLE
350
64
  3
ACAD_VISUALSTYLE
350
29
  3
ACDB_RECOMPOSE_DATA
350
341
  3
AcDbVariableDictionary
350
32E
  0
DICTIONARY
  5
33B
330
CD
100
AcDbDictionary
280
     1
281
     1
  3
ACAD_MLATT
360
33D
  3
ACAD_XREC_ROUNDTRIP
360
33C
  0
DICTIONARY
  5
33E
330
D3
100
AcDbDictionary
280
     1
281
     1
  3
ACAD_MLATT
360
340
  3
ACAD_XREC_ROUNDTRIP
360
33F
  0
XRECORD
  5
32D
102
{ACAD_REACTORS
330
C
102
}
330
C
100
AcDbXrecord
280
     1
300
INVPROSA
300
2012
300
85768INVNTOR_2012_0F
  0
DICTIONARY
  5
63
102
{ACAD_REACTORS
330
C
102
}
330
C
100
AcDbDictionary
281
     1
  0
DICTIONARY
  5
D
102
{ACAD_REACTORS
330
C
102
}
330
C
100
AcDbDictionary
281
     1
  0
DICTIONARY
  5
62
102
{ACAD_REACTORS
330
C
102
}
330
C
100
AcDbDictionary
281
     1
  3
Layout1
350
6B
  3
Layout2
350
73
  3
Model
350
6F
  0
DICTIONARY
  5
10
102
{ACAD_REACTORS
330
C
102
}
330
C
100
AcDbDictionary
281
     1
  3
ByBlock
350
19
  3
ByLayer
350
11
  3
Global
350
21
  0
DICTIONARY
  5
66
102
{ACAD_REACTORS
330
C
102
}
330
C
100
AcDbDictionary
281
     1
  3
Standard
350
67
  0
DICTIONARY
  5
5F
102
{ACAD_REACTORS
330
C
102
}
330
C
100
AcDbDictionary
281
     1
  3
Standard
350
60
  0
DICTIONARY
  5
61
102
{ACAD_REACTORS
330
C
102
}
330
C
100
AcDbDictionary
281
     1
  0
ACDBDICTIONARYWDFLT
  5
E
102
{ACAD_REACTORS
330
C
102
}
330
C
100
AcDbDictionary
281
     1
  3
Normal
350
F
100
AcDbDictionaryWithDefault
340
F
  0
DICTIONARY
  5
42
102
{ACAD_REACTORS
330
C
102
}
330
C
100
AcDbDictionary
281
     1
  3
A0
350
43
  3
A1
350
44
  3
A2
350
45
  3
A3
350
46
  3
A4
350
47
  3
A5
350
48
  3
A6
350
49
  3
A7
350
4A
  3
A8
350
4B
  3
A9
350
4C
  3
B0
350
4D
  3
B1
350
4E
  3
B2
350
4F
  3
B3
350
50
  3
B4
350
51
  3
B5
350
52
  3
B6
350
53
  0
DICTIONARY
  5
64
102
{ACAD_REACTORS
330
C
102
}
330
C
100
AcDbDictionary
281
     1
  3
Standard
350
65
  0
DICTIONARY
  5
29
102
{ACAD_REACTORS
330
C
102
}
330
C
100
AcDbDictionary
281
     1
  3
2dWireframe
350
2F
  3
Basic
350
2E
  3
Brighten
350
35
  3
ColorChange
350
39
  3
Conceptual
350
32
  3
Dim
350
34
  3
EdgeColorOff
350
41
  3
Facepattern
350
38
  3
Flat
350
2A
  3
FlatWithEdges
350
2B
  3
Gouraud
350
2C
  3
GouraudWithEdges
350
2D
  3
Hidden
350
31
  3
JitterOff
350
3F
  3
Linepattern
350
37
  3
OverhangOff
350
40
  3
Realistic
350
33
  3
Shaded
350
3E
  3
Shaded with edges
350
3D
  3
Shades of Gray
350
3A
  3
Sketchy
350
3B
  3
Thicken
350
36
  3
Wireframe
350
30
  3
X-Ray
350
3C
  0
XRECORD
  5
341
102
{ACAD_REACTORS
330
C
102
}
330
C
100
AcDbXrecord
280
     1
 90
        1
330
65
330
CD
330
D3
  0
DICTIONARY
  5
32E
102
{ACAD_REACTORS
330
C
102
}
330
C
100
AcDbDictionary
281
     1
  3
CANNOSCALE
350
332
  3
CMLEADERSTYLE
350
330
  3
CTABLESTYLE
350
32F
  3
LAYEREVAL
350
334
  3
LAYERNOTIFY
350
335
  3
LIGHTINGUNITS
350
333
  3
MSLTSCALE
350
331
  3
XCLIPFRAME
350
336
  0
XRECORD
  5
33D
102
{ACAD_REACTORS
330
33B
102
}
330
33B
100
AcDbXrecord
280
     1
 70
     4
 70
     0
 70
     0
 40
1.0
  2
部品番号
  1
Embedded Object
 10
39.99999999999993
 20
104.5
 30
0.0
 40
3.100000023841857
 41
52.04190794399206
 46
0.0
 71
     5
 72
     5
  1
VRXF-□-3~9B-S-8AM6
  7
文字スタイル12
 73
     1
 44
1.0
  0
XRECORD
  5
33C
102
{ACAD_REACTORS
330
33B
102
}
330
33B
100
AcDbXrecord
280
     1
102
ACAD_MATT_HEIGHT
140
3.100000023841857
  0
XRECORD
  5
340
102
{ACAD_REACTORS
330
33E
102
}
330
33E
100
AcDbXrecord
280
     1
 70
     2
 70
     0
 70
     0
 40
1.0
  2
部品番号
  1
Embedded Object
 10
210.0
 20
14.49999999999999
 30
0.0
 40
3.100000023841857
 41
52.04190794399206
 46
0.0
 71
     5
 72
     5
  1
VRXF-□-3~9B-S-8AM6
  7
文字スタイル12
 73
     1
 44
1.0
  0
XRECORD
  5
33F
102
{ACAD_REACTORS
330
33E
102
}
330
33E
100
AcDbXrecord
280
     1
102
ACAD_MATT_HEIGHT
140
3.100000023841857
  0
LAYOUT
  5
6B
102
{ACAD_REACTORS
330
62
102
}
330
62
100
AcDbPlotSettings
  1

  2

  4

  6

 40
0.0
 41
0.0
 42
0.0
 43
0.0
 44
0.0
 45
0.0
 46
0.0
 47
0.0
 48
0.0
 49
0.0
140
0.0
141
0.0
142
1.0
143
1.0
 70
   688
 72
     0
 73
     0
 74
     5
  7

 75
    16
147
1.0
 76
     0
 77
     2
 78
   300
148
0.0
149
0.0
100
AcDbLayout
  1
Layout1
 70
     1
 71
     1
 10
0.0
 20
0.0
 11
12.0
 21
9.0
 12
0.0
 22
0.0
 32
0.0
 14
0.0
 24
0.0
 34
0.0
 15
0.0
 25
0.0
 35
0.0
146
0.0
 13
0.0
 23
0.0
 33
0.0
 16
1.0
 26
0.0
 36
0.0
 17
0.0
 27
1.0
 37
0.0
 76
     0
330
68
  0
LAYOUT
  5
73
102
{ACAD_REACTORS
330
62
102
}
330
62
100
AcDbPlotSettings
  1

  2

  4

  6

 40
0.0
 41
0.0
 42
0.0
 43
0.0
 44
0.0
 45
0.0
 46
0.0
 47
0.0
 48
0.0
 49
0.0
140
0.0
141
0.0
142
1.0
143
1.0
 70
   688
 72
     0
 73
     0
 74
     5
  7

 75
    16
147
1.0
 76
     0
 77
     2
 78
   300
148
0.0
149
0.0
100
AcDbLayout
  1
Layout2
 70
     1
 71
     2
 10
0.0
 20
0.0
 11
12.0
 21
9.0
 12
0.0
 22
0.0
 32
0.0
 14
0.0
 24
0.0
 34
0.0
 15
0.0
 25
0.0
 35
0.0
146
0.0
 13
0.0
 23
0.0
 33
0.0
 16
1.0
 26
0.0
 36
0.0
 17
0.0
 27
1.0
 37
0.0
 76
     0
330
70
  0
LAYOUT
  5
6F
102
{ACAD_REACTORS
330
62
102
}
330
62
100
AcDbPlotSettings
  1

  2

  4

  6

 40
0.0
 41
0.0
 42
0.0
 43
0.0
 44
0.0
 45
0.0
 46
0.0
 47
0.0
 48
0.0
 49
0.0
140
0.0
141
0.0
142
1.0
143
1.0
 70
  1712
 72
     0
 73
     0
 74
     0
  7

 75
     0
147
1.0
 76
     0
 77
     2
 78
   300
148
0.0
149
0.0
100
AcDbLayout
  1
Model
 70
     1
 71
     0
 10
0.0
 20
0.0
 11
12.0
 21
9.0
 12
0.0
 22
0.0
 32
0.0
 14
0.0
 24
0.0
 34
0.0
 15
0.0
 25
0.0
 35
0.0
146
0.0
 13
0.0
 23
0.0
 33
0.0
 16
1.0
 26
0.0
 36
0.0
 17
0.0
 27
1.0
 37
0.0
 76
     0
330
6C
  0
MATERIAL
  5
19
102
{ACAD_XDICTIONARY
360
1A
102
}
102
{ACAD_REACTORS
330
10
102
}
330
10
100
AcDbMaterial
  1
ByBlock
 72
     0
 43
0.0208333333333333
 43
0.0
 43
0.0
 43
0.0
 43
0.0
 43
0.0208333333333333
 43
0.0
 43
0.0
 43
0.0
 43
0.0
 43
1.0
 43
0.0
 43
0.0
 43
0.0
 43
0.0
 43
1.0
 77
     0
 47
0.0208333333333333
 47
0.0
 47
0.0
 47
0.0
 47
0.0
 47
0.0208333333333333
 47
0.0
 47
0.0
 47
0.0
 47
0.0
 47
1.0
 47
0.0
 47
0.0
 47
0.0
 47
0.0
 47
1.0
171
     0
 49
0.0208333333333333
 49
0.0
 49
0.0
 49
0.0
 49
0.0
 49
0.0208333333333333
 49
0.0
 49
0.0
 49
0.0
 49
0.0
 49
1.0
 49
0.0
 49
0.0
 49
0.0
 49
0.0
 49
1.0
175
     0
142
0.0208333333333333
142
0.0
142
0.0
142
0.0
142
0.0
142
0.0208333333333333
142
0.0
142
0.0
142
0.0
142
0.0
142
1.0
142
0.0
142
0.0
142
0.0
142
0.0
142
1.0
179
     0
144
0.0208333333333333
144
0.0
144
0.0
144
0.0
144
0.0
144
0.0208333333333333
144
0.0
144
0.0
144
0.0
144
0.0
144
1.0
144
0.0
144
0.0
144
0.0
144
0.0
144
1.0
147
0.0208333333333333
147
0.0
147
0.0
147
0.0
147
0.0
147
0.0208333333333333
147
0.0
147
0.0
147
0.0
147
0.0
147
1.0
147
0.0
147
0.0
147
0.0
147
0.0
147
1.0
  0
MATERIAL
  5
11
102
{ACAD_XDICTIONARY
360
12
102
}
102
{ACAD_REACTORS
330
10
102
}
330
10
100
AcDbMaterial
  1
ByLayer
 72
     0
 43
0.0208333333333333
 43
0.0
 43
0.0
 43
0.0
 43
0.0
 43
0.0208333333333333
 43
0.0
 43
0.0
 43
0.0
 43
0.0
 43
1.0
 43
0.0
 43
0.0
 43
0.0
 43
0.0
 43
1.0
 77
     0
 47
0.0208333333333333
 47
0.0
 47
0.0
 47
0.0
 47
0.0
 47
0.0208333333333333
 47
0.0
 47
0.0
 47
0.0
 47
0.0
 47
1.0
 47
0.0
 47
0.0
 47
0.0
 47
0.0
 47
1.0
171
     0
 49
0.0208333333333333
 49
0.0
 49
0.0
 49
0.0
 49
0.0
 49
0.0208333333333333
 49
0.0
 49
0.0
 49
0.0
 49
0.0
 49
1.0
 49
0.0
 49
0.0
 49
0.0
 49
0.0
 49
1.0
175
     0
142
0.0208333333333333
142
0.0
142
0.0
142
0.0
142
0.0
142
0.0208333333333333
142
0.0
142
0.0
142
0.0
142
0.0
142
1.0
142
0.0
142
0.0
142
0.0
142
0.0
142
1.0
179
     0
144
0.0208333333333333
144
0.0
144
0.0
144
0.0
144
0.0
144
0.0208333333333333
144
0.0
144
0.0
144
0.0
144
0.0
144
1.0
144
0.0
144
0.0
144
0.0
144
0.0
144
1.0
147
0.0208333333333333
147
0.0
147
0.0
147
0.0
147
0.0
147
0.0208333333333333
147
0.0
147
0.0
147
0.0
147
0.0
147
1.0
147
0.0
147
0.0
147
0.0
147
0.0
147
1.0
  0
MATERIAL
  5
21
102
{ACAD_XDICTIONARY
360
22
102
}
102
{ACAD_REACTORS
330
10
102
}
330
10
100
AcDbMaterial
  1
Global
 72
     0
 43
0.0208333333333333
 43
0.0
 43
0.0
 43
0.0
 43
0.0
 43
0.0208333333333333
 43
0.0
 43
0.0
 43
0.0
 43
0.0
 43
1.0
 43
0.0
 43
0.0
 43
0.0
 43
0.0
 43
1.0
 77
     0
 47
0.0208333333333333
 47
0.0
 47
0.0
 47
0.0
 47
0.0
 47
0.0208333333333333
 47
0.0
 47
0.0
 47
0.0
 47
0.0
 47
1.0
 47
0.0
 47
0.0
 47
0.0
 47
0.0
 47
1.0
171
     0
 49
0.0208333333333333
 49
0.0
 49
0.0
 49
0.0
 49
0.0
 49
0.0208333333333333
 49
0.0
 49
0.0
 49
0.0
 49
0.0
 49
1.0
 49
0.0
 49
0.0
 49
0.0
 49
0.0
 49
1.0
175
     0
142
0.0208333333333333
142
0.0
142
0.0
142
0.0
142
0.0
142
0.0208333333333333
142
0.0
142
0.0
142
0.0
142
0.0
142
1.0
142
0.0
142
0.0
142
0.0
142
0.0
142
1.0
179
     0
144
0.0208333333333333
144
0.0
144
0.0
144
0.0
144
0.0
144
0.0208333333333333
144
0.0
144
0.0
144
0.0
144
0.0
144
1.0
144
0.0
144
0.0
144
0.0
144
0.0
144
1.0
147
0.0208333333333333
147
0.0
147
0.0
147
0.0
147
0.0
147
0.0208333333333333
147
0.0
147
0.0
147
0.0
147
0.0
147
1.0
147
0.0
147
0.0
147
0.0
147
0.0
147
1.0
  0
MLEADERSTYLE
  5
67
102
{ACAD_XDICTIONARY
360
339
102
}
102
{ACAD_REACTORS
330
66
102
}
330
66
100
AcDbMLeaderStyle
170
     2
171
     1
172
     0
 90
        2
 40
0.0
 41
0.0
173
     1
 91
-1056964608
340
5B
 92
       -2
290
     1
 42
0.09
291
     1
 43
0.36
  3
Standard
 44
0.18
300

342
55
174
     1
178
     6
175
     1
176
     0
 93
-1056964608
 45
0.18
292
     0
297
     0
 46
0.18
 94
-1056964608
 47
1.0
 49
1.0
140
1.0
293
     1
141
0.0
294
     1
177
     0
142
1.0
295
     0
296
     0
143
0.125
1001
ACAD_MLEADERVER
1070
     2
  0
MLINESTYLE
  5
60
102
{ACAD_REACTORS
330
5F
102
}
330
5F
100
AcDbMlineStyle
  2
STANDARD
 70
     0
  3

 62
   256
 51
90.0
 52
90.0
 71
     2
 49
0.5
 62
   256
  6
BYLAYER
 49
-0.5
 62
   256
  6
BYLAYER
  0
ACDBPLACEHOLDER
  5
F
102
{ACAD_REACTORS
330
E
102
}
330
E
  0
SCALE
  5
43
102
{ACAD_REACTORS
330
42
102
}
330
42
100
AcDbScale
 70
     0
300
1:1
140
1.0
141
1.0
290
     1
  0
SCALE
  5
44
102
{ACAD_REACTORS
330
42
102
}
330
42
100
AcDbScale
 70
     0
300
1/128" = 1'-0"
140
0.0078125
141
12.0
290
     0
  0
SCALE
  5
45
102
{ACAD_REACTORS
330
42
102
}
330
42
100
AcDbScale
 70
     0
300
1/64" = 1'-0"
140
0.015625
141
12.0
290
     0
  0
SCALE
  5
46
102
{ACAD_REACTORS
330
42
102
}
330
42
100
AcDbScale
 70
     0
300
1/32" = 1'-0"
140
0.03125
141
12.0
290
     0
  0
SCALE
  5
47
102
{ACAD_REACTORS
330
42
102
}
330
42
100
AcDbScale
 70
     0
300
1/16" = 1'-0"
140
0.0625
141
12.0
290
     0
  0
SCALE
  5
48
102
{ACAD_REACTORS
330
42
102
}
330
42
100
AcDbScale
 70
     0
300
3/32" = 1'-0"
140
0.09375
141
12.0
290
     0
  0
SCALE
  5
49
102
{ACAD_REACTORS
330
42
102
}
330
42
100
AcDbScale
 70
     0
300
1/8" = 1'-0"
140
0.125
141
12.0
290
     0
  0
SCALE
  5
4A
102
{ACAD_REACTORS
330
42
102
}
330
42
100
AcDbScale
 70
     0
300
3/16" = 1'-0"
140
0.1875
141
12.0
290
     0
  0
SCALE
  5
4B
102
{ACAD_REACTORS
330
42
102
}
330
42
100
AcDbScale
 70
     0
300
1/4" = 1'-0"
140
0.25
141
12.0
290
     0
  0
SCALE
  5
4C
102
{ACAD_REACTORS
330
42
102
}
330
42
100
AcDbScale
 70
     0
300
3/8" = 1'-0"
140
0.375
141
12.0
290
     0
  0
SCALE
  5
4D
102
{ACAD_REACTORS
330
42
102
}
330
42
100
AcDbScale
 70
     0
300
1/2" = 1'-0"
140
0.5
141
12.0
290
     0
  0
SCALE
  5
4E
102
{ACAD_REACTORS
330
42
102
}
330
42
100
AcDbScale
 70
     0
300
3/4" = 1'-0"
140
0.75
141
12.0
290
     0
  0
SCALE
  5
4F
102
{ACAD_REACTORS
330
42
102
}
330
42
100
AcDbScale
 70
     0
300
1" = 1'-0"
140
1.0
141
12.0
290
     0
  0
SCALE
  5
50
102
{ACAD_REACTORS
330
42
102
}
330
42
100
AcDbScale
 70
     0
300
1-1/2" = 1'-0"
140
1.5
141
12.0
290
     0
  0
SCALE
  5
51
102
{ACAD_REACTORS
330
42
102
}
330
42
100
AcDbScale
 70
     0
300
3" = 1'-0"
140
3.0
141
12.0
290
     0
  0
SCALE
  5
52
102
{ACAD_REACTORS
330
42
102
}
330
42
100
AcDbScale
 70
     0
300
6" = 1'-0"
140
6.0
141
12.0
290
     0
  0
SCALE
  5
53
102
{ACAD_REACTORS
330
42
102
}
330
42
100
AcDbScale
 70
     0
300
1'-0" = 1'-0"
140
12.0
141
12.0
290
     0
  0
TABLESTYLE
  5
65
102
{ACAD_XDICTIONARY
360
337
102
}
102
{ACAD_REACTORS
330
64
102
}
330
64
100
AcDbTableStyle
  3
Standard
 70
     0
 71
     0
 40
0.06
 41
0.06
280
     0
281
     0
  7
Standard
140
0.18
170
     2
 62
     0
 63
     7
283
     0
274
    -2
284
     1
 64
     0
275
    -2
285
     1
 65
     0
276
    -2
286
     1
 66
     0
277
    -2
287
     1
 67
     0
278
    -2
288
     1
 68
     0
279
    -2
289
     1
 69
     0
  7
Standard
140
0.25
170
     5
 62
     0
 63
     7
283
     0
274
    -2
284
     1
 64
     0
275
    -2
285
     1
 65
     0
276
    -2
286
     1
 66
     0
277
    -2
287
     1
 67
     0
278
    -2
288
     1
 68
     0
279
    -2
289
     1
 69
     0
  7
Standard
140
0.18
170
     5
 62
     0
 63
     7
283
     0
274
    -2
284
     1
 64
     0
275
    -2
285
     1
 65
     0
276
    -2
286
     1
 66
     0
277
    -2
287
     1
 67
     0
278
    -2
288
     1
 68
     0
279
    -2
289
     1
 69
     0
  0
VISUALSTYLE
  5
2F
102
{ACAD_XDICTIONARY
360
34F
102
}
102
{ACAD_REACTORS
330
29
102
}
330
29
100
AcDbVisualStyle
  2
2dWireframe
 70
     4
 71
     0
 72
     2
 73
     0
 90
        0
 40
-0.6
 41
-30.0
 62
     5
 63
     7
421
 16777215
 74
     1
 91
        4
 64
     7
 65
   257
 75
     1
175
     1
 42
1.0
 92
        0
 66
   257
 43
1.0
 76
     1
 77
     6
 78
     2
 67
     7
 79
     5
170
     0
171
     0
290
     0
174
     0
 93
        1
 44
0.0
173
     0
291
     0
 45
0.0
1001
ACAD
1000
AcDbSavedByObjectVersion
1070
     0
  0
VISUALSTYLE
  5
2E
102
{ACAD_XDICTIONARY
360
34D
102
}
102
{ACAD_REACTORS
330
29
102
}
330
29
100
AcDbVisualStyle
  2
Basic
 70
     7
 71
     1
 72
     0
 73
     1
 90
        0
 40
-0.6
 41
-30.0
 62
     5
 63
     7
421
 16777215
 74
     0
 91
        4
 64
     7
 65
   257
 75
     1
175
     1
 42
1.0
 92
        8
 66
     7
 43
1.0
 76
     1
 77
     6
 78
     2
 67
     7
 79
     5
170
     0
171
     0
290
     0
174
     0
 93
        1
 44
0.0
173
     0
291
     1
 45
0.0
1001
ACAD
1000
AcDbSavedByObjectVersion
1070
     0
  0
VISUALSTYLE
  5
35
102
{ACAD_XDICTIONARY
360
35B
102
}
102
{ACAD_REACTORS
330
29
102
}
330
29
100
AcDbVisualStyle
  2
Brighten
 70
    12
 71
     2
 72
     2
 73
     0
 90
        0
 40
-0.6
 41
-30.0
 62
     5
 63
     7
421
 16777215
 74
     1
 91
        4
 64
     7
 65
   257
 75
     1
175
     1
 42
1.0
 92
        8
 66
     7
 43
1.0
 76
     1
 77
     6
 78
     2
 67
     7
 79
     5
170
     0
171
     0
290
     0
174
     0
 93
        1
 44
50.0
173
     0
291
     1
 45
0.0
1001
ACAD
1000
AcDbSavedByObjectVersion
1070
     0
  0
VISUALSTYLE
  5
39
102
{ACAD_XDICTIONARY
360
363
102
}
102
{ACAD_REACTORS
330
29
102
}
330
29
100
AcDbVisualStyle
  2
ColorChange
 70
    16
 71
     2
 72
     2
 73
     3
 90
        0
 40
-0.6
 41
-30.0
 62
     5
 63
     8
421
  8421504
 74
     1
 91
        4
 64
     7
 65
   257
 75
     1
175
     1
 42
1.0
 92
        8
 66
     8
424
  8421504
 43
1.0
 76
     1
 77
     6
 78
     2
 67
     7
 79
     5
170
     0
171
     0
290
     0
174
     0
 93
        1
 44
0.0
173
     0
291
     1
 45
0.0
1001
ACAD
1000
AcDbSavedByObjectVersion
1070
     0
  0
VISUALSTYLE
  5
32
102
{ACAD_XDICTIONARY
360
355
102
}
102
{ACAD_REACTORS
330
29
102
}
330
29
100
AcDbVisualStyle
  2
Conceptual
 70
     9
 71
     3
 72
     2
 73
     0
 90
        0
 40
-0.6
 41
-30.0
 62
     5
 63
     7
421
 16777215
 74
     2
 91
        2
 64
     7
 65
   257
 75
     1
175
     1
 42
179.0
 92
        8
 66
     7
 43
1.0
 76
     1
 77
     6
 78
     2
 67
     7
 79
     3
170
     0
171
     0
290
     0
174
     0
 93
        1
 44
0.0
173
     0
291
     0
 45
0.0
1001
ACAD
1000
AcDbSavedByObjectVersion
1070
     0
  0
VISUALSTYLE
  5
34
102
{ACAD_XDICTIONARY
360
359
102
}
102
{ACAD_REACTORS
330
29
102
}
330
29
100
AcDbVisualStyle
  2
Dim
 70
    11
 71
     2
 72
     2
 73
     0
 90
        0
 40
-0.6
 41
-30.0
 62
     5
 63
     7
421
 16777215
 74
     1
 91
        4
 64
     7
 65
   257
 75
     1
175
     1
 42
1.0
 92
        8
 66
     7
 43
1.0
 76
     1
 77
     6
 78
     2
 67
     7
 79
     5
170
     0
171
     0
290
     0
174
     0
 93
        1
 44
-50.0
173
     0
291
     1
 45
0.0
1001
ACAD
1000
AcDbSavedByObjectVersion
1070
     0
  0
VISUALSTYLE
  5
41
102
{ACAD_XDICTIONARY
360
373
102
}
102
{ACAD_REACTORS
330
29
102
}
330
29
100
AcDbVisualStyle
  2
EdgeColorOff
 70
    22
 71
     2
 72
     2
 73
     0
 90
        0
 40
-0.6
 41
-30.0
 62
     5
 63
     7
421
 16777215
 74
     1
 91
        4
 64
     7
 65
   257
 75
     1
175
     1
 42
1.0
 92
        8
 66
     7
 43
1.0
 76
     1
 77
     6
 78
     2
 67
     7
 79
     5
170
     0
171
     0
290
     0
174
     0
 93
        1
 44
0.0
173
     0
291
     1
 45
0.0
1001
ACAD
1000
AcDbSavedByObjectVersion
1070
     0
  0
VISUALSTYLE
  5
38
102
{ACAD_XDICTIONARY
360
361
102
}
102
{ACAD_REACTORS
330
29
102
}
330
29
100
AcDbVisualStyle
  2
Facepattern
 70
    15
 71
     2
 72
     2
 73
     0
 90
        0
 40
-0.6
 41
-30.0
 62
     5
 63
     7
421
 16777215
 74
     1
 91
        4
 64
     7
 65
   257
 75
     1
175
     1
 42
1.0
 92
        8
 66
     7
 43
1.0
 76
     1
 77
     6
 78
     2
 67
     7
 79
     5
170
     0
171
     0
290
     0
174
     0
 93
        1
 44
0.0
173
     0
291
     1
 45
0.0
1001
ACAD
1000
AcDbSavedByObjectVersion
1070
     0
  0
VISUALSTYLE
  5
2A
102
{ACAD_XDICTIONARY
360
345
102
}
102
{ACAD_REACTORS
330
29
102
}
330
29
100
AcDbVisualStyle
  2
Flat
 70
     0
 71
     2
 72
     1
 73
     1
 90
        2
 40
-0.6
 41
30.0
 62
     5
 63
     7
421
 16777215
 74
     0
 91
        0
 64
     7
 65
   257
 75
     1
175
     1
 42
1.0
 92
        8
 66
     7
 43
1.0
 76
     1
 77
     6
 78
     2
 67
     7
 79
     5
170
     0
171
     0
290
     0
174
     0
 93
       13
 44
0.0
173
     0
291
     1
 45
0.0
1001
ACAD
1000
AcDbSavedByObjectVersion
1070
     0
  0
VISUALSTYLE
  5
2B
102
{ACAD_XDICTIONARY
360
347
102
}
102
{ACAD_REACTORS
330
29
102
}
330
29
100
AcDbVisualStyle
  2
FlatWithEdges
 70
     1
 71
     2
 72
     1
 73
     1
 90
        2
 40
-0.6
 41
30.0
 62
     5
 63
     7
421
 16777215
 74
     1
 91
        0
 64
     7
 65
   257
 75
     1
175
     1
 42
1.0
 92
        0
 66
   257
 43
1.0
 76
     1
 77
     6
 78
     2
 67
     7
 79
     5
170
     0
171
     0
290
     0
174
     0
 93
       13
 44
0.0
173
     0
291
     1
 45
0.0
1001
ACAD
1000
AcDbSavedByObjectVersion
1070
     0
  0
VISUALSTYLE
  5
2C
102
{ACAD_XDICTIONARY
360
349
102
}
102
{ACAD_REACTORS
330
29
102
}
330
29
100
AcDbVisualStyle
  2
Gouraud
 70
     2
 71
     2
 72
     2
 73
     1
 90
        2
 40
-0.6
 41
30.0
 62
     5
 63
     7
421
 16777215
 74
     0
 91
        0
 64
     7
 65
   257
 75
     1
175
     1
 42
1.0
 92
        0
 66
     7
 43
1.0
 76
     1
 77
     6
 78
     2
 67
     7
 79
     5
170
     0
171
     0
290
     0
174
     0
 93
       13
 44
0.0
173
     0
291
     1
 45
0.0
1001
ACAD
1000
AcDbSavedByObjectVersion
1070
     0
  0
VISUALSTYLE
  5
2D
102
{ACAD_XDICTIONARY
360
34B
102
}
102
{ACAD_REACTORS
330
29
102
}
330
29
100
AcDbVisualStyle
  2
GouraudWithEdges
 70
     3
 71
     2
 72
     2
 73
     1
 90
        2
 40
-0.6
 41
30.0
 62
     5
 63
     7
421
 16777215
 74
     1
 91
        0
 64
     7
 65
   257
 75
     1
175
     1
 42
1.0
 92
        0
 66
   257
 43
1.0
 76
     1
 77
     6
 78
     2
 67
     7
 79
     5
170
     0
171
     0
290
     0
174
     0
 93
       13
 44
0.0
173
     0
291
     1
 45
0.0
1001
ACAD
1000
AcDbSavedByObjectVersion
1070
     0
  0
VISUALSTYLE
  5
31
102
{ACAD_XDICTIONARY
360
353
102
}
102
{ACAD_REACTORS
330
29
102
}
330
29
100
AcDbVisualStyle
  2
Hidden
 70
     6
 71
     1
 72
     2
 73
     2
 90
        0
 40
-0.6
 41
-30.0
 62
     5
 63
     7
421
 16777215
 74
     2
 91
        2
 64
     7
 65
   257
 75
     2
175
     1
 42
40.0
 92
        0
 66
   257
 43
1.0
 76
     1
 77
     6
 78
     2
 67
     7
 79
     3
170
     0
171
     0
290
     0
174
     0
 93
        1
 44
0.0
173
     0
291
     0
 45
0.0
1001
ACAD
1000
AcDbSavedByObjectVersion
1070
     0
  0
VISUALSTYLE
  5
3F
102
{ACAD_XDICTIONARY
360
36F
102
}
102
{ACAD_REACTORS
330
29
102
}
330
29
100
AcDbVisualStyle
  2
JitterOff
 70
    20
 71
     2
 72
     2
 73
     0
 90
        0
 40
-0.6
 41
-30.0
 62
     5
 63
     7
421
 16777215
 74
     1
 91
        4
 64
     7
 65
   257
 75
     1
175
     1
 42
1.0
 92
       10
 66
     7
 43
1.0
 76
     1
 77
     6
 78
     2
 67
     7
 79
     5
170
     0
171
     0
290
     0
174
     0
 93
        1
 44
0.0
173
     0
291
     1
 45
0.0
1001
ACAD
1000
AcDbSavedByObjectVersion
1070
     0
  0
VISUALSTYLE
  5
37
102
{ACAD_XDICTIONARY
360
35F
102
}
102
{ACAD_REACTORS
330
29
102
}
330
29
100
AcDbVisualStyle
  2
Linepattern
 70
    14
 71
     2
 72
     2
 73
     0
 90
        0
 40
-0.6
 41
-30.0
 62
     5
 63
     7
421
 16777215
 74
     1
 91
        4
 64
     7
 65
   257
 75
     7
175
     7
 42
1.0
 92
        8
 66
     7
 43
1.0
 76
     1
 77
     6
 78
     2
 67
     7
 79
     5
170
     0
171
     0
290
     0
174
     0
 93
        1
 44
0.0
173
     0
291
     1
 45
0.0
1001
ACAD
1000
AcDbSavedByObjectVersion
1070
     0
  0
VISUALSTYLE
  5
40
102
{ACAD_XDICTIONARY
360
371
102
}
102
{ACAD_REACTORS
330
29
102
}
330
29
100
AcDbVisualStyle
  2
OverhangOff
 70
    21
 71
     2
 72
     2
 73
     0
 90
        0
 40
-0.6
 41
-30.0
 62
     5
 63
     7
421
 16777215
 74
     1
 91
        4
 64
     7
 65
   257
 75
     1
175
     1
 42
1.0
 92
        9
 66
     7
 43
1.0
 76
     1
 77
     6
 78
     2
 67
     7
 79
     5
170
     0
171
     0
290
     0
174
     0
 93
        1
 44
0.0
173
     0
291
     1
 45
0.0
1001
ACAD
1000
AcDbSavedByObjectVersion
1070
     0
  0
VISUALSTYLE
  5
33
102
{ACAD_XDICTIONARY
360
357
102
}
102
{ACAD_REACTORS
330
29
102
}
330
29
100
AcDbVisualStyle
  2
Realistic
 70
     8
 71
     2
 72
     3
 73
     0
 90
        2
 40
-0.6
 41
30.0
 62
     5
 63
     7
421
 16777215
 74
     0
 91
        0
 64
     7
 65
   257
 75
     1
175
     1
 42
1.0
 92
        8
 66
   257
 43
1.0
 76
     1
 77
     6
 78
     2
 67
     7
 79
     3
170
     0
171
     0
290
     0
174
     0
 93
       13
 44
0.0
173
     0
291
     0
 45
0.0
1001
ACAD
1000
AcDbSavedByObjectVersion
1070
     0
  0
VISUALSTYLE
  5
3E
102
{ACAD_XDICTIONARY
360
36D
102
}
102
{ACAD_REACTORS
330
29
102
}
330
29
100
AcDbVisualStyle
  2
Shaded
 70
    27
 71
     2
 72
     2
 73
     1
 90
        2
 40
-0.6
 41
30.0
 62
     5
 63
     7
421
 16777215
 74
     0
 91
        4
 64
     7
 65
   257
 75
     1
175
     1
 42
1.0
 92
        8
 66
   257
 43
1.0
 76
     1
 77
     6
 78
     2
 67
     8
425
  7895160
 79
     3
170
     0
171
     0
290
     0
174
     0
 93
        5
 44
0.0
173
     0
291
     0
 45
0.0
1001
ACAD
1000
AcDbSavedByObjectVersion
1070
     0
  0
VISUALSTYLE
  5
3D
102
{ACAD_XDICTIONARY
360
36B
102
}
102
{ACAD_REACTORS
330
29
102
}
330
29
100
AcDbVisualStyle
  2
Shaded with edges
 70
    26
 71
     2
 72
     2
 73
     1
 90
        2
 40
-0.6
 41
30.0
 62
     5
 63
     7
421
 16777215
 74
     1
 91
       10
 64
     7
 65
   257
 75
     2
175
     1
 42
1.0
 92
        8
 66
   257
 43
1.0
 76
     1
 77
     6
 78
     2
 67
     7
 79
     3
170
     0
171
     0
290
     0
174
     0
 93
        5
 44
0.0
173
     0
291
     0
 45
0.0
1001
ACAD
1000
AcDbSavedByObjectVersion
1070
     0
  0
VISUALSTYLE
  5
3A
102
{ACAD_XDICTIONARY
360
365
102
}
102
{ACAD_REACTORS
330
29
102
}
330
29
100
AcDbVisualStyle
  2
Shades of Gray
 70
    23
 71
     2
 72
     2
 73
     3
 90
        0
 40
-0.6
 41
-30.0
 62
     5
 63
     7
421
 16777215
 74
     2
 91
        2
 64
     7
 65
     7
 75
     1
175
     1
 42
40.0
 92
        8
 66
     7
 43
1.0
 76
     1
 77
     6
 78
     2
 67
     7
 79
     3
170
     0
171
     0
290
     0
174
     0
 93
        1
 44
0.0
173
     0
291
     0
 45
0.0
1001
ACAD
1000
AcDbSavedByObjectVersion
1070
     0
  0
VISUALSTYLE
  5
3B
102
{ACAD_XDICTIONARY
360
367
102
}
102
{ACAD_REACTORS
330
29
102
}
330
29
100
AcDbVisualStyle
  2
Sketchy
 70
    24
 71
     1
 72
     2
 73
     2
 90
        0
 40
-0.6
 41
-30.0
 62
     5
 63
     7
421
 16777215
 74
     2
 91
        2
 64
     7
 65
     7
 75
     1
175
     1
 42
40.0
 92
       11
 66
     7
 43
1.0
 76
     1
 77
     6
 78
     2
 67
     7
 79
     6
170
     0
171
     0
290
     0
174
     0
 93
        1
 44
0.0
173
     0
291
     0
 45
0.0
1001
ACAD
1000
AcDbSavedByObjectVersion
1070
     0
  0
VISUALSTYLE
  5
36
102
{ACAD_XDICTIONARY
360
35D
102
}
102
{ACAD_REACTORS
330
29
102
}
330
29
100
AcDbVisualStyle
  2
Thicken
 70
    13
 71
     2
 72
     2
 73
     0
 90
        0
 40
-0.6
 41
-30.0
 62
     5
 63
     7
421
 16777215
 74
     1
 91
        4
 64
     7
 65
   257
 75
     1
175
     1
 42
1.0
 92
       12
 66
     7
 43
1.0
 76
     1
 77
     6
 78
     2
 67
     7
 79
     5
170
     0
171
     0
290
     0
174
     0
 93
        1
 44
0.0
173
     0
291
     1
 45
0.0
1001
ACAD
1000
AcDbSavedByObjectVersion
1070
     0
  0
VISUALSTYLE
  5
30
102
{ACAD_XDICTIONARY
360
351
102
}
102
{ACAD_REACTORS
330
29
102
}
330
29
100
AcDbVisualStyle
  2
Wireframe
 70
     5
 71
     0
 72
     2
 73
     0
 90
        0
 40
-0.6
 41
-30.0
 62
     5
 63
     7
421
 16777215
 74
     1
 91
        4
 64
     7
 65
   257
 75
     1
175
     1
 42
1.0
 92
        0
 66
   257
 43
1.0
 76
     1
 77
     6
 78
     2
 67
     7
 79
     3
170
     0
171
     0
290
     0
174
     0
 93
        1
 44
0.0
173
     0
291
     0
 45
0.0
1001
ACAD
1000
AcDbSavedByObjectVersion
1070
     0
  0
VISUALSTYLE
  5
3C
102
{ACAD_XDICTIONARY
360
369
102
}
102
{ACAD_REACTORS
330
29
102
}
330
29
100
AcDbVisualStyle
  2
X-Ray
 70
    25
 71
     2
 72
     2
 73
     1
 90
        1
 40
0.5
 41
-30.0
 62
     5
 63
     7
421
 16777215
 74
     1
 91
        0
 64
     7
 65
   257
 75
     1
175
     1
 42
1.0
 92
        8
 66
     7
 43
1.0
 76
     1
 77
     6
 78
     2
 67
     7
 79
     3
170
     0
171
     0
290
     0
174
     0
 93
       13
 44
0.0
173
     0
291
     0
 45
0.0
1001
ACAD
1000
AcDbSavedByObjectVersion
1070
     0
  0
DICTIONARYVAR
  5
332
102
{ACAD_REACTORS
330
32E
102
}
330
32E
100
DictionaryVariables
280
     0
  1
1:1
  0
DICTIONARYVAR
  5
330
102
{ACAD_REACTORS
330
32E
102
}
330
32E
100
DictionaryVariables
280
     0
  1
STANDARD
  0
DICTIONARYVAR
  5
32F
102
{ACAD_REACTORS
330
32E
102
}
330
32E
100
DictionaryVariables
280
     0
  1
STANDARD
  0
DICTIONARYVAR
  5
334
102
{ACAD_REACTORS
330
32E
102
}
330
32E
100
DictionaryVariables
280
     0
  1
0
  0
DICTIONARYVAR
  5
335
102
{ACAD_REACTORS
330
32E
102
}
330
32E
100
DictionaryVariables
280
     0
  1
0
  0
DICTIONARYVAR
  5
333
102
{ACAD_REACTORS
330
32E
102
}
330
32E
100
DictionaryVariables
280
     0
  1
2
  0
DICTIONARYVAR
  5
331
102
{ACAD_REACTORS
330
32E
102
}
330
32E
100
DictionaryVariables
280
     0
  1
1
  0
DICTIONARYVAR
  5
336
102
{ACAD_REACTORS
330
32E
102
}
330
32E
100
DictionaryVariables
280
     0
  1
2
  0
DICTIONARY
  5
1A
330
19
100
AcDbDictionary
280
     1
281
     1
  3
ACAD_XREC_ROUNDTRIP
360
343
  3
BUMPTILE
360
1C
  3
DIFFUSETILE
360
1B
  3
OPACITYTILE
360
1F
  3
REFLECTIONTILE
360
1E
  3
REFRACTIONTILE
360
20
  3
SPECULARTILE
360
1D
  0
DICTIONARY
  5
12
330
11
100
AcDbDictionary
280
     1
281
     1
  3
ACAD_XREC_ROUNDTRIP
360
342
  3
BUMPTILE
360
14
  3
DIFFUSETILE
360
13
  3
FBXASSET
360
AC
  3
OPACITYTILE
360
17
  3
REFLECTIONTILE
360
16
  3
REFRACTIONTILE
360
18
  3
SPECULARTILE
360
15
  0
DICTIONARY
  5
22
330
21
100
AcDbDictionary
280
     1
281
     1
  3
ACAD_XREC_ROUNDTRIP
360
344
  3
BUMPTILE
360
24
  3
DIFFUSETILE
360
23
  3
OPACITYTILE
360
27
  3
REFLECTIONTILE
360
26
  3
REFRACTIONTILE
360
28
  3
SPECULARTILE
360
25
  0
DICTIONARY
  5
339
330
67
100
AcDbDictionary
280
     1
281
     1
  3
ACAD_XREC_ROUNDTRIP
360
33A
  0
DICTIONARY
  5
337
330
65
100
AcDbDictionary
280
     1
281
     1
  3
ACAD_ROUNDTRIP_2008_TABLESTYLE_CELLSTYLEMAP
360
338
  3
ACAD_XREC_ROUNDTRIP
360
375
  0
DICTIONARY
  5
34F
330
2F
100
AcDbDictionary
280
     1
281
     1
  3
ACAD_XREC_ROUNDTRIP
360
350
  0
DICTIONARY
  5
34D
330
2E
100
AcDbDictionary
280
     1
281
     1
  3
ACAD_XREC_ROUNDTRIP
360
34E
  0
DICTIONARY
  5
35B
330
35
100
AcDbDictionary
280
     1
281
     1
  3
ACAD_XREC_ROUNDTRIP
360
35C
  0
DICTIONARY
  5
363
330
39
100
AcDbDictionary
280
     1
281
     1
  3
ACAD_XREC_ROUNDTRIP
360
364
  0
DICTIONARY
  5
355
330
32
100
AcDbDictionary
280
     1
281
     1
  3
ACAD_XREC_ROUNDTRIP
360
356
  0
DICTIONARY
  5
359
330
34
100
AcDbDictionary
280
     1
281
     1
  3
ACAD_XREC_ROUNDTRIP
360
35A
  0
DICTIONARY
  5
373
330
41
100
AcDbDictionary
280
     1
281
     1
  3
ACAD_XREC_ROUNDTRIP
360
374
  0
DICTIONARY
  5
361
330
38
100
AcDbDictionary
280
     1
281
     1
  3
ACAD_XREC_ROUNDTRIP
360
362
  0
DICTIONARY
  5
345
330
2A
100
AcDbDictionary
280
     1
281
     1
  3
ACAD_XREC_ROUNDTRIP
360
346
  0
DICTIONARY
  5
347
330
2B
100
AcDbDictionary
280
     1
281
     1
  3
ACAD_XREC_ROUNDTRIP
360
348
  0
DICTIONARY
  5
349
330
2C
100
AcDbDictionary
280
     1
281
     1
  3
ACAD_XREC_ROUNDTRIP
360
34A
  0
DICTIONARY
  5
34B
330
2D
100
AcDbDictionary
280
     1
281
     1
  3
ACAD_XREC_ROUNDTRIP
360
34C
  0
DICTIONARY
  5
353
330
31
100
AcDbDictionary
280
     1
281
     1
  3
ACAD_XREC_ROUNDTRIP
360
354
  0
DICTIONARY
  5
36F
330
3F
100
AcDbDictionary
280
     1
281
     1
  3
ACAD_XREC_ROUNDTRIP
360
370
  0
DICTIONARY
  5
35F
330
37
100
AcDbDictionary
280
     1
281
     1
  3
ACAD_XREC_ROUNDTRIP
360
360
  0
DICTIONARY
  5
371
330
40
100
AcDbDictionary
280
     1
281
     1
  3
ACAD_XREC_ROUNDTRIP
360
372
  0
DICTIONARY
  5
357
330
33
100
AcDbDictionary
280
     1
281
     1
  3
ACAD_XREC_ROUNDTRIP
360
358
  0
DICTIONARY
  5
36D
330
3E
100
AcDbDictionary
280
     1
281
     1
  3
ACAD_XREC_ROUNDTRIP
360
36E
  0
DICTIONARY
  5
36B
330
3D
100
AcDbDictionary
280
     1
281
     1
  3
ACAD_XREC_ROUNDTRIP
360
36C
  0
DICTIONARY
  5
365
330
3A
100
AcDbDictionary
280
     1
281
     1
  3
ACAD_XREC_ROUNDTRIP
360
366
  0
DICTIONARY
  5
367
330
3B
100
AcDbDictionary
280
     1
281
     1
  3
ACAD_XREC_ROUNDTRIP
360
368
  0
DICTIONARY
  5
35D
330
36
100
AcDbDictionary
280
     1
281
     1
  3
ACAD_XREC_ROUNDTRIP
360
35E
  0
DICTIONARY
  5
351
330
30
100
AcDbDictionary
280
     1
281
     1
  3
ACAD_XREC_ROUNDTRIP
360
352
  0
DICTIONARY
  5
369
330
3C
100
AcDbDictionary
280
     1
281
     1
  3
ACAD_XREC_ROUNDTRIP
360
36A
  0
XRECORD
  5
343
102
{ACAD_REACTORS
330
1A
102
}
330
1A
100
AcDbXrecord
280
     1
102
MATERIAL
148
0.0
149
0.0
149
0.0
 93
        0
 94
      127
282
     0
 72
     0
 77
     0
171
     0
175
     0
179
     0
273
     0
  0
XRECORD
  5
1C
102
{ACAD_REACTORS
330
1A
102
}
330
1A
100
AcDbXrecord
280
     1
270
     1
271
     1
  0
XRECORD
  5
1B
102
{ACAD_REACTORS
330
1A
102
}
330
1A
100
AcDbXrecord
280
     1
270
     1
271
     1
  0
XRECORD
  5
1F
102
{ACAD_REACTORS
330
1A
102
}
330
1A
100
AcDbXrecord
280
     1
270
     1
271
     1
  0
XRECORD
  5
1E
102
{ACAD_REACTORS
330
1A
102
}
330
1A
100
AcDbXrecord
280
     1
270
     1
271
     1
  0
XRECORD
  5
20
102
{ACAD_REACTORS
330
1A
102
}
330
1A
100
AcDbXrecord
280
     1
270
     1
271
     1
  0
XRECORD
  5
1D
102
{ACAD_REACTORS
330
1A
102
}
330
1A
100
AcDbXrecord
280
     1
270
     1
271
     1
  0
XRECORD
  5
342
102
{ACAD_REACTORS
330
12
102
}
330
12
100
AcDbXrecord
280
     1
102
MATERIAL
148
0.0
149
0.0
149
0.0
 93
        0
 94
      127
282
     0
 72
     0
 77
     0
171
     0
175
     0
179
     0
273
     0
  0
XRECORD
  5
14
102
{ACAD_REACTORS
330
12
102
}
330
12
100
AcDbXrecord
280
     1
270
     1
271
     1
  0
XRECORD
  5
13
102
{ACAD_REACTORS
330
12
102
}
330
12
100
AcDbXrecord
280
     1
270
     1
271
     1
  0
XRECORD
  5
AC
102
{ACAD_REACTORS
330
12
102
}
330
12
100
AcDbXrecord
280
     1
 70
     1
 90
1959938040
 71
     1
  1
F62BD14B-575B-492C-AFA7-C3EBE1960ADB
311
504B03040A0000080000FDA028483DEE336E79000000790000001B0000006175746F6465736B2D64657369676E2D7061636B6167652E786D6C3C3F786D6C2076657273696F6E3D22312E302220656E636F64696E673D227574662D3822203F3E3C666F726D6174733E3C666F726D61743E687474703A2F2F736368656D612E
311
6175746F6465736B2E636F6D2F64657369676E2D7061636B6167652F323030393C2F666F726D61743E3C2F666F726D6174733E504B0304140006080800FDA02848D486FD9CA0000000F4000000130000005B436F6E74656E745F54797065735D2E786D6C7D8EC10E82300C865F65E91D8A1E8C310C0EEA1BF002731658846E
311
D98AC1B77784ABF1D8FE5FBFBF75BBCE937A534CCEB38643598122B6FEE978D0B0485F9C41B54DDD7D022595594E1A469170414C76A4D9A4D207E29CF43ECE46F218070CC6BECC4078ACAA135ACF422C856C0E68EA1BF5669944DDD7BCDE7B1F8E415D77AECB980613C2E4AC91FC167A2B244592486606FC29C8FD7F045B9A
311
EF7053A7E60B504B0304140006080800FDA028482D722326EC0000007C01000008000000636F72652E786D6C8D904D6EC3201085AF82665BE1603BFE1526AA1DF704BD0002E2A0C46019A87AFCE2C491DA5D57337AF3BE99D1A3A7EFF98EBED4EAB4351DA40901A48CB0529BA983E02FB806746274B5D6FFB201327C561D6C
311
32303AAD362CBB24ACF1CAF8A81A2BD52E72E7940724EEB1E9C089AB9A79C2838F0E774B162E6E7C5249FAEA221C8296E87944CBB84F5FB45A81355545C6BC3EE2611C067CEC9B02F779F18ECB8F211F9B7E2CCFD5991E369851AFE7D77DB12AEE95049691B4C424C5A4FECC484BAAB6A8DF48D312420F9BFD0F1416F94F28
311
68E3F36C7FF7893960697CE43160F4B06511CB23A858B7DCD80F504B0304140006080800FDA0284855019EA25F0000007C00000007000000636E782E786D6C4DCB3B0E80201045D1AD90E915ED2CF8AC45050C11660C8261F98AB1B07AC9C97D42D718D865D3E909258CFD00CCE24AC6E326A164D74DC0B4128928FF326038
311
472BA13128B1252AC747C6BAB984FC68F0B87FE8960A5C09FE86CFB69FBA01504B0304140006080800FDA02848930293C868010000020300000C0000006662782F636F72652E786D6C8D52D18E823010FC95A6AF1768011530A5E644EF0BEE072A548E082D292DF1F36F110CE7C51843529A999DDDD901B6BBB60D1AA4E96B
311
AD321CF81423A90A5DD6AACAB0B3672FC168C799D1DAFE29C3488956667884316795D1AE9BA1422B2B950554E952CEA0E87B69312A1AB864B82F7E642B7CE12C54F417BF13C54554D20F7CA0A18EB3DE1A3080A621E389F9F9746564C23973AE2E67B62E615A7DAEA5C13C8D637A8C9295971FF3DC5BEDD3B5B78FD69FDEE6
311
2B8F8EE9FEB839C40746463167B66EEFEE0A23859525E6210D361E0D3C9A7C87744BE3ED3AF9A0E9965246C6F20791EBCA3745AE56360A67BB93ACC73C002337E2DFB6109145BD18C00FE18C8C21C2EB96F063D01008846CC5A9B9EF7101689085D566054CA9DD420DA27112A652747B189958E87C6B009B3DED13BEE8F3BA
311
077C40A12AB0262C5C4FCE8ED3D934758EA293C61BEC15296D5AD12CE6268BCBB90C7A2A2F74A3CD3B6A32AF4AE630C9F8F7F25F504B0304140006080800FDA02848D4ED13137D0000009D0000000B0000006662782F636E782E786D6C4DCCDF0AC2201C86E15B91DFB9CDBFD5817398E07D8CE686E4344CA3CB6F8B1D74F4
311
C1C3C7AB86CF1AD1DB9757C8A9077A22807CBAE729A4A58756677C0534685572AE7F3740695C7D0F3B83564BC9ED79D0E4E7B1C5BA690CE971E08D98B3348462E6ACC1821B870D770C7369AD7092D00B13D069D5FD4ADBEE61FD05504B0304140006080800FDA028483B8A626A2C01000015020000310000006662782F4230
311
4136354130312D324643412D343341462D413346322D3335434334463530313732342F636F72652E786D6C8D515B6EC32010BC0AE22B55651BFC8A1B612237924FD00B50435294182C1E558EDFA576A4F62F3F2C9A9D991DEDB2E37DBEA16FE5BCB6A6C7342718293359A9CDA5C7319CB30EA32367CEDAF087869111B3EA71
311
8231671767E3B2419335419900A8B1526DA0F05E058CA61B7C7AECA72F358B5CC4000C7FCD17315DC545E5348736F038F3C14100B40E492FE6EF64689B81D0AC1C4F435657C3980DD5586655733AD56343E8BEAC59B10A398B51CB4DAE25C4D167ADDCB32649CC59D0F323FEE494084A625E12DA669081741F253990FDA1E9
311
5EC9DB81105624FA3F515CE493A2A84DA8CA2DEE2AF3985356AC0DCEA48D9FB74718755FAC0B28CDDB7935BD604E7242F65557B76DC58A950B1B00D3B6DE4C7DB00E36BCBB7E029D36AB735B7356A42341F9BD20D47450FE03504B0304140006080800FDA02848BCE63F104F01000033030000300000006662782F42304136
311
354130312D324643412D343341462D413346322D3335434334463530313732342F636E782E786D6CD593CD6E022114855F85B06D9C61ACB5D6309874D127E8A25B06AE4A6560C24F53DFBE1745EBC64597DD90C9B987736EBE307CF33D5AF205211AEF7ADA358C1270CA6BE3763DCD693B5B51B2113C789F6E6C943839424F
311
8B4C05DF059FA72A69D8CA6C13AAD6B8431503449F83828872B949AC57D26200B8594611C601B4064DAE46FCDA42C055501C8E24ED81BCBD7E103F7C824A91B72545F0B674085ECEDA7463A2445919634FA3DAC3281B9993D7100F8D9649365D73E9BAB3D36F1229172E95391852CA7B5A4E2AEA460D72E42D0E058F2920BD
311
6A4AC709A890D3648D920921B727E3D92378362E2D17D56B107C4077B77C5C2C30EC34133C9911AA43059009341573D62D67AC9BB1D5FB9CADD9F3FA69F5C05ED68CF1B6D8051FBCB7F512C640F01351DE2570898A8EB7657C0F5FF5116D02B2F6E1F8079008A0B69EE95C33FE339FF6F4BE1157C0BF40FC00504B03041400
311
06080800FDA0284889C7A2CEA505000081100000340000006662782F42304136354130312D324643412D343341462D413346322D3335434334463530313732342F6F626A656374732E786D6CAD57D96EDB3814FD1541F332F3E045B6932603458597A430DAB4458D16F360C0A0254AE1845A4052A9335F3F8722254B8E9D78
311
067DD1C2E5F2DE73CF5DE8BFDFA5DC79A242B23CBB71BDFED0756816E611CB921BB75471EFCA75DE07BEC873D55AE63A1949E98DAB87DDC04F445E167628A23129B93A18BD9BFDE5C89066D475424EA4BC7165F84053D227A5CA232A1FFB1151A49FC4BBBED7370BBB6213418A8703A105113453D014E319A4384629AFFB3B
311
7407813FD0F381AF9F76D5F8F4AA41654FF77C964945B2F0C5610762C6DE64713BBAB8EE5D4C26E3DEE472E4F56677B345CF7B371ECE2FE7F3EBE9ED350E964A4092D544D0D80D3E001BC1427F60A602BF64991A8FEC12EBA081A04F4C7BCA0D468EE70FCC9AC63A6BE431F5C33CCB68586105342AFBACE88816348BE07346
311
25346B2134ECFE7A1AC7D6F458FFDB23DBC3E721D0DED11254EB5EBFDB9AE6DBBF61823C87414252CD4083A535D47075B847789BE7DCCE31E9A44451C1087738DB0A229EDD004BF592C0EF88D14C163A1AB4056E002F98E92E5D10466FF3FC989671C9B9A6B11B5451B041AC50252BCDD83F54ECB56F23039DE02BCD862B6B
311
907A2EA81B5C1B8A5C1DB0C900E9C49C247039CCD43BC7A30343E73A4E970B37F878B7DDAD74EC1E3FBC10794185D2F401B56AC7D56F8D92D5C93BCB737A837BA0CA1E946F40FE33427DAF0AFC26D86EB29BD8539420998C7391C237CED0E90DF1183A5EF5D4DFAD2F7FD06CEE7AEF149E70B686EA17E0D9B5A1EDCB169C81
311
FF04C2E7626C4D5B8584236DDCB30C006992383CC710F270BCDDB9C112590E5919BB080F3C980C759FF0E90FAC18248AEAA4D63B03960769F18C040DD82A46420D437EABE0DE4F2FD25975B05D760ADE8B5F42D7E962F571558A9884F4DEC6F482C62C630A256ECF9BB6421DCC3B163DD2E79FB98860E84BBC576DBC537B94
311
04DA1A730D7C52E774FDB33FB97340887D49AED38DFFC609304217D696FC7B2643CA39C9685ED6E7BE5A3F50360CC43AD835939B02B32F2C208D9939884114E950B04283D854AB2669F64F58F77DF9198C7483D9F327F2DCCE5EDB7DEE0D739E8BCDF67963D2D251A87F74B96D31186829A07B152475FC5BD037118BE35222
311
091EC1F5C772DEF69D4E0B4811B554132D13D88FE022C292B6968B6A2D082A699E6D18EA26E2EEE8016DF980D432A012784A634979BC619C97E926661CD5689392E2041CFF5FFF6D99161B92E665A64EC8EEA88EEAD0D5BDC35EF993A8F0C10D56D5BB3743EE8D6874820CBA961CC1AAE3DABBCBD16CE14D66BD8B7717B3DE
311
E47A34EF4DEFA6EF7AF3F1EDECD6BBBE1C4E17B3DA4F4693C0AF4B4D3BA2E1259436BF14CCBAEFFB12F16393801BDC1325D71F4C78D6EFEFCB3E7A617F803DA897CDC669F484BE8F466F0BD8AF3C2A6899169CA6345344C7D0BDFEE0DF08FA8C8E32667C9992849E21E5CB87D58131183963DF571DEFF4E7C15E3B3AD70179
311
54887A28D36D46183FD8981824FB459658FC6A9F346F5368EA5FFD671D83CE54E69C45C8839193D03CA50AD9F08C2224522A41BD764F1FD9BBC719BB9F4C87A8C896D35A93078226994B8405A85586AA3BEEFC86A64EF755372ECA6DFF110F9B295C079CB971D1A42B1652D9DFA240EB56A8120E2EB53B7934FE244B387A6D
311
B3A9F96F76696C3A25B959724EFF64ED3229DC1A803452A06F404304EF54CA047EA59B9D0FFF93E1B53A0E51F8DC96AAB1653FD018531D83103546D9DB029A98477BF40E81FABA595EBF5AD341E4AC5BD6AB2430527B8A88A4BA2968FDAC4AD3C5D7013A1467F9C5297899C097E74BEA090A32973AC0C122B0C2CA2C880255
311
E77FAEBF8A1C37D9D4B963A080F3FBEEEAF28FF53C4FD33C3343EBA9BD0F3BAB07DC6EA3359203D5D712B91E0DBDD1BABA0ED81BCA664B24ED93483E62009E15AC01BAE37EF0D2DC195187CC44B36EA05D71C0D0E5C2B1856D02A1962EEDDCAAC141E391510731A4AF943A62DA0B8A576F04836A295410E8E5837F01504B03
311
04140006080000FDA02848000000000000000000000000350000006662782F42304136354130312D324643412D343341462D413346322D3335434334463530313732342F76657274696365732E62696E504B0304140006080800FDA02848F270F1330600000004000000360000006662782F42304136354130312D32464341
311
2D343341462D413346322D3335434334463530313732342F747269616E676C65732E62696E636660600000504B0304140006080000FDA02848000000000000000000000000370000006662782F42304136354130312D324643412D343341462D413346322D3335434334463530313732342F617474726962757465732E6269
311
6E504B0304140006080800FDA02848D5987DFC8F00000041010000360000006662782F42304136354130312D324643412D343341462D413346322D3335434334463530313732342F6469726563746F72792E786D6C858F410EC2201045AF4266AF15DDB800BA74E7C21B903225242D6328188F2FA5C4183471359997F9FF81
311
E89FF3C41E1816475E02DF1F80A11FC8386F25A438EECEC07A250251FC3803E6F58C12560C4AD840E95E91C151A72936F496F35732D860FE635F62C8F2DA16B505C545B74125BAA2FA9E05D7CC053D063734D5C7665FD55B6B8D15D5E9BFEAFD8490FFA45E504B0304140006080800FDA02848F21CE99EFF000000A0010000
311
3B0000006662782F42304136354130312D324643412D343341462D413346322D3335434334463530313732342F7265736F75726365732F636F72652E786D6C8D50596E833010BD0A9ADFCA60A0098B8CA386D013F4029699102BC18EBC543D7EED844AED5F7F66466FD13C3D76F85A6FD9275AA78C1EA0CC2964A8A599955E
311
0608FE4C5AC80E9C5963FC2F19645AAC38408281B3C59A70DF2069B447ED23AACD8C1B289C430F99BCC56300272FB88A5C041F15EE9ADF85BC8A05F3328F74D471E6BC8D01B2E79334815B742658898E154F96B310D4BC69D41C7FAAB3420BBC6B1A3AD56D4DC6691CC9EBB1DB9163BD7B23FBF7B19EBAE3B43F3527562433
311
675EAD3F19A545E171065ED1724F684968FB51D19E36FDAE7DA15D4F292B92FC8F29DCE77F9A82D2BEAEB6B84F9B035EC6200F82B322F515D7A3CCB853B7FC1B504B010214000A0000080000FDA028483DEE336E79000000790000001B00000000000000000000000000000000006175746F6465736B2D64657369676E2D70
311
61636B6167652E786D6C504B01021400140006080800FDA02848D486FD9CA0000000F40000001300000000000000000000000000B20000005B436F6E74656E745F54797065735D2E786D6C504B01021400140006080800FDA028482D722326EC0000007C010000080000000000000000000000000083010000636F72652E78
311
6D6C504B01021400140006080800FDA0284855019EA25F0000007C000000070000000000000000000000000095020000636E782E786D6C504B01021400140006080800FDA02848930293C868010000020300000C00000000000000000000000000190300006662782F636F72652E786D6C504B01021400140006080800FDA0
311
2848D4ED13137D0000009D0000000B00000000000000000000000000AB0400006662782F636E782E786D6C504B01021400140006080800FDA028483B8A626A2C010000150200003100000000000000000000000000510500006662782F42304136354130312D324643412D343341462D413346322D33354343344635303137
311
32342F636F72652E786D6C504B01021400140006080800FDA02848BCE63F104F010000330300003000000000000000000000000000CC0600006662782F42304136354130312D324643412D343341462D413346322D3335434334463530313732342F636E782E786D6C504B01021400140006080800FDA0284889C7A2CEA505
311
0000811000003400000000000000000000000000690800006662782F42304136354130312D324643412D343341462D413346322D3335434334463530313732342F6F626A656374732E786D6C504B01021400140006080000FDA028480000000000000000000000003500000000000000000000000000600E00006662782F42
311
304136354130312D324643412D343341462D413346322D3335434334463530313732342F76657274696365732E62696E504B01021400140006080800FDA02848F270F13306000000040000003600000000000000000000000000B30E00006662782F42304136354130312D324643412D343341462D413346322D3335434334
311
463530313732342F747269616E676C65732E62696E504B01021400140006080000FDA0284800000000000000000000000037000000000000000000000000000D0F00006662782F42304136354130312D324643412D343341462D413346322D3335434334463530313732342F617474726962757465732E62696E504B010214
311
00140006080800FDA02848D5987DFC8F000000410100003600000000000000000000000000620F00006662782F42304136354130312D324643412D343341462D413346322D3335434334463530313732342F6469726563746F72792E786D6C504B01021400140006080800FDA02848F21CE99EFF000000A00100003B000000
311
00000000000000000000451000006662782F42304136354130312D324643412D343341462D413346322D3335434334463530313732342F7265736F75726365732F636F72652E786D6C504B0506000000000E000E00800400009D1100000000
310
504B03040A0000080000FDA028483DEE336E79000000790000001B0000006175746F6465736B2D64657369676E2D7061636B6167652E786D6C3C3F786D6C2076657273696F6E3D22312E302220656E636F64696E673D227574662D3822203F3E3C666F726D6174733E3C666F726D61743E687474703A2F2F736368656D612E
310
6175746F6465736B2E636F6D2F64657369676E2D7061636B6167652F323030393C2F666F726D61743E3C2F666F726D6174733E504B0304140006080800FDA02848D486FD9CA0000000F4000000130000005B436F6E74656E745F54797065735D2E786D6C7D8EC10E82300C865F65E91D8A1E8C310C0EEA1BF002731658846E
310
D98AC1B77784ABF1D8FE5FBFBF75BBCE937A534CCEB38643598122B6FEE978D0B0485F9C41B54DDD7D022595594E1A469170414C76A4D9A4D207E29CF43ECE46F218070CC6BECC4078ACAA135ACF422C856C0E68EA1BF5669944DDD7BCDE7B1F8E415D77AECB980613C2E4AC91FC167A2B244592486606FC29C8FD7F045B9A
310
EF7053A7E60B504B0304140006080800FDA028485420522FEB0000007C01000008000000636F72652E786D6C8D90E16E832014855F85F077412FDA596B9066CEFA047B0102D4915630024D1F7FD8DA64FBB75FF7E6703EEEC961C7FB744537BD78E36C8B690618692B9D32766C710C67526374E46C712EFCB26164C5A45BBC
310
CA98B3717171DE24E96CD03624D53AA5375178AF0346F29A96167BF9AD2791891892C35FB259C88B1875465F5B8263340A3D8F1895FE3367A317CC69370CC51E80F4430F6457569FE463D79D082DAAEE509DA0ACFA92E52BCC5930D3EBBE5CB4085A615E00AD085002F557010DEC9BF7FA0D0E0D00CB57FB1F28CEEA9F5034
310
3694C516F789F9943505793C7096AF5DA4F1282ACDB537FE03504B0304140006080800FDA0284855019EA25F0000007C00000007000000636E782E786D6C4DCB3B0E80201045D1AD90E915ED2CF8AC45050C11660C8261F98AB1B07AC9C97D42D718D865D3E909258CFD00CCE24AC6E326A164D74DC0B4128928FF32603847
310
2BA13128B1252AC747C6BAB984FC68F0B87FE8960A5C09FE86CFB69FBA01504B0304140006080800FDA02848861BD9BC68010000020300000C0000006662782F636F72652E786D6C8D525B6E833010BC8AE5DFCAD8404A1E328E9A2639412FE01887A2808D8C8D72FC2E8F284D15451592B16676766707F8F6DAD4A8D7AEAB
310
ACC9711C318CB451B6A84C99E3E0CF6485D1567067ADFF558691918DCEF10063C14B67433B43CA1AAF8D07D4D842CFA0EC3AED3152355C72DCA96FDDC848060F15DD256AA5BAC85247710434D409DE790706D0346438B1389FAE9C4EB8E02154C5CC56054CABCE957658C4BBE331593246F6C73D238B34FB241F8BDD81C449
310
B65B67079666FB94D3412CB8AF9A9B3BE5B4F4BAC022617146584CD8EA2B611BB6DCBCAFDED87AC318A743F98328B4C53F45A1323E4D66BB93AC03AF606424FE6C0B1179D4C91EFC50C1E91022BCC6841F83864020642F4FF56D8F0B40BD56DEBA0530850D77AA9775D03095A1F1E17462A1F3D800367BDA2779D1E7750FF8
310
80D294604D7AB89E821FA6F369EA1C45AB1DE9FD1519EB1A59DFCD4D16EFE77DD053B9B2B575FF51D379553A874987BF57FC00504B0304140006080800FDA028489F0D7D427C0000009D0000000B0000006662782F636E782E786D6C4DCCD10AC2201805E05791FFDE96C352411D4DD67B8CE686E47498468FDF8C5D74730E
310
7C1C8EEC3EAB476F9B5E2E0605E4740664C3234E2E2C0A4A9E3107D4699962CC7F3340615CAD82CAA0E59262D90E9AEC3C169F77F52E3C0F6C453BDCAFCC60D61382E9CD50CC8D186A5C686F0467AC8746CBE6F7B4773DD65F504B0304140006080800FDA02848A108C61D2B01000015020000310000006662782F32393245
310
463637432D374231312D344143342D384339452D3843393534424339383737422F636F72652E786D6C8D515B6EC32010BC8AC557AACA36388E1F11266AACF404BD000592A2C460F1A872FC2EB523B57FF961D1ECCCEC68971EEED32DFB56CE6B6B06440A8C32658495DA5C0614C339EF507660D4591BFED05066F8A4069460
310
C4E8C5D938AF90B0262813003556AA15E4DEAB80327183CF80BCF852132F780CC0F0D762E6E2CA2FAA2005B481C7A80F0E0264CB90F42256F5D5E9BD69C7BC3D1292D76F639D77637F4ACFAE3E8E7DD7B6475A2E424663D472956B0971F4592BF7AC4912331AF4F4882F9CE24149D063D2E498E4B8FBA8F01EB7FB5DF78AFB
310
3DC6B44CF47FA238CB2745519BB0ADD6B88BCC234668B9341895367EDE1E61D47DB62E6469DEC62BF182182E30EE762D6E9A9A960B173600A64DBD9AFA601D6C7873FD04FA76756E6A46CB742428BF17849A0ECA7E00504B0304140006080800FDA02848DA41F0075601000033030000300000006662782F32393245463637
310
432D374231312D344143342D384339452D3843393534424339383737422F636E782E786D6CBD93C16EC32010447F0571AD6CE32475DD0813A9877E410FBD62D82434365880ABE6EFBB2424CD25874A552FC89A1D66564F986FBEC6817C820FC6D98ED625A304AC72DAD85D47E7B82D5A4A36827BE7E28D8D122B47E86892A9
310
E03BEFE6294B1AB6721E22AA83B1872C7A086EF60A02CAE926199C920306802D661461EC416BD0E46AC4AF2D785C05C5FE48E21EC8EBCB3B71FD07A81878955204AF5287E0E9CC4D37264AD42043E868507B186529E7E8348443A96594655D5EBAEEECF49344D2854BE5EC0D49E51D4D271579A31239F20A878287E8915E36
310
C5E30454C8691A8C9211215727E3D923F86C6C6C56D96B10BC47F772D1B42D869D668247334276280F3282A662C1EAA66075C1DAB7055BB3A7F563FBC09ED78CF12AD905EF9D1BF2258C01EF26A29C8D60231535AFD2F81EBEEC23DA7864EDFCF1172011406E3DD3B966FC259FBA59AE56FFC8A73ABD6FC4E5F12F10DF504B
310
0304140006080800FDA0284878F3C353640700009A1B0000340000006662782F32393245463637432D374231312D344143342D384339452D3843393534424339383737422F6F626A656374732E786D6CED59DD73A33610FF5718FAD23E181BDBC95D3A844E6C5F6E3C6DDA9BBA77D307CF3032C8448D108C247271FFFAAE3E
310
C0404C827BE95B1F6C4048ABDDDF7E6A097E7ACAA8F388B92039BB767D6FE23A98C57942587AED96723F7AEF3A3F8501CF73D998E63A0C65F8DA55C36E18A43C2F0B3B94E03D2AA9EC8CDE2EFE74448C19769D982221AE5D11DFE30C79A8947982C583972089BC74FFE4F99E99D8269B7254DC7788168863268153186740C5
310
314CF9EDC7893B0E83B17A1F06EADFCE9A0D9A35EF9F35D652B7B9244C48C4E2672C75C8CC06B134F3E7AB0FD38BABD1C57C3E1BCD2FA7FE6871BB588DFC77B3C9F272B9BCBAF97005ECEDF29C5A99125C609680FE0E6EE80763F5A616DD22708AEB38670CC71A48804A8BD52548B080AD1AF04DDA8FBE92A8F15A4BD8789E
310
ABF79685C6F0AC4DA56FD630205A744110BB5D2571756DCA97EFFE02C1C510A3E4024BE056480EDAB5F070F00A379C0463331A06BBA32E887032243127883A94EC38E2A01498AAA684815960C928E7E040CA511268CD99D76DDB02CF7CDD754E71B92F29559EE186DAB122703F2C85E68CFC8DF991FB2632C013485B1226DF
310
5B2EE5A1C06E78158CF56018A8CB6C6A5F1A209D3D45A9D08898B71D4197CAF5D72B37FCF976F7B451E1E0F4E605CF0BCCA5323AA547CD1718B2BD2A94ECB6FE20CDA905208C01D5AE3C82F23B20FF2B448F232BA0374E9EE64F733B5772C4C43EE719E8C69938A309FC4D1C5FFFABFBC65D30AE17B7B5D78727B8A982EAFD
310
B7E3D996416365F96FC019068F60F0399FD9579B1851B0E73BC2002065240ECD610842FB7EF7E4866B089C10E86115A2A10F2203BB8F701B8C2D99A3562AF7B25EC70051BBC76C889200366D91C0468F9E3E42F6E0243EAAA929621FBC176F62AE37ABCDCF9B92EF518CEFAC4FAFF09E3022216B9E66A885794BA2077CF89A
310
F304047D8EF7A6897766B71280B6C25C019F5620A887E3CEAD0D625897E62ADC04AFEC0042A85CDDA07F47448C29450CE765B56F1DDD94A1D61E6F6B06379C1A8867D38E0973FC485455014E739CD16214F27ECC49A14074C38F46B23A687A3DD27D5EFF0A1659CFEF99B566107A19A27FE8A0750287966557485B206A8177
310
C7701EE734E7D1EE109948E7422D016CB4BDE54B8B28C47AA32445053C48FB5D155252236D9490FDBE1410574FB0F865BD6C9AC3C49BF9174EF3BFE38C7388B6E0BB885BBFEBEC11910CA538DAA3A46FBBE66E356DA149F690E6784F412EF248E42142329A24383D079AB3885FBD29F594E642108605E4AB93E037D1987810
310
488C362B9695563B4013116558227A0E028A4C0FB83AEDE81A3786D2E1751E6BEB7D49634DA2FF91457004B564CE2202A528E4905719F7BD0B88216D740DCA1D7CC1DA2ADA5A0C5A4209111FA2AF98A4F7F21CD40DF91EDC6338929432CA0B1483590F20FBCC5794523BBCEF50FCA0F2471497F4AD0C4460BA8F08A56516C1
310
8F3038790C71ED3A30BD884283B8897D126750942159F2219B5C5E4C9EED636A866E086C6CB42714C27694A1A207F55640D4F58853836FA9F7287557664584B2BC64830CC59B75BDC992EFAA55911DC8AF2A15A16CAC085B82614098ACB36A15B3C1D475600537D281EA10099415D49CC25E493C7EED4D9A72EF06DCFAE9DB
310
6E9041E1D7A3BD66449D5730581E5B8581F88A647CEF861B7D1D2DA0FE4E70724CF555ADD9AC00013115C94B4EAC8A3EAFA1BCB1359A1BDE2129B61F4DD6ADAE9FD71E743F8231AC81DAA55EB85640679849A42A933B75437F4710825B34CCF85AE5D473A8DC2489AE1A11BD257DEA6C9511AD4D33E215F798E519FCD896B0
310
989609DEA2443C447792461BA258B7527A19A9307E51C0DF3E6E3AF0C0C800913EA9020F7FEDACB5A34B552E9D2422EFCB6CC7108120D8122D35BAF10A965A8D545AAEAFEA4C017517189855F1FCFF9345B31DF1FFC922B586F14D278BC5E1177468F6451AE93C56767DD631A0CE4F8ACA5B1C0374DBA1A65A671193CCADFC
310
D69922088A55941F5C8D5541C310ECE3F85F67EDBE2C68B6EBF07F5ED6F69F551C676595D664D5A53A51B9AE9B39ECF672BA58F9F3C5E8E2DDC56234BF9A2E4737B737EF46CBD987C507FFEA7272B35AD4686A470D833A98E9DC05CF26A855C3EAC962005D59915392C0693E71520C315FC2997E40FB9C675840F26C36BB13
310
DB941FB0FAD1F43925DA515C71728FA0414C05A475C0A88C657BDCF90E5A93120EDAD72E348DBC07F8B356E93A9079AE5D6815481263E1EDA0CDA41A7A9A38A45C9DFB2D31C007B154A544B3A87EAE57296C5AE1BF9E32240D58B95A3D0C28DC0AE87EB53A149A37CB537C96E0153B0E9270BB2B25546B4696E3402D8CDEE6
310
A87E231B25ECC16EFD04AEFBB258BEA7E7B41019F4C9E0452330544712F154F7BB156396A59BD5A731F4D99CF56F4E41CB1474399CD2886330E6521554604560159666812498EAF2C7ED279EC3279ECCD15591F3FDD3FBCB1FB6CB3CCB726686B637702A4BE04391B3B987CF3EC9168A07AC9AEB623B9DF8D3AD6E6ADB3E7B
310
B443027BAA2A8281AA985082744C0EECF25983CAB62FC74A159DE9EB9563832834038C1D3DEBF19A8F5C0EF890FA9CA23C46FB7925ED8B7DEDB19E0A36C1A1231DFE03504B0304140006080000FDA02848000000000000000000000000350000006662782F32393245463637432D374231312D344143342D384339452D3843
310
393534424339383737422F76657274696365732E62696E504B0304140006080800FDA02848F270F1330600000004000000360000006662782F32393245463637432D374231312D344143342D384339452D3843393534424339383737422F747269616E676C65732E62696E636660600000504B0304140006080000FDA02848
310
000000000000000000000000370000006662782F32393245463637432D374231312D344143342D384339452D3843393534424339383737422F617474726962757465732E62696E504B0304140006080800FDA02848D5987DFC8F00000041010000360000006662782F32393245463637432D374231312D344143342D384339
310
452D3843393534424339383737422F6469726563746F72792E786D6C858F410EC2201045AF4266AF15DDB800BA74E7C21B903225242D6328188F2FA5C4183471359997F9FF81E89FF3C41E1816475E02DF1F80A11FC8386F25A438EECEC07A250251FC3803E6F58C12560C4AD840E95E91C151A72936F496F35732D860FE63
310
5F62C8F2DA16B505C545B74125BAA2FA9E05D7CC053D063734D5C7665FD55B6B8D15D5E9BFEAFD8490FFA45E504B0304140006080800FDA02848713BD8E6FE000000A00100003B0000006662782F32393245463637432D374231312D344143342D384339452D3843393534424339383737422F7265736F75726365732F636F
310
72652E786D6C8D504B6E833010BD8AE56D65B0217513641C95124ED00B586642AD041BF953F5F835814AEDAE9B99D1FB689E9E387FCD77F4093E18675BCC0A8A1158ED4663A716A77825478CCE5278E7E22F194656CDD0E215C6524CDEA56587B4B3116CCCA87523ECA00A012246FA9E8F1607FD01B32A548A59116EC5A2F4
310
4D4D50B022D3592745883E0740DB937562E921B8E43504516EAC14299971D79831FF3457031E4BD60D43C58781F4434FC9A1E66FE4F5D05D08AB7877E2175AF3BE16E56A96229AF927A3F6A0228C585694714219A1C7F78A36F4A5793E3ED15343A92857F91F535AC67F9A92B1B1AEF6B89B2DE4AC39C88390A25CFBCAEB51
310
66DE6BB7F21B504B010214000A0000080000FDA028483DEE336E79000000790000001B00000000000000000000000000000000006175746F6465736B2D64657369676E2D7061636B6167652E786D6C504B01021400140006080800FDA02848D486FD9CA0000000F40000001300000000000000000000000000B20000005B43
310
6F6E74656E745F54797065735D2E786D6C504B01021400140006080800FDA028485420522FEB0000007C010000080000000000000000000000000083010000636F72652E786D6C504B01021400140006080800FDA0284855019EA25F0000007C000000070000000000000000000000000094020000636E782E786D6C504B01
310
021400140006080800FDA02848861BD9BC68010000020300000C00000000000000000000000000180300006662782F636F72652E786D6C504B01021400140006080800FDA028489F0D7D427C0000009D0000000B00000000000000000000000000AA0400006662782F636E782E786D6C504B01021400140006080800FDA028
310
48A108C61D2B0100001502000031000000000000000000000000004F0500006662782F32393245463637432D374231312D344143342D384339452D3843393534424339383737422F636F72652E786D6C504B01021400140006080800FDA02848DA41F00756010000330300003000000000000000000000000000C906000066
310
62782F32393245463637432D374231312D344143342D384339452D3843393534424339383737422F636E782E786D6C504B01021400140006080800FDA0284878F3C353640700009A1B000034000000000000000000000000006D0800006662782F32393245463637432D374231312D344143342D384339452D384339353442
310
4339383737422F6F626A656374732E786D6C504B01021400140006080000FDA028480000000000000000000000003500000000000000000000000000231000006662782F32393245463637432D374231312D344143342D384339452D3843393534424339383737422F76657274696365732E62696E504B0102140014000608
310
0800FDA02848F270F13306000000040000003600000000000000000000000000761000006662782F32393245463637432D374231312D344143342D384339452D3843393534424339383737422F747269616E676C65732E62696E504B01021400140006080000FDA02848000000000000000000000000370000000000000000
310
0000000000D01000006662782F32393245463637432D374231312D344143342D384339452D3843393534424339383737422F617474726962757465732E62696E504B01021400140006080800FDA02848D5987DFC8F000000410100003600000000000000000000000000251100006662782F32393245463637432D37423131
310
2D344143342D384339452D3843393534424339383737422F6469726563746F72792E786D6C504B01021400140006080800FDA02848713BD8E6FE000000A00100003B00000000000000000000000000081200006662782F32393245463637432D374231312D344143342D384339452D3843393534424339383737422F726573
310
6F75726365732F636F72652E786D6C504B0506000000000E000E00800400005F1300000000
  0
XRECORD
  5
17
102
{ACAD_REACTORS
330
12
102
}
330
12
100
AcDbXrecord
280
     1
270
     1
271
     1
  0
XRECORD
  5
16
102
{ACAD_REACTORS
330
12
102
}
330
12
100
AcDbXrecord
280
     1
270
     1
271
     1
  0
XRECORD
  5
18
102
{ACAD_REACTORS
330
12
102
}
330
12
100
AcDbXrecord
280
     1
270
     1
271
     1
  0
XRECORD
  5
15
102
{ACAD_REACTORS
330
12
102
}
330
12
100
AcDbXrecord
280
     1
270
     1
271
     1
  0
XRECORD
  5
344
102
{ACAD_REACTORS
330
22
102
}
330
22
100
AcDbXrecord
280
     1
102
MATERIAL
148
0.0
149
0.0
149
0.0
 93
        0
 94
      127
282
     0
 72
     0
 77
     0
171
     0
175
     0
179
     0
273
     0
  0
XRECORD
  5
24
102
{ACAD_REACTORS
330
22
102
}
330
22
100
AcDbXrecord
280
     1
270
     1
271
     1
  0
XRECORD
  5
23
102
{ACAD_REACTORS
330
22
102
}
330
22
100
AcDbXrecord
280
     1
270
     1
271
     1
  0
XRECORD
  5
27
102
{ACAD_REACTORS
330
22
102
}
330
22
100
AcDbXrecord
280
     1
270
     1
271
     1
  0
XRECORD
  5
26
102
{ACAD_REACTORS
330
22
102
}
330
22
100
AcDbXrecord
280
     1
270
     1
271
     1
  0
XRECORD
  5
28
102
{ACAD_REACTORS
330
22
102
}
330
22
100
AcDbXrecord
280
     1
270
     1
271
     1
  0
XRECORD
  5
25
102
{ACAD_REACTORS
330
22
102
}
330
22
100
AcDbXrecord
280
     1
270
     1
271
     1
  0
XRECORD
  5
33A
102
{ACAD_REACTORS
330
339
102
}
330
339
100
AcDbXrecord
280
     1
102
ACAD_ROUNDTRIP_2012_MLEADER_STYLE
298
     1
  0
CELLSTYLEMAP
  5
338
102
{ACAD_REACTORS
330
337
102
}
330
337
100
AcDbCellStyleMap
 90
        3
300
CELLSTYLE
  1
TABLEFORMAT_BEGIN
 90
        5
170
     1
 91
        0
 92
    32768
 62
   257
 93
        1
300
CONTENTFORMAT
  1
CONTENTFORMAT_BEGIN
 90
        0
 91
        0
 92
      512
 93
        0
300

 40
0.0
140
1.0
 94
        5
 62
     0
340
55
144
0.25
309
CONTENTFORMAT_END
171
     0
 94
        0
309
TABLEFORMAT_END
  1
CELLSTYLE_BEGIN
 90
        1
 91
        1
300
_TITLE
309
CELLSTYLE_END
300
CELLSTYLE
  1
TABLEFORMAT_BEGIN
 90
        5
170
     1
 91
        0
 92
        0
 62
   257
 93
        1
300
CONTENTFORMAT
  1
CONTENTFORMAT_BEGIN
 90
        0
 91
        0
 92
      512
 93
        0
300

 40
0.0
140
1.0
 94
        5
 62
     0
340
55
144
0.18
309
CONTENTFORMAT_END
171
     0
 94
        0
309
TABLEFORMAT_END
  1
CELLSTYLE_BEGIN
 90
        2
 91
        1
300
_HEADER
309
CELLSTYLE_END
300
CELLSTYLE
  1
TABLEFORMAT_BEGIN
 90
        5
170
     1
 91
        0
 92
        0
 62
   257
 93
        1
300
CONTENTFORMAT
  1
CONTENTFORMAT_BEGIN
 90
        0
 91
        0
 92
      512
 93
        0
300

 40
0.0
140
1.0
 94
        2
 62
     0
340
55
144
0.18
309
CONTENTFORMAT_END
171
     0
 94
        0
309
TABLEFORMAT_END
  1
CELLSTYLE_BEGIN
 90
        3
 91
        2
300
_DATA
309
CELLSTYLE_END
  0
XRECORD
  5
375
102
{ACAD_REACTORS
330
337
102
}
330
337
100
AcDbXrecord
280
     1
102
ACAD_ROUNDTRIP_PRE2007_TABLESTYLE
 90
      512
 91
        0
  1

 92
      512
 93
        0
  2

 94
      512
 95
        0
  3

  0
XRECORD
  5
350
102
{ACAD_REACTORS
330
34F
102
}
330
34F
100
AcDbXrecord
280
     1
102
RTVSPropertyOp0
 70
     1
102
RTVSPropertyOp1
 70
     1
102
RTVSPropertyOp2
 70
     1
102
RTVSPropertyOp3
 70
     1
102
RTVSPropertyOp4
 70
     1
102
RTVSPropertyOp5
 70
     1
102
RTVSPropertyOp6
 70
     1
102
RTVSPropertyOp7
 70
     1
102
RTVSPropertyOp8
 70
     1
102
RTVSPropertyOp9
 70
     1
102
RTVSPropertyOp10
 70
     1
102
RTVSPropertyOp11
 70
     1
102
RTVSPropertyOp12
 70
     1
102
RTVSPropertyOp13
 70
     1
102
RTVSPropertyOp14
 70
     1
102
RTVSPropertyOp15
 70
     1
102
RTVSPropertyOp16
 70
     1
102
RTVSPropertyOp17
 70
     1
102
RTVSPropertyOp18
 70
     1
102
RTVSPropertyOp19
 70
     1
102
RTVSPropertyOp20
 70
     1
102
RTVSPropertyOp21
 70
     1
102
RTVSPropertyOp22
 70
     1
102
RTVSPropertyOp23
 70
     1
102
RTVSPropertyOp24
 70
     1
102
RTVSPropertyOp25
 70
     1
102
RTVSPropertyOp26
 70
     1
102
RTVSPropertyOp27
 70
     1
102
RTVSPropertyOp28
 70
     1
102
RTVSPropertyOp29
 70
     1
102
RTVSPropertyOp30
 70
     1
102
RTVSPropertyOp31
 70
     1
102
RTVSPropertyOp32
 70
     1
  0
XRECORD
  5
34E
102
{ACAD_REACTORS
330
34D
102
}
330
34D
100
AcDbXrecord
280
     1
102
RTVSPropertyOp0
 70
     1
102
RTVSPropertyOp1
 70
     1
102
RTVSPropertyOp2
 70
     1
102
RTVSPropertyOp3
 70
     1
102
RTVSPropertyOp4
 70
     1
102
RTVSPropertyOp5
 70
     1
102
RTVSPropertyOp6
 70
     1
102
RTVSPropertyOp7
 70
     1
102
RTVSPropertyOp8
 70
     1
102
RTVSPropertyOp9
 70
     1
102
RTVSPropertyOp10
 70
     1
102
RTVSPropertyOp11
 70
     1
102
RTVSPropertyOp12
 70
     1
102
RTVSPropertyOp13
 70
     1
102
RTVSPropertyOp14
 70
     1
102
RTVSPropertyOp15
 70
     1
102
RTVSPropertyOp16
 70
     1
102
RTVSPropertyOp17
 70
     1
102
RTVSPropertyOp18
 70
     1
102
RTVSPropertyOp19
 70
     1
102
RTVSPropertyOp20
 70
     1
102
RTVSPropertyOp21
 70
     1
102
RTVSPropertyOp22
 70
     1
102
RTVSPropertyOp23
 70
     1
102
RTVSPropertyOp24
 70
     1
102
RTVSPropertyOp25
 70
     1
102
RTVSPropertyOp26
 70
     1
102
RTVSPropertyOp27
 70
     1
102
RTVSPropertyOp28
 70
     1
102
RTVSPropertyOp29
 70
     1
102
RTVSPropertyOp30
 70
     1
102
RTVSPropertyOp31
 70
     1
102
RTVSPropertyOp32
 70
     1
  0
XRECORD
  5
35C
102
{ACAD_REACTORS
330
35B
102
}
330
35B
100
AcDbXrecord
280
     1
102
RTVSPropertyOp0
 70
     1
102
RTVSPropertyOp1
 70
     1
102
RTVSPropertyOp2
 70
     1
102
RTVSPropertyOp3
 70
     1
102
RTVSPropertyOp4
 70
     1
102
RTVSPropertyOp5
 70
     1
102
RTVSPropertyOp6
 70
     1
102
RTVSPropertyOp7
 70
     1
102
RTVSPropertyOp8
 70
     1
102
RTVSPropertyOp9
 70
     1
102
RTVSPropertyOp10
 70
     1
102
RTVSPropertyOp11
 70
     1
102
RTVSPropertyOp12
 70
     1
102
RTVSPropertyOp13
 70
     1
102
RTVSPropertyOp14
 70
     1
102
RTVSPropertyOp15
 70
     1
102
RTVSPropertyOp16
 70
     1
102
RTVSPropertyOp17
 70
     1
102
RTVSPropertyOp18
 70
     1
102
RTVSPropertyOp19
 70
     1
102
RTVSPropertyOp20
 70
     1
102
RTVSPropertyOp21
 70
     1
102
RTVSPropertyOp22
 70
     1
102
RTVSPropertyOp23
 70
     1
102
RTVSPropertyOp24
 70
     1
102
RTVSPropertyOp25
 70
     1
102
RTVSPropertyOp26
 70
     1
102
RTVSPropertyOp27
 70
     1
102
RTVSPropertyOp28
 70
     1
102
RTVSPropertyOp29
 70
     1
102
RTVSPropertyOp30
 70
     1
102
RTVSPropertyOp31
 70
     1
102
RTVSPropertyOp32
 70
     1
  0
XRECORD
  5
364
102
{ACAD_REACTORS
330
363
102
}
330
363
100
AcDbXrecord
280
     1
102
RTVSPropertyOp0
 70
     1
102
RTVSPropertyOp1
 70
     1
102
RTVSPropertyOp2
 70
     1
102
RTVSPropertyOp3
 70
     1
102
RTVSPropertyOp4
 70
     1
102
RTVSPropertyOp5
 70
     1
102
RTVSPropertyOp6
 70
     1
102
RTVSPropertyOp7
 70
     1
102
RTVSPropertyOp8
 70
     1
102
RTVSPropertyOp9
 70
     1
102
RTVSPropertyOp10
 70
     1
102
RTVSPropertyOp11
 70
     1
102
RTVSPropertyOp12
 70
     1
102
RTVSPropertyOp13
 70
     1
102
RTVSPropertyOp14
 70
     1
102
RTVSPropertyOp15
 70
     1
102
RTVSPropertyOp16
 70
     1
102
RTVSPropertyOp17
 70
     1
102
RTVSPropertyOp18
 70
     1
102
RTVSPropertyOp19
 70
     1
102
RTVSPropertyOp20
 70
     1
102
RTVSPropertyOp21
 70
     1
102
RTVSPropertyOp22
 70
     1
102
RTVSPropertyOp23
 70
     1
102
RTVSPropertyOp24
 70
     1
102
RTVSPropertyOp25
 70
     1
102
RTVSPropertyOp26
 70
     1
102
RTVSPropertyOp27
 70
     1
102
RTVSPropertyOp28
 70
     1
102
RTVSPropertyOp29
 70
     1
102
RTVSPropertyOp30
 70
     1
102
RTVSPropertyOp31
 70
     1
102
RTVSPropertyOp32
 70
     1
  0
XRECORD
  5
356
102
{ACAD_REACTORS
330
355
102
}
330
355
100
AcDbXrecord
280
     1
102
RTVSPropertyOp0
 70
     1
102
RTVSPropertyOp1
 70
     1
102
RTVSPropertyOp2
 70
     1
102
RTVSPropertyOp3
 70
     1
102
RTVSPropertyOp4
 70
     1
102
RTVSPropertyOp5
 70
     1
102
RTVSPropertyOp6
 70
     1
102
RTVSPropertyOp7
 70
     1
102
RTVSPropertyOp8
 70
     1
102
RTVSPropertyOp9
 70
     1
102
RTVSPropertyOp10
 70
     1
102
RTVSPropertyOp11
 70
     1
102
RTVSPropertyOp12
 70
     1
102
RTVSPropertyOp13
 70
     1
102
RTVSPropertyOp14
 70
     1
102
RTVSPropertyOp15
 70
     1
102
RTVSPropertyOp16
 70
     1
102
RTVSPropertyOp17
 70
     1
102
RTVSPropertyOp18
 70
     1
102
RTVSPropertyOp19
 70
     1
102
RTVSPropertyOp20
 70
     1
102
RTVSPropertyOp21
 70
     1
102
RTVSPropertyOp22
 70
     1
102
RTVSPropertyOp23
 70
     1
102
RTVSPropertyOp24
 70
     1
102
RTVSPropertyOp25
 70
     1
102
RTVSPropertyOp26
 70
     1
102
RTVSPropertyOp27
 70
     1
102
RTVSPropertyOp28
 70
     1
102
RTVSPropertyOp29
 70
     1
102
RTVSPropertyOp30
 70
     1
102
RTVSPropertyOp31
 70
     1
102
RTVSPropertyOp32
 70
     1
  0
XRECORD
  5
35A
102
{ACAD_REACTORS
330
359
102
}
330
359
100
AcDbXrecord
280
     1
102
RTVSPropertyOp0
 70
     1
102
RTVSPropertyOp1
 70
     1
102
RTVSPropertyOp2
 70
     1
102
RTVSPropertyOp3
 70
     1
102
RTVSPropertyOp4
 70
     1
102
RTVSPropertyOp5
 70
     1
102
RTVSPropertyOp6
 70
     1
102
RTVSPropertyOp7
 70
     1
102
RTVSPropertyOp8
 70
     1
102
RTVSPropertyOp9
 70
     1
102
RTVSPropertyOp10
 70
     1
102
RTVSPropertyOp11
 70
     1
102
RTVSPropertyOp12
 70
     1
102
RTVSPropertyOp13
 70
     1
102
RTVSPropertyOp14
 70
     1
102
RTVSPropertyOp15
 70
     1
102
RTVSPropertyOp16
 70
     1
102
RTVSPropertyOp17
 70
     1
102
RTVSPropertyOp18
 70
     1
102
RTVSPropertyOp19
 70
     1
102
RTVSPropertyOp20
 70
     1
102
RTVSPropertyOp21
 70
     1
102
RTVSPropertyOp22
 70
     1
102
RTVSPropertyOp23
 70
     1
102
RTVSPropertyOp24
 70
     1
102
RTVSPropertyOp25
 70
     1
102
RTVSPropertyOp26
 70
     1
102
RTVSPropertyOp27
 70
     1
102
RTVSPropertyOp28
 70
     1
102
RTVSPropertyOp29
 70
     1
102
RTVSPropertyOp30
 70
     1
102
RTVSPropertyOp31
 70
     1
102
RTVSPropertyOp32
 70
     1
  0
XRECORD
  5
374
102
{ACAD_REACTORS
330
373
102
}
330
373
100
AcDbXrecord
280
     1
102
RTVSPropertyOp0
 70
     0
102
RTVSPropertyOp1
 70
     0
102
RTVSPropertyOp2
 70
     0
102
RTVSPropertyOp3
 70
     0
102
RTVSPropertyOp4
 70
     0
102
RTVSPropertyOp5
 70
     0
102
RTVSPropertyOp6
 70
     0
102
RTVSPropertyOp7
 70
     0
102
RTVSPropertyOp8
 70
     0
102
RTVSPropertyOp9
 70
     0
102
RTVSPropertyOp10
 70
     0
102
RTVSPropertyOp11
 70
     0
102
RTVSPropertyOp12
 70
     0
102
RTVSPropertyOp13
 70
     0
102
RTVSPropertyOp14
 70
     2
102
RTVSPropertyOp15
 70
     0
102
RTVSPropertyOp16
 70
     0
102
RTVSPropertyOp17
 70
     0
102
RTVSPropertyOp18
 70
     0
102
RTVSPropertyOp19
 70
     0
102
RTVSPropertyOp20
 70
     0
102
RTVSPropertyOp21
 70
     0
102
RTVSPropertyOp22
 70
     0
102
RTVSPropertyOp23
 70
     0
102
RTVSPropertyOp24
 70
     0
102
RTVSPropertyOp25
 70
     0
102
RTVSPropertyOp26
 70
     0
102
RTVSPropertyOp27
 70
     0
102
RTVSPropertyOp28
 70
     0
102
RTVSPropertyOp29
 70
     0
102
RTVSPropertyOp30
 70
     0
102
RTVSPropertyOp31
 70
     0
102
RTVSPropertyOp32
 70
     0
  0
XRECORD
  5
362
102
{ACAD_REACTORS
330
361
102
}
330
361
100
AcDbXrecord
280
     1
102
RTVSPropertyOp0
 70
     1
102
RTVSPropertyOp1
 70
     1
102
RTVSPropertyOp2
 70
     1
102
RTVSPropertyOp3
 70
     1
102
RTVSPropertyOp4
 70
     1
102
RTVSPropertyOp5
 70
     1
102
RTVSPropertyOp6
 70
     1
102
RTVSPropertyOp7
 70
     1
102
RTVSPropertyOp8
 70
     1
102
RTVSPropertyOp9
 70
     1
102
RTVSPropertyOp10
 70
     1
102
RTVSPropertyOp11
 70
     1
102
RTVSPropertyOp12
 70
     1
102
RTVSPropertyOp13
 70
     1
102
RTVSPropertyOp14
 70
     1
102
RTVSPropertyOp15
 70
     1
102
RTVSPropertyOp16
 70
     1
102
RTVSPropertyOp17
 70
     1
102
RTVSPropertyOp18
 70
     1
102
RTVSPropertyOp19
 70
     1
102
RTVSPropertyOp20
 70
     1
102
RTVSPropertyOp21
 70
     1
102
RTVSPropertyOp22
 70
     1
102
RTVSPropertyOp23
 70
     1
102
RTVSPropertyOp24
 70
     1
102
RTVSPropertyOp25
 70
     1
102
RTVSPropertyOp26
 70
     1
102
RTVSPropertyOp27
 70
     1
102
RTVSPropertyOp28
 70
     1
102
RTVSPropertyOp29
 70
     1
102
RTVSPropertyOp30
 70
     1
102
RTVSPropertyOp31
 70
     1
102
RTVSPropertyOp32
 70
     1
  0
XRECORD
  5
346
102
{ACAD_REACTORS
330
345
102
}
330
345
100
AcDbXrecord
280
     1
102
RTVSPropertyOp0
 70
     1
102
RTVSPropertyOp1
 70
     1
102
RTVSPropertyOp2
 70
     1
102
RTVSPropertyOp3
 70
     1
102
RTVSPropertyOp4
 70
     1
102
RTVSPropertyOp5
 70
     1
102
RTVSPropertyOp6
 70
     1
102
RTVSPropertyOp7
 70
     1
102
RTVSPropertyOp8
 70
     1
102
RTVSPropertyOp9
 70
     1
102
RTVSPropertyOp10
 70
     1
102
RTVSPropertyOp11
 70
     1
102
RTVSPropertyOp12
 70
     1
102
RTVSPropertyOp13
 70
     1
102
RTVSPropertyOp14
 70
     1
102
RTVSPropertyOp15
 70
     1
102
RTVSPropertyOp16
 70
     1
102
RTVSPropertyOp17
 70
     1
102
RTVSPropertyOp18
 70
     1
102
RTVSPropertyOp19
 70
     1
102
RTVSPropertyOp20
 70
     1
102
RTVSPropertyOp21
 70
     1
102
RTVSPropertyOp22
 70
     1
102
RTVSPropertyOp23
 70
     1
102
RTVSPropertyOp24
 70
     1
102
RTVSPropertyOp25
 70
     1
102
RTVSPropertyOp26
 70
     1
102
RTVSPropertyOp27
 70
     1
102
RTVSPropertyOp28
 70
     1
102
RTVSPropertyOp29
 70
     1
102
RTVSPropertyOp30
 70
     1
102
RTVSPropertyOp31
 70
     1
102
RTVSPropertyOp32
 70
     1
  0
XRECORD
  5
348
102
{ACAD_REACTORS
330
347
102
}
330
347
100
AcDbXrecord
280
     1
102
RTVSPropertyOp0
 70
     1
102
RTVSPropertyOp1
 70
     1
102
RTVSPropertyOp2
 70
     1
102
RTVSPropertyOp3
 70
     1
102
RTVSPropertyOp4
 70
     1
102
RTVSPropertyOp5
 70
     1
102
RTVSPropertyOp6
 70
     1
102
RTVSPropertyOp7
 70
     1
102
RTVSPropertyOp8
 70
     1
102
RTVSPropertyOp9
 70
     1
102
RTVSPropertyOp10
 70
     1
102
RTVSPropertyOp11
 70
     1
102
RTVSPropertyOp12
 70
     1
102
RTVSPropertyOp13
 70
     1
102
RTVSPropertyOp14
 70
     1
102
RTVSPropertyOp15
 70
     1
102
RTVSPropertyOp16
 70
     1
102
RTVSPropertyOp17
 70
     1
102
RTVSPropertyOp18
 70
     1
102
RTVSPropertyOp19
 70
     1
102
RTVSPropertyOp20
 70
     1
102
RTVSPropertyOp21
 70
     1
102
RTVSPropertyOp22
 70
     1
102
RTVSPropertyOp23
 70
     1
102
RTVSPropertyOp24
 70
     1
102
RTVSPropertyOp25
 70
     1
102
RTVSPropertyOp26
 70
     1
102
RTVSPropertyOp27
 70
     1
102
RTVSPropertyOp28
 70
     1
102
RTVSPropertyOp29
 70
     1
102
RTVSPropertyOp30
 70
     1
102
RTVSPropertyOp31
 70
     1
102
RTVSPropertyOp32
 70
     1
  0
XRECORD
  5
34A
102
{ACAD_REACTORS
330
349
102
}
330
349
100
AcDbXrecord
280
     1
102
RTVSPropertyOp0
 70
     1
102
RTVSPropertyOp1
 70
     1
102
RTVSPropertyOp2
 70
     1
102
RTVSPropertyOp3
 70
     1
102
RTVSPropertyOp4
 70
     1
102
RTVSPropertyOp5
 70
     1
102
RTVSPropertyOp6
 70
     1
102
RTVSPropertyOp7
 70
     1
102
RTVSPropertyOp8
 70
     1
102
RTVSPropertyOp9
 70
     1
102
RTVSPropertyOp10
 70
     1
102
RTVSPropertyOp11
 70
     1
102
RTVSPropertyOp12
 70
     1
102
RTVSPropertyOp13
 70
     1
102
RTVSPropertyOp14
 70
     1
102
RTVSPropertyOp15
 70
     1
102
RTVSPropertyOp16
 70
     1
102
RTVSPropertyOp17
 70
     1
102
RTVSPropertyOp18
 70
     1
102
RTVSPropertyOp19
 70
     1
102
RTVSPropertyOp20
 70
     1
102
RTVSPropertyOp21
 70
     1
102
RTVSPropertyOp22
 70
     1
102
RTVSPropertyOp23
 70
     1
102
RTVSPropertyOp24
 70
     1
102
RTVSPropertyOp25
 70
     1
102
RTVSPropertyOp26
 70
     1
102
RTVSPropertyOp27
 70
     1
102
RTVSPropertyOp28
 70
     1
102
RTVSPropertyOp29
 70
     1
102
RTVSPropertyOp30
 70
     1
102
RTVSPropertyOp31
 70
     1
102
RTVSPropertyOp32
 70
     1
  0
XRECORD
  5
34C
102
{ACAD_REACTORS
330
34B
102
}
330
34B
100
AcDbXrecord
280
     1
102
RTVSPropertyOp0
 70
     1
102
RTVSPropertyOp1
 70
     1
102
RTVSPropertyOp2
 70
     1
102
RTVSPropertyOp3
 70
     1
102
RTVSPropertyOp4
 70
     1
102
RTVSPropertyOp5
 70
     1
102
RTVSPropertyOp6
 70
     1
102
RTVSPropertyOp7
 70
     1
102
RTVSPropertyOp8
 70
     1
102
RTVSPropertyOp9
 70
     1
102
RTVSPropertyOp10
 70
     1
102
RTVSPropertyOp11
 70
     1
102
RTVSPropertyOp12
 70
     1
102
RTVSPropertyOp13
 70
     1
102
RTVSPropertyOp14
 70
     1
102
RTVSPropertyOp15
 70
     1
102
RTVSPropertyOp16
 70
     1
102
RTVSPropertyOp17
 70
     1
102
RTVSPropertyOp18
 70
     1
102
RTVSPropertyOp19
 70
     1
102
RTVSPropertyOp20
 70
     1
102
RTVSPropertyOp21
 70
     1
102
RTVSPropertyOp22
 70
     1
102
RTVSPropertyOp23
 70
     1
102
RTVSPropertyOp24
 70
     1
102
RTVSPropertyOp25
 70
     1
102
RTVSPropertyOp26
 70
     1
102
RTVSPropertyOp27
 70
     1
102
RTVSPropertyOp28
 70
     1
102
RTVSPropertyOp29
 70
     1
102
RTVSPropertyOp30
 70
     1
102
RTVSPropertyOp31
 70
     1
102
RTVSPropertyOp32
 70
     1
  0
XRECORD
  5
354
102
{ACAD_REACTORS
330
353
102
}
330
353
100
AcDbXrecord
280
     1
102
RTVSPropertyOp0
 70
     1
102
RTVSPropertyOp1
 70
     1
102
RTVSPropertyOp2
 70
     1
102
RTVSPropertyOp3
 70
     1
102
RTVSPropertyOp4
 70
     1
102
RTVSPropertyOp5
 70
     1
102
RTVSPropertyOp6
 70
     1
102
RTVSPropertyOp7
 70
     1
102
RTVSPropertyOp8
 70
     1
102
RTVSPropertyOp9
 70
     1
102
RTVSPropertyOp10
 70
     1
102
RTVSPropertyOp11
 70
     1
102
RTVSPropertyOp12
 70
     1
102
RTVSPropertyOp13
 70
     1
102
RTVSPropertyOp14
 70
     1
102
RTVSPropertyOp15
 70
     1
102
RTVSPropertyOp16
 70
     1
102
RTVSPropertyOp17
 70
     1
102
RTVSPropertyOp18
 70
     1
102
RTVSPropertyOp19
 70
     1
102
RTVSPropertyOp20
 70
     1
102
RTVSPropertyOp21
 70
     1
102
RTVSPropertyOp22
 70
     1
102
RTVSPropertyOp23
 70
     1
102
RTVSPropertyOp24
 70
     1
102
RTVSPropertyOp25
 70
     1
102
RTVSPropertyOp26
 70
     1
102
RTVSPropertyOp27
 70
     1
102
RTVSPropertyOp28
 70
     1
102
RTVSPropertyOp29
 70
     1
102
RTVSPropertyOp30
 70
     1
102
RTVSPropertyOp31
 70
     1
102
RTVSPropertyOp32
 70
     1
  0
XRECORD
  5
370
102
{ACAD_REACTORS
330
36F
102
}
330
36F
100
AcDbXrecord
280
     1
102
RTVSPropertyOp0
 70
     0
102
RTVSPropertyOp1
 70
     0
102
RTVSPropertyOp2
 70
     0
102
RTVSPropertyOp3
 70
     0
102
RTVSPropertyOp4
 70
     0
102
RTVSPropertyOp5
 70
     0
102
RTVSPropertyOp6
 70
     0
102
RTVSPropertyOp7
 70
     0
102
RTVSPropertyOp8
 70
     0
102
RTVSPropertyOp9
 70
     0
102
RTVSPropertyOp10
 70
     0
102
RTVSPropertyOp11
 70
     0
102
RTVSPropertyOp12
 70
     0
102
RTVSPropertyOp13
 70
     0
102
RTVSPropertyOp14
 70
     2
102
RTVSPropertyOp15
 70
     0
102
RTVSPropertyOp16
 70
     0
102
RTVSPropertyOp17
 70
     0
102
RTVSPropertyOp18
 70
     0
102
RTVSPropertyOp19
 70
     0
102
RTVSPropertyOp20
 70
     0
102
RTVSPropertyOp21
 70
     0
102
RTVSPropertyOp22
 70
     0
102
RTVSPropertyOp23
 70
     0
102
RTVSPropertyOp24
 70
     0
102
RTVSPropertyOp25
 70
     0
102
RTVSPropertyOp26
 70
     0
102
RTVSPropertyOp27
 70
     0
102
RTVSPropertyOp28
 70
     0
102
RTVSPropertyOp29
 70
     0
102
RTVSPropertyOp30
 70
     0
102
RTVSPropertyOp31
 70
     0
102
RTVSPropertyOp32
 70
     0
  0
XRECORD
  5
360
102
{ACAD_REACTORS
330
35F
102
}
330
35F
100
AcDbXrecord
280
     1
102
RTVSPropertyOp0
 70
     1
102
RTVSPropertyOp1
 70
     1
102
RTVSPropertyOp2
 70
     1
102
RTVSPropertyOp3
 70
     1
102
RTVSPropertyOp4
 70
     1
102
RTVSPropertyOp5
 70
     1
102
RTVSPropertyOp6
 70
     1
102
RTVSPropertyOp7
 70
     1
102
RTVSPropertyOp8
 70
     1
102
RTVSPropertyOp9
 70
     1
102
RTVSPropertyOp10
 70
     1
102
RTVSPropertyOp11
 70
     1
102
RTVSPropertyOp12
 70
     1
102
RTVSPropertyOp13
 70
     1
102
RTVSPropertyOp14
 70
     1
102
RTVSPropertyOp15
 70
     1
102
RTVSPropertyOp16
 70
     1
102
RTVSPropertyOp17
 70
     1
102
RTVSPropertyOp18
 70
     1
102
RTVSPropertyOp19
 70
     1
102
RTVSPropertyOp20
 70
     1
102
RTVSPropertyOp21
 70
     1
102
RTVSPropertyOp22
 70
     1
102
RTVSPropertyOp23
 70
     1
102
RTVSPropertyOp24
 70
     1
102
RTVSPropertyOp25
 70
     1
102
RTVSPropertyOp26
 70
     1
102
RTVSPropertyOp27
 70
     1
102
RTVSPropertyOp28
 70
     1
102
RTVSPropertyOp29
 70
     1
102
RTVSPropertyOp30
 70
     1
102
RTVSPropertyOp31
 70
     1
102
RTVSPropertyOp32
 70
     1
  0
XRECORD
  5
372
102
{ACAD_REACTORS
330
371
102
}
330
371
100
AcDbXrecord
280
     1
102
RTVSPropertyOp0
 70
     0
102
RTVSPropertyOp1
 70
     0
102
RTVSPropertyOp2
 70
     0
102
RTVSPropertyOp3
 70
     0
102
RTVSPropertyOp4
 70
     0
102
RTVSPropertyOp5
 70
     0
102
RTVSPropertyOp6
 70
     0
102
RTVSPropertyOp7
 70
     0
102
RTVSPropertyOp8
 70
     0
102
RTVSPropertyOp9
 70
     0
102
RTVSPropertyOp10
 70
     0
102
RTVSPropertyOp11
 70
     0
102
RTVSPropertyOp12
 70
     0
102
RTVSPropertyOp13
 70
     0
102
RTVSPropertyOp14
 70
     2
102
RTVSPropertyOp15
 70
     0
102
RTVSPropertyOp16
 70
     0
102
RTVSPropertyOp17
 70
     0
102
RTVSPropertyOp18
 70
     0
102
RTVSPropertyOp19
 70
     0
102
RTVSPropertyOp20
 70
     0
102
RTVSPropertyOp21
 70
     0
102
RTVSPropertyOp22
 70
     0
102
RTVSPropertyOp23
 70
     0
102
RTVSPropertyOp24
 70
     0
102
RTVSPropertyOp25
 70
     0
102
RTVSPropertyOp26
 70
     0
102
RTVSPropertyOp27
 70
     0
102
RTVSPropertyOp28
 70
     0
102
RTVSPropertyOp29
 70
     0
102
RTVSPropertyOp30
 70
     0
102
RTVSPropertyOp31
 70
     0
102
RTVSPropertyOp32
 70
     0
  0
XRECORD
  5
358
102
{ACAD_REACTORS
330
357
102
}
330
357
100
AcDbXrecord
280
     1
102
RTVSPropertyOp0
 70
     1
102
RTVSPropertyOp1
 70
     1
102
RTVSPropertyOp2
 70
     1
102
RTVSPropertyOp3
 70
     1
102
RTVSPropertyOp4
 70
     1
102
RTVSPropertyOp5
 70
     1
102
RTVSPropertyOp6
 70
     1
102
RTVSPropertyOp7
 70
     1
102
RTVSPropertyOp8
 70
     1
102
RTVSPropertyOp9
 70
     1
102
RTVSPropertyOp10
 70
     1
102
RTVSPropertyOp11
 70
     1
102
RTVSPropertyOp12
 70
     1
102
RTVSPropertyOp13
 70
     1
102
RTVSPropertyOp14
 70
     1
102
RTVSPropertyOp15
 70
     1
102
RTVSPropertyOp16
 70
     1
102
RTVSPropertyOp17
 70
     1
102
RTVSPropertyOp18
 70
     1
102
RTVSPropertyOp19
 70
     1
102
RTVSPropertyOp20
 70
     1
102
RTVSPropertyOp21
 70
     1
102
RTVSPropertyOp22
 70
     1
102
RTVSPropertyOp23
 70
     1
102
RTVSPropertyOp24
 70
     1
102
RTVSPropertyOp25
 70
     1
102
RTVSPropertyOp26
 70
     1
102
RTVSPropertyOp27
 70
     1
102
RTVSPropertyOp28
 70
     1
102
RTVSPropertyOp29
 70
     1
102
RTVSPropertyOp30
 70
     1
102
RTVSPropertyOp31
 70
     1
102
RTVSPropertyOp32
 70
     1
  0
XRECORD
  5
36E
102
{ACAD_REACTORS
330
36D
102
}
330
36D
100
AcDbXrecord
280
     1
102
RTVSPropertyOp0
 70
     1
102
RTVSPropertyOp1
 70
     1
102
RTVSPropertyOp2
 70
     1
102
RTVSPropertyOp3
 70
     1
102
RTVSPropertyOp4
 70
     1
102
RTVSPropertyOp5
 70
     1
102
RTVSPropertyOp6
 70
     1
102
RTVSPropertyOp7
 70
     1
102
RTVSPropertyOp8
 70
     1
102
RTVSPropertyOp9
 70
     1
102
RTVSPropertyOp10
 70
     1
102
RTVSPropertyOp11
 70
     1
102
RTVSPropertyOp12
 70
     1
102
RTVSPropertyOp13
 70
     1
102
RTVSPropertyOp14
 70
     1
102
RTVSPropertyOp15
 70
     1
102
RTVSPropertyOp16
 70
     1
102
RTVSPropertyOp17
 70
     1
102
RTVSPropertyOp18
 70
     1
102
RTVSPropertyOp19
 70
     1
102
RTVSPropertyOp20
 70
     1
102
RTVSPropertyOp21
 70
     1
102
RTVSPropertyOp22
 70
     1
102
RTVSPropertyOp23
 70
     1
102
RTVSPropertyOp24
 70
     1
102
RTVSPropertyOp25
 70
     1
102
RTVSPropertyOp26
 70
     1
102
RTVSPropertyOp27
 70
     1
102
RTVSPropertyOp28
 70
     1
102
RTVSPropertyOp29
 70
     1
102
RTVSPropertyOp30
 70
     1
102
RTVSPropertyOp31
 70
     1
102
RTVSPropertyOp32
 70
     1
  0
XRECORD
  5
36C
102
{ACAD_REACTORS
330
36B
102
}
330
36B
100
AcDbXrecord
280
     1
102
RTVSPropertyOp0
 70
     1
102
RTVSPropertyOp1
 70
     1
102
RTVSPropertyOp2
 70
     1
102
RTVSPropertyOp3
 70
     1
102
RTVSPropertyOp4
 70
     1
102
RTVSPropertyOp5
 70
     1
102
RTVSPropertyOp6
 70
     1
102
RTVSPropertyOp7
 70
     1
102
RTVSPropertyOp8
 70
     1
102
RTVSPropertyOp9
 70
     1
102
RTVSPropertyOp10
 70
     1
102
RTVSPropertyOp11
 70
     1
102
RTVSPropertyOp12
 70
     1
102
RTVSPropertyOp13
 70
     1
102
RTVSPropertyOp14
 70
     1
102
RTVSPropertyOp15
 70
     1
102
RTVSPropertyOp16
 70
     1
102
RTVSPropertyOp17
 70
     1
102
RTVSPropertyOp18
 70
     1
102
RTVSPropertyOp19
 70
     1
102
RTVSPropertyOp20
 70
     1
102
RTVSPropertyOp21
 70
     1
102
RTVSPropertyOp22
 70
     1
102
RTVSPropertyOp23
 70
     1
102
RTVSPropertyOp24
 70
     1
102
RTVSPropertyOp25
 70
     1
102
RTVSPropertyOp26
 70
     1
102
RTVSPropertyOp27
 70
     1
102
RTVSPropertyOp28
 70
     1
102
RTVSPropertyOp29
 70
     1
102
RTVSPropertyOp30
 70
     1
102
RTVSPropertyOp31
 70
     1
102
RTVSPropertyOp32
 70
     1
  0
XRECORD
  5
366
102
{ACAD_REACTORS
330
365
102
}
330
365
100
AcDbXrecord
280
     1
102
RTVSPropertyOp0
 70
     1
102
RTVSPropertyOp1
 70
     1
102
RTVSPropertyOp2
 70
     1
102
RTVSPropertyOp3
 70
     1
102
RTVSPropertyOp4
 70
     1
102
RTVSPropertyOp5
 70
     1
102
RTVSPropertyOp6
 70
     1
102
RTVSPropertyOp7
 70
     1
102
RTVSPropertyOp8
 70
     1
102
RTVSPropertyOp9
 70
     1
102
RTVSPropertyOp10
 70
     1
102
RTVSPropertyOp11
 70
     1
102
RTVSPropertyOp12
 70
     1
102
RTVSPropertyOp13
 70
     1
102
RTVSPropertyOp14
 70
     1
102
RTVSPropertyOp15
 70
     1
102
RTVSPropertyOp16
 70
     1
102
RTVSPropertyOp17
 70
     1
102
RTVSPropertyOp18
 70
     1
102
RTVSPropertyOp19
 70
     1
102
RTVSPropertyOp20
 70
     1
102
RTVSPropertyOp21
 70
     1
102
RTVSPropertyOp22
 70
     1
102
RTVSPropertyOp23
 70
     1
102
RTVSPropertyOp24
 70
     1
102
RTVSPropertyOp25
 70
     1
102
RTVSPropertyOp26
 70
     1
102
RTVSPropertyOp27
 70
     1
102
RTVSPropertyOp28
 70
     1
102
RTVSPropertyOp29
 70
     1
102
RTVSPropertyOp30
 70
     1
102
RTVSPropertyOp31
 70
     1
102
RTVSPropertyOp32
 70
     1
  0
XRECORD
  5
368
102
{ACAD_REACTORS
330
367
102
}
330
367
100
AcDbXrecord
280
     1
102
RTVSPropertyOp0
 70
     1
102
RTVSPropertyOp1
 70
     1
102
RTVSPropertyOp2
 70
     1
102
RTVSPropertyOp3
 70
     1
102
RTVSPropertyOp4
 70
     1
102
RTVSPropertyOp5
 70
     1
102
RTVSPropertyOp6
 70
     1
102
RTVSPropertyOp7
 70
     1
102
RTVSPropertyOp8
 70
     1
102
RTVSPropertyOp9
 70
     1
102
RTVSPropertyOp10
 70
     1
102
RTVSPropertyOp11
 70
     1
102
RTVSPropertyOp12
 70
     1
102
RTVSPropertyOp13
 70
     1
102
RTVSPropertyOp14
 70
     1
102
RTVSPropertyOp15
 70
     1
102
RTVSPropertyOp16
 70
     1
102
RTVSPropertyOp17
 70
     1
102
RTVSPropertyOp18
 70
     1
102
RTVSPropertyOp19
 70
     1
102
RTVSPropertyOp20
 70
     1
102
RTVSPropertyOp21
 70
     1
102
RTVSPropertyOp22
 70
     1
102
RTVSPropertyOp23
 70
     1
102
RTVSPropertyOp24
 70
     1
102
RTVSPropertyOp25
 70
     1
102
RTVSPropertyOp26
 70
     1
102
RTVSPropertyOp27
 70
     1
102
RTVSPropertyOp28
 70
     1
102
RTVSPropertyOp29
 70
     1
102
RTVSPropertyOp30
 70
     1
102
RTVSPropertyOp31
 70
     1
102
RTVSPropertyOp32
 70
     1
  0
XRECORD
  5
35E
102
{ACAD_REACTORS
330
35D
102
}
330
35D
100
AcDbXrecord
280
     1
102
RTVSPropertyOp0
 70
     1
102
RTVSPropertyOp1
 70
     1
102
RTVSPropertyOp2
 70
     1
102
RTVSPropertyOp3
 70
     1
102
RTVSPropertyOp4
 70
     1
102
RTVSPropertyOp5
 70
     1
102
RTVSPropertyOp6
 70
     1
102
RTVSPropertyOp7
 70
     1
102
RTVSPropertyOp8
 70
     1
102
RTVSPropertyOp9
 70
     1
102
RTVSPropertyOp10
 70
     1
102
RTVSPropertyOp11
 70
     1
102
RTVSPropertyOp12
 70
     1
102
RTVSPropertyOp13
 70
     1
102
RTVSPropertyOp14
 70
     1
102
RTVSPropertyOp15
 70
     1
102
RTVSPropertyOp16
 70
     1
102
RTVSPropertyOp17
 70
     1
102
RTVSPropertyOp18
 70
     1
102
RTVSPropertyOp19
 70
     1
102
RTVSPropertyOp20
 70
     1
102
RTVSPropertyOp21
 70
     1
102
RTVSPropertyOp22
 70
     1
102
RTVSPropertyOp23
 70
     1
102
RTVSPropertyOp24
 70
     1
102
RTVSPropertyOp25
 70
     1
102
RTVSPropertyOp26
 70
     1
102
RTVSPropertyOp27
 70
     1
102
RTVSPropertyOp28
 70
     1
102
RTVSPropertyOp29
 70
     1
102
RTVSPropertyOp30
 70
     1
102
RTVSPropertyOp31
 70
     1
102
RTVSPropertyOp32
 70
     1
  0
XRECORD
  5
352
102
{ACAD_REACTORS
330
351
102
}
330
351
100
AcDbXrecord
280
     1
102
RTVSPropertyOp0
 70
     1
102
RTVSPropertyOp1
 70
     1
102
RTVSPropertyOp2
 70
     1
102
RTVSPropertyOp3
 70
     1
102
RTVSPropertyOp4
 70
     1
102
RTVSPropertyOp5
 70
     1
102
RTVSPropertyOp6
 70
     1
102
RTVSPropertyOp7
 70
     1
102
RTVSPropertyOp8
 70
     1
102
RTVSPropertyOp9
 70
     1
102
RTVSPropertyOp10
 70
     1
102
RTVSPropertyOp11
 70
     1
102
RTVSPropertyOp12
 70
     1
102
RTVSPropertyOp13
 70
     1
102
RTVSPropertyOp14
 70
     1
102
RTVSPropertyOp15
 70
     1
102
RTVSPropertyOp16
 70
     1
102
RTVSPropertyOp17
 70
     1
102
RTVSPropertyOp18
 70
     1
102
RTVSPropertyOp19
 70
     1
102
RTVSPropertyOp20
 70
     1
102
RTVSPropertyOp21
 70
     1
102
RTVSPropertyOp22
 70
     1
102
RTVSPropertyOp23
 70
     1
102
RTVSPropertyOp24
 70
     1
102
RTVSPropertyOp25
 70
     1
102
RTVSPropertyOp26
 70
     1
102
RTVSPropertyOp27
 70
     1
102
RTVSPropertyOp28
 70
     1
102
RTVSPropertyOp29
 70
     1
102
RTVSPropertyOp30
 70
     1
102
RTVSPropertyOp31
 70
     1
102
RTVSPropertyOp32
 70
     1
  0
XRECORD
  5
36A
102
{ACAD_REACTORS
330
369
102
}
330
369
100
AcDbXrecord
280
     1
102
RTVSPropertyOp0
 70
     1
102
RTVSPropertyOp1
 70
     1
102
RTVSPropertyOp2
 70
     1
102
RTVSPropertyOp3
 70
     1
102
RTVSPropertyOp4
 70
     1
102
RTVSPropertyOp5
 70
     1
102
RTVSPropertyOp6
 70
     1
102
RTVSPropertyOp7
 70
     1
102
RTVSPropertyOp8
 70
     1
102
RTVSPropertyOp9
 70
     1
102
RTVSPropertyOp10
 70
     1
102
RTVSPropertyOp11
 70
     1
102
RTVSPropertyOp12
 70
     1
102
RTVSPropertyOp13
 70
     1
102
RTVSPropertyOp14
 70
     1
102
RTVSPropertyOp15
 70
     1
102
RTVSPropertyOp16
 70
     1
102
RTVSPropertyOp17
 70
     1
102
RTVSPropertyOp18
 70
     1
102
RTVSPropertyOp19
 70
     1
102
RTVSPropertyOp20
 70
     1
102
RTVSPropertyOp21
 70
     1
102
RTVSPropertyOp22
 70
     1
102
RTVSPropertyOp23
 70
     1
102
RTVSPropertyOp24
 70
     1
102
RTVSPropertyOp25
 70
     1
102
RTVSPropertyOp26
 70
     1
102
RTVSPropertyOp27
 70
     1
102
RTVSPropertyOp28
 70
     1
102
RTVSPropertyOp29
 70
     1
102
RTVSPropertyOp30
 70
     1
102
RTVSPropertyOp31
 70
     1
102
RTVSPropertyOp32
 70
     1
  0
ENDSEC
  0
EOF
