  0
SECTION
  2
HEADER
  9
$ACADVER
  1
AC1018
  9
$ACADMAINTVER
 70
   104
  9
$DWGCODEPAGE
  3
ANSI_932
  9
$AUTHOR
  1
SHIMPO
  9
$CUSTOMPROPERTYTAG
  1
マネージャ
  9
$CUSTOMPROPERTY
  1

  9
$CUSTOMPROPERTYTAG
  1
会社
  9
$CUSTOMPROPERTY
  1

  9
$CUSTOMPROPERTYTAG
  1
カテゴリ
  9
$CUSTOMPROPERTY
  1

  9
$CUSTOMPROPERTYTAG
  1
部品番号
  9
$CUSTOMPROPERTY
  1
VRXF-□-15~81D-S-14EJ14
  9
$CUSTOMPROPERTYTAG
  1
説明
  9
$CUSTOMPROPERTY
  1

  9
$CUSTOMPROPERTYTAG
  1
プロジェクト
  9
$CUSTOMPROPERTY
  1

  9
$CUSTOMPROPERTYTAG
  1
設計者
  9
$CUSTOMPROPERTY
  1
SHIMPO
  9
$CUSTOMPROPERTYTAG
  1
エンジニア
  9
$CUSTOMPROPERTY
  1

  9
$CUSTOMPROPERTYTAG
  1
責任者
  9
$CUSTOMPROPERTY
  1

  9
$CUSTOMPROPERTYTAG
  1
コスト センター
  9
$CUSTOMPROPERTY
  1

  9
$CUSTOMPROPERTYTAG
  1
ベンダー
  9
$CUSTOMPROPERTY
  1

  9
$CUSTOMPROPERTYTAG
  1
ユーザ ステータス
  9
$CUSTOMPROPERTY
  1

  9
$CUSTOMPROPERTYTAG
  1
設計ステータス
  9
$CUSTOMPROPERTY
  1
作業中
  9
$CUSTOMPROPERTYTAG
  1
確認者
  9
$CUSTOMPROPERTY
  1

  9
$CUSTOMPROPERTYTAG
  1
エンジニアリング承認者
  9
$CUSTOMPROPERTY
  1

  9
$CUSTOMPROPERTYTAG
  1
製造承認者
  9
$CUSTOMPROPERTY
  1

  9
$INSBASE
 10
0.0
 20
0.0
 30
0.0
  9
$EXTMIN
 10
0.0
 20
0.0
 30
0.0
  9
$EXTMAX
 10
656.2499999999999
 20
464.0624999999999
 30
0.0
  9
$LIMMIN
 10
0.0
 20
0.0
  9
$LIMMAX
 10
656.2499999999999
 20
464.0624999999999
  9
$ORTHOMODE
 70
     0
  9
$REGENMODE
 70
     1
  9
$FILLMODE
 70
     1
  9
$QTEXTMODE
 70
     0
  9
$MIRRTEXT
 70
     0
  9
$LTSCALE
 40
1.562499999999999
  9
$ATTMODE
 70
     1
  9
$TEXTSIZE
 40
0.2
  9
$TRACEWID
 40
0.05
  9
$TEXTSTYLE
  7
Standard
  9
$CLAYER
  8
0
  9
$CELTYPE
  6
ByLayer
  9
$CECOLOR
 62
   256
  9
$CELTSCALE
 40
1.0
  9
$DISPSILH
 70
     0
  9
$DIMSCALE
 40
1.0
  9
$DIMASZ
 40
1.799999999999999
  9
$DIMEXO
 40
0.0625
  9
$DIMDLI
 40
0.38
  9
$DIMRND
 40
0.0
  9
$DIMDLE
 40
0.0
  9
$DIMEXE
 40
0.18
  9
$DIMTP
 40
0.0
  9
$DIMTM
 40
0.0
  9
$DIMTXT
 40
0.4499999880790711
  9
$DIMCEN
 40
0.09
  9
$DIMTSZ
 40
0.0
  9
$DIMTOL
 70
     0
  9
$DIMLIM
 70
     0
  9
$DIMTIH
 70
     1
  9
$DIMTOH
 70
     1
  9
$DIMSE1
 70
     0
  9
$DIMSE2
 70
     0
  9
$DIMTAD
 70
     0
  9
$DIMZIN
 70
     0
  9
$DIMBLK
  1

  9
$DIMASO
 70
     1
  9
$DIMSHO
 70
     1
  9
$DIMPOST
  1

  9
$DIMAPOST
  1

  9
$DIMALT
 70
     0
  9
$DIMALTD
 70
     2
  9
$DIMALTF
 40
25.4
  9
$DIMLFAC
 40
1.0
  9
$DIMTOFL
 70
     0
  9
$DIMTVP
 40
0.0
  9
$DIMTIX
 70
     0
  9
$DIMSOXD
 70
     0
  9
$DIMSAH
 70
     0
  9
$DIMBLK1
  1

  9
$DIMBLK2
  1

  9
$DIMSTYLE
  2
Standard
  9
$DIMCLRD
 70
     0
  9
$DIMCLRE
 70
     0
  9
$DIMCLRT
 70
     0
  9
$DIMTFAC
 40
1.0
  9
$DIMGAP
 40
0.09
  9
$DIMJUST
 70
     0
  9
$DIMSD1
 70
     0
  9
$DIMSD2
 70
     0
  9
$DIMTOLJ
 70
     1
  9
$DIMTZIN
 70
     0
  9
$DIMALTZ
 70
     0
  9
$DIMALTTZ
 70
     0
  9
$DIMUPT
 70
     0
  9
$DIMDEC
 70
     4
  9
$DIMTDEC
 70
     4
  9
$DIMALTU
 70
     2
  9
$DIMALTTD
 70
     2
  9
$DIMTXSTY
  7
Standard
  9
$DIMAUNIT
 70
     0
  9
$DIMADEC
 70
     0
  9
$DIMALTRND
 40
0.0
  9
$DIMAZIN
 70
     0
  9
$DIMDSEP
 70
    46
  9
$DIMATFIT
 70
     3
  9
$DIMFRAC
 70
     0
  9
$DIMLDRBLK
  1

  9
$DIMLUNIT
 70
     2
  9
$DIMLWD
 70
    -2
  9
$DIMLWE
 70
    -2
  9
$DIMTMOVE
 70
     0
  9
$LUNITS
 70
     2
  9
$LUPREC
 70
     4
  9
$SKETCHINC
 40
0.1
  9
$FILLETRAD
 40
0.0
  9
$AUNITS
 70
     0
  9
$AUPREC
 70
     0
  9
$MENU
  1
.
  9
$ELEVATION
 40
0.0
  9
$PELEVATION
 40
0.0
  9
$THICKNESS
 40
0.0
  9
$LIMCHECK
 70
     0
  9
$CHAMFERA
 40
0.0
  9
$CHAMFERB
 40
0.0
  9
$CHAMFERC
 40
0.0
  9
$CHAMFERD
 40
0.0
  9
$SKPOLY
 70
     0
  9
$TDCREATE
 40
2457410.938715451
  9
$TDUCREATE
 40
2457410.563715451
  9
$TDUPDATE
 40
2457410.938715451
  9
$TDUUPDATE
 40
2457410.563715451
  9
$TDINDWG
 40
0.0000790162
  9
$TDUSRTIMER
 40
0.0000790162
  9
$USRTIMER
 70
     1
  9
$ANGBASE
 50
0.0
  9
$ANGDIR
 70
     0
  9
$PDMODE
 70
     0
  9
$PDSIZE
 40
0.0
  9
$PLINEWID
 40
0.0
  9
$SPLFRAME
 70
     0
  9
$SPLINETYPE
 70
     6
  9
$SPLINESEGS
 70
     8
  9
$HANDSEED
  5
337
  9
$SURFTAB1
 70
     6
  9
$SURFTAB2
 70
     6
  9
$SURFTYPE
 70
     6
  9
$SURFU
 70
     6
  9
$SURFV
 70
     6
  9
$UCSBASE
  2

  9
$UCSNAME
  2

  9
$UCSORG
 10
0.0
 20
0.0
 30
0.0
  9
$UCSXDIR
 10
1.0
 20
0.0
 30
0.0
  9
$UCSYDIR
 10
0.0
 20
1.0
 30
0.0
  9
$UCSORTHOREF
  2

  9
$UCSORTHOVIEW
 70
     0
  9
$UCSORGTOP
 10
0.0
 20
0.0
 30
0.0
  9
$UCSORGBOTTOM
 10
0.0
 20
0.0
 30
0.0
  9
$UCSORGLEFT
 10
0.0
 20
0.0
 30
0.0
  9
$UCSORGRIGHT
 10
0.0
 20
0.0
 30
0.0
  9
$UCSORGFRONT
 10
0.0
 20
0.0
 30
0.0
  9
$UCSORGBACK
 10
0.0
 20
0.0
 30
0.0
  9
$PUCSBASE
  2

  9
$PUCSNAME
  2

  9
$PUCSORG
 10
0.0
 20
0.0
 30
0.0
  9
$PUCSXDIR
 10
1.0
 20
0.0
 30
0.0
  9
$PUCSYDIR
 10
0.0
 20
1.0
 30
0.0
  9
$PUCSORTHOREF
  2

  9
$PUCSORTHOVIEW
 70
     0
  9
$PUCSORGTOP
 10
0.0
 20
0.0
 30
0.0
  9
$PUCSORGBOTTOM
 10
0.0
 20
0.0
 30
0.0
  9
$PUCSORGLEFT
 10
0.0
 20
0.0
 30
0.0
  9
$PUCSORGRIGHT
 10
0.0
 20
0.0
 30
0.0
  9
$PUCSORGFRONT
 10
0.0
 20
0.0
 30
0.0
  9
$PUCSORGBACK
 10
0.0
 20
0.0
 30
0.0
  9
$USERI1
 70
     0
  9
$USERI2
 70
     0
  9
$USERI3
 70
     0
  9
$USERI4
 70
     0
  9
$USERI5
 70
     0
  9
$USERR1
 40
0.0
  9
$USERR2
 40
0.0
  9
$USERR3
 40
0.0
  9
$USERR4
 40
0.0
  9
$USERR5
 40
0.0
  9
$WORLDVIEW
 70
     1
  9
$SHADEDGE
 70
     3
  9
$SHADEDIF
 70
    70
  9
$TILEMODE
 70
     1
  9
$MAXACTVP
 70
    64
  9
$PINSBASE
 10
0.0
 20
0.0
 30
0.0
  9
$PLIMCHECK
 70
     0
  9
$PEXTMIN
 10
0.0
 20
0.0
 30
0.0
  9
$PEXTMAX
 10
656.2499999999999
 20
464.0624999999999
 30
0.0
  9
$PLIMMIN
 10
0.0
 20
0.0
  9
$PLIMMAX
 10
656.2499999999999
 20
464.0624999999999
  9
$UNITMODE
 70
     0
  9
$VISRETAIN
 70
     1
  9
$PLINEGEN
 70
     0
  9
$PSLTSCALE
 70
     1
  9
$TREEDEPTH
 70
  3020
  9
$CMLSTYLE
  2
Standard
  9
$CMLJUST
 70
     0
  9
$CMLSCALE
 40
1.0
  9
$PROXYGRAPHICS
 70
     1
  9
$MEASUREMENT
 70
     1
  9
$CELWEIGHT
370
    -1
  9
$ENDCAPS
280
     0
  9
$JOINSTYLE
280
     0
  9
$LWDISPLAY
290
     0
  9
$INSUNITS
 70
     4
  9
$HYPERLINKBASE
  1

  9
$STYLESHEET
  1

  9
$XEDIT
290
     1
  9
$CEPSNTYPE
380
     0
  9
$PSTYLEMODE
290
     1
  9
$FINGERPRINTGUID
  2
{F9BBE801-6CF6-4BB7-B6A1-6A8C84636B60}
  9
$VERSIONGUID
  2
{A80DD6A7-A3D8-4DCB-8E1C-AB79A33D5A6C}
  9
$EXTNAMES
290
     1
  9
$PSVPSCALE
 40
0.0
  9
$OLESTARTUP
290
     0
  9
$SORTENTS
280
   127
  9
$INDEXCTL
280
     0
  9
$HIDETEXT
280
     1
  9
$XCLIPFRAME
290
     0
  9
$HALOGAP
280
     0
  9
$OBSCOLOR
 70
   257
  9
$OBSLTYPE
280
     0
  9
$INTERSECTIONDISPLAY
280
     0
  9
$INTERSECTIONCOLOR
 70
   257
  9
$DIMASSOC
280
     1
  9
$PROJECTNAME
  1

  0
ENDSEC
  0
SECTION
  2
CLASSES
  0
CLASS
  1
ACDBDICTIONARYWDFLT
  2
AcDbDictionaryWithDefault
  3
ObjectDBX Classes
 90
        0
 91
        1
280
     0
281
     0
  0
CLASS
  1
MATERIAL
  2
AcDbMaterial
  3
ObjectDBX Classes
 90
     1153
 91
        3
280
     0
281
     0
  0
CLASS
  1
VISUALSTYLE
  2
AcDbVisualStyle
  3
ObjectDBX Classes
 90
     4095
 91
       24
280
     0
281
     0
  0
CLASS
  1
SCALE
  2
AcDbScale
  3
ObjectDBX Classes
 90
     1153
 91
       17
280
     0
281
     0
  0
CLASS
  1
TABLESTYLE
  2
AcDbTableStyle
  3
ObjectDBX Classes
 90
     4095
 91
        1
280
     0
281
     0
  0
CLASS
  1
MLEADERSTYLE
  2
AcDbMLeaderStyle
  3
ACDB_MLEADERSTYLE_CLASS
 90
     4095
 91
        1
280
     0
281
     0
  0
CLASS
  1
DICTIONARYVAR
  2
AcDbDictionaryVar
  3
ObjectDBX Classes
 90
        0
 91
        8
280
     0
281
     0
  0
CLASS
  1
CELLSTYLEMAP
  2
AcDbCellStyleMap
  3
ObjectDBX Classes
 90
     1152
 91
        1
280
     0
281
     0
  0
ENDSEC
  0
SECTION
  2
TABLES
  0
TABLE
  2
VPORT
  5
8
330
0
100
AcDbSymbolTable
 70
     1
  0
VPORT
  5
57
330
8
100
AcDbSymbolTableRecord
100
AcDbViewportTableRecord
  2
*Active
 70
     0
 10
0.0
 20
0.0
 11
1.0
 21
1.0
 12
328.125
 22
232.03125
 13
0.0
 23
0.0
 14
1.0
 24
1.0
 15
0.0
 25
0.0
 16
0.0
 26
0.0
 36
1.0
 17
0.0
 27
0.0
 37
0.0
 40
464.0624999999999
 41
1.414141414141414
 42
50.0
 43
0.0
 44
0.0
 50
0.0
 51
0.0
 71
     0
 72
   100
 73
     1
 74
     1
 75
     0
 76
     0
 77
     0
 78
     0
281
     0
 65
     1
110
0.0
120
0.0
130
0.0
111
1.0
121
0.0
131
0.0
112
0.0
122
1.0
132
0.0
 79
     0
146
0.0
  0
ENDTAB
  0
TABLE
  2
LTYPE
  5
5
330
0
100
AcDbSymbolTable
 70
     1
  0
LTYPE
  5
5B
330
5
100
AcDbSymbolTableRecord
100
AcDbLinetypeTableRecord
  2
ByBlock
 70
     0
  3

 72
    65
 73
     0
 40
0.0
  0
LTYPE
  5
5C
330
5
100
AcDbSymbolTableRecord
100
AcDbLinetypeTableRecord
  2
ByLayer
 70
     0
  3

 72
    65
 73
     0
 40
0.0
  0
LTYPE
  5
5D
330
5
100
AcDbSymbolTableRecord
100
AcDbLinetypeTableRecord
  2
Continuous
 70
     0
  3
Solid line
 72
    65
 73
     0
 40
0.0
  0
ENDTAB
  0
TABLE
  2
LAYER
  5
2
330
0
100
AcDbSymbolTable
 70
    26
  0
LAYER
  5
54
330
2
100
AcDbSymbolTableRecord
100
AcDbLayerTableRecord
  2
0
 70
     0
 62
     7
  6
Continuous
370
    -3
390
F
  0
LAYER
  5
77
330
2
100
AcDbSymbolTableRecord
100
AcDbLayerTableRecord
  2
Border (ISO)
 70
     0
 62
     7
  6
Continuous
370
    70
390
F
  0
LAYER
  5
79
330
2
100
AcDbSymbolTableRecord
100
AcDbLayerTableRecord
  2
Center Mark (ISO)
 70
     0
 62
     7
  6
Continuous
370
    25
390
F
  0
LAYER
  5
7A
330
2
100
AcDbSymbolTableRecord
100
AcDbLayerTableRecord
  2
Centerline (ISO)
 70
     0
 62
     7
  6
Continuous
370
    25
390
F
  0
LAYER
  5
85
330
2
100
AcDbSymbolTableRecord
100
AcDbLayerTableRecord
  2
Title (ISO)
 70
     0
 62
     7
  6
Continuous
370
    50
390
F
  0
LAYER
  5
87
330
2
100
AcDbSymbolTableRecord
100
AcDbLayerTableRecord
  2
Visible (ISO)
 70
     0
 62
     7
  6
Continuous
370
    50
390
F
  0
LAYER
  5
88
330
2
100
AcDbSymbolTableRecord
100
AcDbLayerTableRecord
  2
Visible Narrow (ISO)
 70
     0
 62
     7
  6
Continuous
370
    35
390
F
  0
ENDTAB
  0
TABLE
  2
STYLE
  5
3
330
0
100
AcDbSymbolTable
 70
     5
  0
STYLE
  5
55
330
3
100
AcDbSymbolTableRecord
100
AcDbTextStyleTableRecord
  2
Standard
 70
     0
 40
0.0
 41
1.0
 50
0.0
 71
     0
 42
0.2
  3
tahoma.ttf
  4

1001
ACAD
1000
Tahoma
1071
      256
  0
STYLE
  5
5A
330
3
100
AcDbSymbolTableRecord
100
AcDbTextStyleTableRecord
  2
Annotative
 70
     0
 40
0.0
 41
1.0
 50
0.0
 71
     0
 42
0.2
  3
txt
  4

1001
AcadAnnotative
1000
AnnotativeData
1002
{
1070
     1
1070
     1
1002
}
  0
STYLE
  5
8D
330
3
100
AcDbSymbolTableRecord
100
AcDbTextStyleTableRecord
  2
Label Text (JIS)
 70
     0
 40
0.0
 41
1.0
 50
0.0
 71
     0
 42
0.2
  3
tahoma.ttf
  4

1001
ACAD
1000
Tahoma
1071
      256
  0
STYLE
  5
8E
330
3
100
AcDbSymbolTableRecord
100
AcDbTextStyleTableRecord
  2
Note Text (JIS)
 70
     0
 40
0.0
 41
1.0
 50
0.0
 71
     0
 42
0.2
  3
tahoma.ttf
  4

1001
ACAD
1000
Tahoma
1071
      256
  0
STYLE
  5
CC
330
3
100
AcDbSymbolTableRecord
100
AcDbTextStyleTableRecord
  2
文字スタイル12
 70
     0
 40
0.0
 41
1.0
 50
0.0
 71
     0
 42
0.2
  3
tahoma.ttf
  4

1001
ACAD
1000
Tahoma
1071
      256
  0
ENDTAB
  0
TABLE
  2
VIEW
  5
6
330
0
100
AcDbSymbolTable
 70
     0
  0
ENDTAB
  0
TABLE
  2
UCS
  5
7
330
0
100
AcDbSymbolTable
 70
     0
  0
ENDTAB
  0
TABLE
  2
APPID
  5
9
330
0
100
AcDbSymbolTable
 70
     4
  0
APPID
  5
56
330
9
100
AcDbSymbolTableRecord
100
AcDbRegAppTableRecord
  2
ACAD
 70
     0
  0
APPID
  5
5E
330
9
100
AcDbSymbolTableRecord
100
AcDbRegAppTableRecord
  2
AcadAnnotative
 70
     0
  0
APPID
  5
CF
330
9
100
AcDbSymbolTableRecord
100
AcDbRegAppTableRecord
  2
AcadAnnoPO
 70
     0
  0
APPID
  5
336
330
9
100
AcDbSymbolTableRecord
100
AcDbRegAppTableRecord
  2
ACAD_MLEADERVER
 70
     0
  0
ENDTAB
  0
TABLE
  2
DIMSTYLE
  5
A
330
0
100
AcDbSymbolTable
 70
    11
100
AcDbDimStyleTable
 71
     0
  0
DIMSTYLE
105
58
330
A
100
AcDbSymbolTableRecord
100
AcDbDimStyleTableRecord
  2
Standard
 70
     0
340
55
  0
DIMSTYLE
105
59
330
A
100
AcDbSymbolTableRecord
100
AcDbDimStyleTableRecord
  2
Annotative
 70
     0
340
55
1001
AcadAnnotative
1000
AnnotativeData
1002
{
1070
     1
1070
     1
1002
}
  0
DIMSTYLE
105
8F
330
A
100
AcDbSymbolTableRecord
100
AcDbDimStyleTableRecord
  2
Default - Method 1b (JIS)
 70
     0
 40
1.562499999999999
 41
2.5
 42
0.0
 43
5.999999999999999
 44
3.174999999999999
 45
0.00000001
 46
10.0
 73
     0
 77
     1
 78
     8
 79
     2
140
4.5
143
0.03937
147
0.8
171
     3
172
     1
176
   256
177
   256
178
   256
271
     2
272
     2
274
     3
284
     8
286
     8
340
8E
341
90
342
90
371
    -1
372
    -1
  0
DIMSTYLE
105
96
330
A
100
AcDbSymbolTableRecord
100
AcDbDimStyleTableRecord
  2
Default - Method 1b (JIS)$7
 70
     0
 40
1.562499999999999
 41
2.5
 42
0.0
 43
5.999999999999999
 44
3.174999999999999
 45
0.00000001
 46
10.0
 73
     0
 77
     1
 78
     8
 79
     2
140
4.5
143
0.03937
147
0.8
171
     3
172
     1
176
   256
177
   256
178
   256
271
     2
272
     2
274
     3
284
     8
286
     8
340
8E
341
90
342
90
371
    -1
372
    -1
  0
DIMSTYLE
105
97
330
A
100
AcDbSymbolTableRecord
100
AcDbDimStyleTableRecord
  2
Default - Method 2 (JIS)
 70
     0
 40
1.562499999999999
 41
2.5
 42
0.0
 43
5.999999999999999
 44
3.174999999999999
 45
0.00000001
 46
10.0
 77
     1
 78
     8
 79
     2
140
4.5
143
0.03937
147
0.8
171
     3
172
     1
176
   256
177
   256
178
   256
271
     2
272
     2
274
     3
284
     8
286
     8
340
8E
341
90
342
90
371
    -1
372
    -1
  0
DIMSTYLE
105
98
330
A
100
AcDbSymbolTableRecord
100
AcDbDimStyleTableRecord
  2
Default - Method 2 (JIS)$7
 70
     0
 40
1.562499999999999
 41
2.5
 42
0.0
 43
5.999999999999999
 44
3.174999999999999
 45
0.00000001
 46
10.0
 77
     1
 78
     8
 79
     2
140
4.5
143
0.03937
147
0.8
171
     3
172
     1
176
   256
177
   256
178
   256
271
     2
272
     2
274
     3
284
     8
286
     8
340
8E
341
90
342
90
371
    -1
372
    -1
  0
DIMSTYLE
105
99
330
A
100
AcDbSymbolTableRecord
100
AcDbDimStyleTableRecord
  2
Default (JIS)
 70
     0
 40
1.562499999999999
 41
2.5
 42
0.0
 43
5.999999999999999
 44
1.0
 45
0.00000001
 46
10.0
 73
     0
 74
     0
 77
     1
 78
     8
 79
     2
140
4.5
143
0.03937
146
0.7777777910232544
147
0.8
171
     3
172
     1
176
   256
177
   256
178
   256
271
     2
272
     2
274
     3
340
8E
341
90
342
90
371
    -1
372
    -1
  0
DIMSTYLE
105
9A
330
A
100
AcDbSymbolTableRecord
100
AcDbDimStyleTableRecord
  2
Default (JIS)$7
 70
     0
 40
1.562499999999999
 41
2.5
 42
0.0
 43
5.999999999999999
 44
1.0
 45
0.00000001
 46
10.0
 73
     0
 74
     0
 77
     1
 78
     8
 79
     2
140
4.5
143
0.03937
146
0.7777777910232544
147
0.8
171
     3
172
     1
176
   256
177
   256
178
   256
271
     2
272
     2
274
     3
340
8E
341
90
342
90
371
    -1
372
    -1
  0
DIMSTYLE
105
9B
330
A
100
AcDbSymbolTableRecord
100
AcDbDimStyleTableRecord
  2
Alternate (ISO)
 70
     0
 40
1.562499999999999
 41
2.5
340
55
342
9C
  0
DIMSTYLE
105
AE
330
A
100
AcDbSymbolTableRecord
100
AcDbDimStyleTableRecord
  2
Datum (ISO)
 70
     0
 40
1.562499999999999
 41
2.5
340
55
342
9C
  0
DIMSTYLE
105
BD
330
A
100
AcDbSymbolTableRecord
100
AcDbDimStyleTableRecord
  2
Large (ISO)
 70
     0
 40
1.562499999999999
 41
5.0
340
55
342
9C
  0
ENDTAB
  0
TABLE
  2
BLOCK_RECORD
  5
1
330
0
100
AcDbSymbolTable
 70
     7
  0
BLOCK_RECORD
  5
6C
330
1
100
AcDbSymbolTableRecord
100
AcDbBlockTableRecord
  2
*Model_Space
340
6F
  0
BLOCK_RECORD
  5
68
330
1
100
AcDbSymbolTableRecord
100
AcDbBlockTableRecord
  2
*Paper_Space
340
6B
  0
BLOCK_RECORD
  5
70
330
1
100
AcDbSymbolTableRecord
100
AcDbBlockTableRecord
  2
*Paper_Space0
340
73
  0
BLOCK_RECORD
  5
90
330
1
100
AcDbSymbolTableRecord
100
AcDbBlockTableRecord
  2
_Open
340
0
  0
BLOCK_RECORD
  5
9C
330
1
100
AcDbSymbolTableRecord
100
AcDbBlockTableRecord
  2
_Closed
340
0
  0
BLOCK_RECORD
  5
A3
330
1
100
AcDbSymbolTableRecord
100
AcDbBlockTableRecord
  2
DatumFilled45
340
0
  0
BLOCK_RECORD
  5
AF
330
1
100
AcDbSymbolTableRecord
100
AcDbBlockTableRecord
  2
Filled-1
340
0
  0
BLOCK_RECORD
  5
BE
330
1
100
AcDbSymbolTableRecord
100
AcDbBlockTableRecord
  2
図面枠 VR用
340
0
102
{BLKREFS
331
C5
102
}
  0
BLOCK_RECORD
  5
C6
330
1
100
AcDbSymbolTableRecord
100
AcDbBlockTableRecord
  2
表題欄 VR用
340
0
102
{BLKREFS
331
D0
102
}
  0
ENDTAB
  0
ENDSEC
  0
SECTION
  2
BLOCKS
  0
BLOCK
  5
6D
330
6C
100
AcDbEntity
  8
0
100
AcDbBlockBegin
  2
*Model_Space
 70
     0
 10
0.0
 20
0.0
 30
0.0
  3
*Model_Space
  1

  0
ENDBLK
  5
6E
330
6C
100
AcDbEntity
  8
0
100
AcDbBlockEnd
  0
BLOCK
  5
69
330
68
100
AcDbEntity
 67
     1
  8
0
100
AcDbBlockBegin
  2
*Paper_Space
 70
     0
 10
0.0
 20
0.0
 30
0.0
  3
*Paper_Space
  1

  0
ENDBLK
  5
6A
330
68
100
AcDbEntity
 67
     1
  8
0
100
AcDbBlockEnd
  0
BLOCK
  5
71
330
70
100
AcDbEntity
 67
     1
  8
0
100
AcDbBlockBegin
  2
*Paper_Space0
 70
     0
 10
0.0
 20
0.0
 30
0.0
  3
*Paper_Space0
  1

  0
ENDBLK
  5
72
330
70
100
AcDbEntity
 67
     1
  8
0
100
AcDbBlockEnd
  0
BLOCK
  5
94
330
90
100
AcDbEntity
  8
0
100
AcDbBlockBegin
  2
_Open
 70
     0
 10
0.0
 20
0.0
 30
0.0
  3
_Open
  1

  0
LINE
  5
91
330
90
100
AcDbEntity
  8
0
  6
ByBlock
 62
     0
370
    -2
100
AcDbLine
 10
-1.0
 20
0.1666666666666666
 30
0.0
 11
0.0
 21
0.0
 31
0.0
  0
LINE
  5
92
330
90
100
AcDbEntity
  8
0
  6
ByBlock
 62
     0
370
    -2
100
AcDbLine
 10
-1.0
 20
-0.1666666666666666
 30
0.0
 11
0.0
 21
0.0
 31
0.0
  0
LINE
  5
93
330
90
100
AcDbEntity
  8
0
  6
ByBlock
 62
     0
370
    -2
100
AcDbLine
 10
0.0
 20
0.0
 30
0.0
 11
-1.0
 21
0.0
 31
0.0
  0
ENDBLK
  5
95
330
90
100
AcDbEntity
  8
0
100
AcDbBlockEnd
  0
BLOCK
  5
A1
330
9C
100
AcDbEntity
  8
0
100
AcDbBlockBegin
  2
_Closed
 70
     0
 10
0.0
 20
0.0
 30
0.0
  3
_Closed
  1

  0
LINE
  5
9D
330
9C
100
AcDbEntity
  8
0
  6
ByBlock
 62
     0
370
    -2
100
AcDbLine
 10
-1.0
 20
0.1666666666666666
 30
0.0
 11
0.0
 21
0.0
 31
0.0
  0
LINE
  5
9E
330
9C
100
AcDbEntity
  8
0
  6
ByBlock
 62
     0
370
    -2
100
AcDbLine
 10
0.0
 20
0.0
 30
0.0
 11
-1.0
 21
-0.1666666666666666
 31
0.0
  0
LINE
  5
9F
330
9C
100
AcDbEntity
  8
0
  6
ByBlock
 62
     0
370
    -2
100
AcDbLine
 10
-1.0
 20
0.1666666666666666
 30
0.0
 11
-1.0
 21
-0.1666666666666666
 31
0.0
  0
LINE
  5
A0
330
9C
100
AcDbEntity
  8
0
  6
ByBlock
 62
     0
370
    -2
100
AcDbLine
 10
0.0
 20
0.0
 30
0.0
 11
-1.0
 21
0.0
 31
0.0
  0
ENDBLK
  5
A2
330
9C
100
AcDbEntity
  8
0
100
AcDbBlockEnd
  0
BLOCK
  5
A4
330
A3
100
AcDbEntity
  8
0
100
AcDbBlockBegin
  2
DatumFilled45
 70
     0
 10
0.0
 20
0.0
 30
0.0
  3
DatumFilled45
  1

  0
POLYLINE
  5
A6
330
A3
100
AcDbEntity
  8
0
 62
     0
100
AcDb2dPolyline
 66
     1
 10
0.0
 20
0.0
 30
0.0
 70
   128
  0
VERTEX
  5
A7
330
A6
100
AcDbEntity
  8
0
 62
     0
100
AcDbVertex
100
AcDb2dVertex
 10
0.0
 20
1.0
 30
0.0
  0
VERTEX
  5
A8
330
A6
100
AcDbEntity
  8
0
 62
     0
100
AcDbVertex
100
AcDb2dVertex
 10
0.0
 20
-1.0
 30
0.0
  0
VERTEX
  5
AA
330
A6
100
AcDbEntity
  8
0
 62
     0
100
AcDbVertex
100
AcDb2dVertex
 10
-1.0
 20
0.0
 30
0.0
  0
VERTEX
  5
AB
330
A6
100
AcDbEntity
  8
0
 62
     0
100
AcDbVertex
100
AcDb2dVertex
 10
0.0
 20
1.0
 30
0.0
  0
SEQEND
  5
A9
330
A6
100
AcDbEntity
  8
0
 62
     0
  0
SOLID
  5
AD
330
A3
100
AcDbEntity
  8
0
 62
     0
100
AcDbTrace
 10
0.0
 20
1.0
 30
0.0
 11
0.0
 21
-1.0
 31
0.0
 12
-1.0
 22
0.0
 32
0.0
 13
0.0
 23
1.0
 33
0.0
  0
ENDBLK
  5
A5
330
A3
100
AcDbEntity
  8
0
100
AcDbBlockEnd
  0
BLOCK
  5
B0
330
AF
100
AcDbEntity
  8
0
100
AcDbBlockBegin
  2
Filled-1
 70
     0
 10
0.0
 20
0.0
 30
0.0
  3
Filled-1
  1

  0
LINE
  5
B2
330
AF
100
AcDbEntity
  8
0
 62
     0
100
AcDbLine
 10
-1.0
 20
0.0
 30
0.0
 11
0.0
 21
0.0
 31
0.0
  0
POLYLINE
  5
B3
330
AF
100
AcDbEntity
  8
0
 62
     0
100
AcDb2dPolyline
 66
     1
 10
0.0
 20
0.0
 30
0.0
 70
   128
  0
VERTEX
  5
B4
330
B3
100
AcDbEntity
  8
0
 62
     0
100
AcDbVertex
100
AcDb2dVertex
 10
-1.0
 20
-0.1
 30
0.0
  0
VERTEX
  5
B5
330
B3
100
AcDbEntity
  8
0
 62
     0
100
AcDbVertex
100
AcDb2dVertex
 10
0.0
 20
0.0
 30
0.0
  0
VERTEX
  5
B7
330
B3
100
AcDbEntity
  8
0
 62
     0
100
AcDbVertex
100
AcDb2dVertex
 10
-1.0
 20
0.1
 30
0.0
  0
VERTEX
  5
B8
330
B3
100
AcDbEntity
  8
0
 62
     0
100
AcDbVertex
100
AcDb2dVertex
 10
-1.0
 20
-0.1
 30
0.0
  0
SEQEND
  5
B6
330
B3
100
AcDbEntity
  8
0
 62
     0
  0
SOLID
  5
B9
330
AF
100
AcDbEntity
  8
0
 62
     0
100
AcDbTrace
 10
-1.0
 20
-0.1
 30
0.0
 11
0.0
 21
0.0
 31
0.0
 12
-1.0
 22
0.1
 32
0.0
 13
-1.0
 23
-0.1
 33
0.0
  0
LINE
  5
BA
330
AF
100
AcDbEntity
  8
0
 62
     0
100
AcDbLine
 10
-1.0
 20
-0.1
 30
0.0
 11
0.0
 21
0.0
 31
0.0
  0
LINE
  5
BB
330
AF
100
AcDbEntity
  8
0
 62
     0
100
AcDbLine
 10
0.0
 20
0.0
 30
0.0
 11
-1.0
 21
0.1
 31
0.0
  0
LINE
  5
BC
330
AF
100
AcDbEntity
  8
0
 62
     0
100
AcDbLine
 10
-1.0
 20
0.1
 30
0.0
 11
-1.0
 21
-0.1
 31
0.0
  0
ENDBLK
  5
B1
330
AF
100
AcDbEntity
  8
0
100
AcDbBlockEnd
  0
BLOCK
  5
BF
330
BE
100
AcDbEntity
  8
0
100
AcDbBlockBegin
  2
図面枠 VR用
 70
     0
 10
0.0
 20
0.0
 30
0.0
  3
図面枠 VR用
  1

  0
LINE
  5
C1
330
BE
100
AcDbEntity
  8
Border (ISO)
100
AcDbLine
 10
410.0
 20
287.0
 30
0.0
 11
410.0
 21
10.0
 31
0.0
  0
LINE
  5
C2
330
BE
100
AcDbEntity
  8
Border (ISO)
100
AcDbLine
 10
10.0
 20
287.0
 30
0.0
 11
10.0
 21
10.0
 31
0.0
  0
LINE
  5
C3
330
BE
100
AcDbEntity
  8
Border (ISO)
100
AcDbLine
 10
10.0
 20
10.0
 30
0.0
 11
410.0
 21
10.0
 31
0.0
  0
LINE
  5
C4
330
BE
100
AcDbEntity
  8
Border (ISO)
100
AcDbLine
 10
10.0
 20
287.0
 30
0.0
 11
410.0
 21
287.0
 31
0.0
  0
ENDBLK
  5
C0
330
BE
100
AcDbEntity
  8
0
100
AcDbBlockEnd
  0
BLOCK
  5
C7
330
C6
100
AcDbEntity
  8
0
100
AcDbBlockBegin
  2
表題欄 VR用
 70
     2
 10
0.0
 20
0.0
 30
0.0
  3
表題欄 VR用
  1

  0
LINE
  5
C9
330
C6
100
AcDbEntity
  8
Title (ISO)
100
AcDbLine
 10
181.6756649546459
 20
100.0
 30
0.0
 11
239.9999999999999
 21
100.0
 31
0.0
  0
LINE
  5
CA
330
C6
100
AcDbEntity
  8
Title (ISO)
100
AcDbLine
 10
239.9999999999999
 20
100.0
 30
0.0
 11
-160.0
 21
100.0
 31
0.0
  0
LINE
  5
CB
330
C6
100
AcDbEntity
  8
Title (ISO)
100
AcDbLine
 10
239.9999999999999
 20
109.0000000000001
 30
0.0
 11
239.9999999999999
 21
100.0
 31
0.0
  0
ATTDEF
  5
CD
102
{ACAD_XDICTIONARY
360
2FB
102
}
330
C6
100
AcDbEntity
  8
Title (ISO)
100
AcDbText
 10
15.14378774646155
 20
102.9499999980937
 30
0.0
 40
3.100000023841857
  1
VRXF-□-15~81D-S-14EJ14
  7
文字スタイル12
100
AcDbAttributeDefinition
  3
部品番号
  2
部品番号_001
 70
     0
  0
ENDBLK
  5
C8
330
C6
100
AcDbEntity
  8
0
100
AcDbBlockEnd
  0
ENDSEC
  0
SECTION
  2
ENTITIES
  0
INSERT
  5
C5
330
6C
100
AcDbEntity
  8
0
100
AcDbBlockReference
  2
図面枠 VR用
 10
0.0
 20
0.0
 30
0.0
 41
1.562499999999999
 42
1.562499999999999
 43
1.562499999999999
  0
INSERT
  5
D0
330
6C
100
AcDbEntity
  8
0
100
AcDbBlockReference
 66
     1
  2
表題欄 VR用
 10
265.625
 20
-140.625
 30
0.0
 41
1.562499999999999
 42
1.562499999999999
 43
1.562499999999999
  0
ATTRIB
  5
D3
102
{ACAD_XDICTIONARY
360
2FE
102
}
330
D0
100
AcDbEntity
  8
Title (ISO)
100
AcDbText
 10
289.2871683538463
 20
20.23437499702139
 30
0.0
 40
4.843750037252902
  1
VRXF-□-15~81D-S-14EJ14
  7
文字スタイル12
100
AcDbAttribute
  2
部品番号_001
 70
     0
  0
SEQEND
  5
D2
330
D0
100
AcDbEntity
  8
0
  0
LINE
  5
D4
330
6C
100
AcDbEntity
  8
Visible (ISO)
100
AcDbLine
 10
395.4990692765507
 20
131.8946067811865
 30
0.0
 11
395.4990692765507
 21
177.4803932188134
 31
0.0
  0
LINE
  5
D5
330
6C
100
AcDbEntity
  8
Visible Narrow (ISO)
100
AcDbLine
 10
395.6455158859574
 20
177.8339466094067
 30
0.0
 11
395.6455158859574
 21
131.5410533905932
 31
0.0
  0
ARC
  5
D6
330
6C
100
AcDbEntity
  8
Visible (ISO)
100
AcDbCircle
 10
395.9990692765507
 20
131.8946067811865
 30
0.0
 40
0.5000000000000001
100
AcDbArc
 50
180.0
 51
225.0
  0
ARC
  5
D7
330
6C
100
AcDbEntity
  8
Visible (ISO)
100
AcDbCircle
 10
395.9990692765507
 20
177.4803932188134
 30
0.0
 40
0.5000000000000001
100
AcDbArc
 50
135.0
 51
180.0
  0
LINE
  5
D8
330
6C
100
AcDbEntity
  8
Visible Narrow (ISO)
100
AcDbLine
 10
396.6203896201103
 20
130.5661796564403
 30
0.0
 11
396.6203896201103
 21
178.8088203435596
 31
0.0
  0
ARC
  5
D9
330
6C
100
AcDbEntity
  8
Visible (ISO)
100
AcDbCircle
 10
394.4990692765507
 20
128.4448593128807
 30
0.0
 40
3.0
100
AcDbArc
 50
0.0
 51
44.9999999999996
  0
ARC
  5
DA
330
6C
100
AcDbEntity
  8
Visible (ISO)
100
AcDbCircle
 10
394.4990692765507
 20
180.9301406871192
 30
0.0
 40
3.0
100
AcDbArc
 50
315.0000000000003
 51
0.0
  0
LINE
  5
DB
330
6C
100
AcDbEntity
  8
Visible (ISO)
100
AcDbLine
 10
397.4990692765507
 20
120.1875
 30
0.0
 11
397.4990692765507
 21
189.1875
 31
0.0
  0
LINE
  5
DC
330
6C
100
AcDbEntity
  8
Visible Narrow (ISO)
100
AcDbLine
 10
400.4990692765507
 20
192.1875
 30
0.0
 11
400.4990692765507
 21
117.1875
 31
0.0
  0
ARC
  5
DD
330
6C
100
AcDbEntity
  8
Visible (ISO)
100
AcDbCircle
 10
400.4990692765507
 20
120.1875
 30
0.0
 40
3.0
100
AcDbArc
 50
180.0
 51
270.0
  0
ARC
  5
DE
330
6C
100
AcDbEntity
  8
Visible (ISO)
100
AcDbCircle
 10
400.4990692765507
 20
189.1875
 30
0.0
 40
3.0
100
AcDbArc
 50
90.0
 51
180.0
  0
LINE
  5
DF
330
6C
100
AcDbEntity
  8
Visible Narrow (ISO)
100
AcDbLine
 10
405.4990692765507
 20
117.1875
 30
0.0
 11
405.4990692765507
 21
192.1875
 31
0.0
  0
ARC
  5
E0
330
6C
100
AcDbEntity
  8
Visible (ISO)
100
AcDbCircle
 10
405.4990692765507
 20
114.1875
 30
0.0
 40
3.0
100
AcDbArc
 50
0.0
 51
90.0
  0
ARC
  5
E1
330
6C
100
AcDbEntity
  8
Visible (ISO)
100
AcDbCircle
 10
405.4990692765507
 20
195.1875
 30
0.0
 40
3.0
100
AcDbArc
 50
270.0
 51
0.0
  0
LINE
  5
E2
330
6C
100
AcDbEntity
  8
Visible (ISO)
100
AcDbLine
 10
408.4990692765507
 20
110.6875
 30
0.0
 11
408.4990692765507
 21
198.6875
 31
0.0
  0
LINE
  5
E3
330
6C
100
AcDbEntity
  8
Visible (ISO)
100
AcDbLine
 10
409.4990692765507
 20
199.6875
 30
0.0
 11
409.4990692765507
 21
109.6875
 31
0.0
  0
LINE
  5
E4
330
6C
100
AcDbEntity
  8
Visible (ISO)
100
AcDbLine
 10
408.4990692765507
 20
198.6875
 30
0.0
 11
409.4990692765507
 21
199.6875
 31
0.0
  0
LINE
  5
E5
330
6C
100
AcDbEntity
  8
Visible (ISO)
100
AcDbLine
 10
408.4990692765507
 20
110.6875
 30
0.0
 11
409.4990692765507
 21
109.6875
 31
0.0
  0
LINE
  5
E6
330
6C
100
AcDbEntity
  8
Visible Narrow (ISO)
100
AcDbLine
 10
413.0990692765506
 20
109.6875
 30
0.0
 11
413.0990692765506
 21
199.6875
 31
0.0
  0
ARC
  5
E7
330
6C
100
AcDbEntity
  8
Visible (ISO)
100
AcDbCircle
 10
413.0990692765506
 20
109.2875
 30
0.0
 40
0.4000000000000002
100
AcDbArc
 50
0.0
 51
90.0
  0
ARC
  5
E8
330
6C
100
AcDbEntity
  8
Visible (ISO)
100
AcDbCircle
 10
413.0990692765506
 20
200.0875
 30
0.0
 40
0.4000000000000002
100
AcDbArc
 50
270.0
 51
0.0
  0
LINE
  5
E9
330
6C
100
AcDbEntity
  8
Visible (ISO)
100
AcDbLine
 10
413.4990692765507
 20
106.1874999999999
 30
0.0
 11
413.4990692765507
 21
111.6875
 31
0.0
  0
LINE
  5
EA
330
6C
100
AcDbEntity
  8
Visible (ISO)
100
AcDbLine
 10
413.4990692765507
 20
197.6875
 30
0.0
 11
413.4990692765507
 21
111.6875
 31
0.0
  0
LINE
  5
EB
330
6C
100
AcDbEntity
  8
Visible (ISO)
100
AcDbLine
 10
413.4990692765507
 20
197.6875
 30
0.0
 11
413.4990692765507
 21
203.1875
 31
0.0
  0
LINE
  5
EC
330
6C
100
AcDbEntity
  8
Visible (ISO)
100
AcDbLine
 10
413.4990692765507
 20
203.1875
 30
0.0
 11
413.9990692765507
 21
203.6875
 31
0.0
  0
LINE
  5
ED
330
6C
100
AcDbEntity
  8
Visible Narrow (ISO)
100
AcDbLine
 10
413.4990692765507
 20
197.6875
 30
0.0
 11
413.9990692765507
 21
197.6875
 31
0.0
  0
LINE
  5
EE
330
6C
100
AcDbEntity
  8
Visible (ISO)
100
AcDbLine
 10
413.9990692765507
 20
203.6875
 30
0.0
 11
413.9990692765507
 21
197.6875
 31
0.0
  0
LINE
  5
EF
330
6C
100
AcDbEntity
  8
Visible Narrow (ISO)
100
AcDbLine
 10
413.4990692765507
 20
111.6875
 30
0.0
 11
413.9990692765507
 21
111.6875
 31
0.0
  0
LINE
  5
F0
330
6C
100
AcDbEntity
  8
Visible (ISO)
100
AcDbLine
 10
413.9990692765507
 20
111.6875
 30
0.0
 11
413.9990692765507
 21
197.6875
 31
0.0
  0
LINE
  5
F1
330
6C
100
AcDbEntity
  8
Visible (ISO)
100
AcDbLine
 10
413.4990692765507
 20
106.1874999999999
 30
0.0
 11
413.9990692765507
 21
105.6875
 31
0.0
  0
LINE
  5
F2
330
6C
100
AcDbEntity
  8
Visible (ISO)
100
AcDbLine
 10
413.9990692765507
 20
111.6875
 30
0.0
 11
413.9990692765507
 21
105.6875
 31
0.0
  0
LINE
  5
F3
330
6C
100
AcDbEntity
  8
Visible (ISO)
100
AcDbLine
 10
454.6990692765507
 20
203.6875
 30
0.0
 11
413.9990692765507
 21
203.6875
 31
0.0
  0
LINE
  5
F4
330
6C
100
AcDbEntity
  8
Visible (ISO)
100
AcDbLine
 10
454.6990692765507
 20
105.6875
 30
0.0
 11
413.9990692765507
 21
105.6875
 31
0.0
  0
LINE
  5
F5
330
6C
100
AcDbEntity
  8
Visible Narrow (ISO)
100
AcDbLine
 10
454.6990692765507
 20
111.6875
 30
0.0
 11
413.9990692765507
 21
111.6875
 31
0.0
  0
LINE
  5
F6
330
6C
100
AcDbEntity
  8
Visible Narrow (ISO)
100
AcDbLine
 10
454.6990692765507
 20
197.6875
 30
0.0
 11
413.9990692765507
 21
197.6875
 31
0.0
  0
LINE
  5
F7
330
6C
100
AcDbEntity
  8
Visible (ISO)
100
AcDbLine
 10
454.6990692765507
 20
203.6875
 30
0.0
 11
454.9990692765507
 21
203.3875
 31
0.0
  0
LINE
  5
F8
330
6C
100
AcDbEntity
  8
Visible (ISO)
100
AcDbLine
 10
454.9990692765507
 20
105.9875
 30
0.0
 11
454.6990692765507
 21
105.6875
 31
0.0
  0
LINE
  5
F9
330
6C
100
AcDbEntity
  8
Visible Narrow (ISO)
100
AcDbLine
 10
454.9990692765507
 20
111.6875
 30
0.0
 11
454.6990692765507
 21
111.6875
 31
0.0
  0
LINE
  5
FA
330
6C
100
AcDbEntity
  8
Visible (ISO)
100
AcDbLine
 10
454.6990692765507
 20
105.6875
 30
0.0
 11
454.6990692765507
 21
111.6875
 31
0.0
  0
LINE
  5
FB
330
6C
100
AcDbEntity
  8
Visible (ISO)
100
AcDbLine
 10
454.9990692765507
 20
111.6875
 30
0.0
 11
454.9990692765507
 21
105.9875
 31
0.0
  0
LINE
  5
FC
330
6C
100
AcDbEntity
  8
Visible Narrow (ISO)
100
AcDbLine
 10
454.9990692765507
 20
197.6875
 30
0.0
 11
454.6990692765507
 21
197.6875
 31
0.0
  0
LINE
  5
FD
330
6C
100
AcDbEntity
  8
Visible (ISO)
100
AcDbLine
 10
454.6990692765507
 20
197.6875
 30
0.0
 11
454.6990692765507
 21
111.6875
 31
0.0
  0
LINE
  5
FE
330
6C
100
AcDbEntity
  8
Visible (ISO)
100
AcDbLine
 10
454.9990692765507
 20
111.6875
 30
0.0
 11
454.9990692765507
 21
197.6875
 31
0.0
  0
LINE
  5
FF
330
6C
100
AcDbEntity
  8
Visible (ISO)
100
AcDbLine
 10
454.6990692765507
 20
197.6875
 30
0.0
 11
454.6990692765507
 21
203.6875
 31
0.0
  0
LINE
  5
100
330
6C
100
AcDbEntity
  8
Visible (ISO)
100
AcDbLine
 10
454.9990692765507
 20
203.3875
 30
0.0
 11
454.9990692765507
 21
197.6875
 31
0.0
  0
LINE
  5
101
330
6C
100
AcDbEntity
  8
Visible (ISO)
100
AcDbLine
 10
395.6455158859574
 20
177.8339466094067
 30
0.0
 11
396.6203896201103
 21
178.8088203435596
 31
0.0
  0
LINE
  5
102
330
6C
100
AcDbEntity
  8
Visible (ISO)
100
AcDbLine
 10
395.6455158859574
 20
131.5410533905932
 30
0.0
 11
396.6203896201103
 21
130.5661796564403
 31
0.0
  0
LINE
  5
103
330
6C
100
AcDbEntity
  8
Visible (ISO)
100
AcDbLine
 10
405.4990692765506
 20
117.1875
 30
0.0
 11
400.4990692765507
 21
117.1875
 31
0.0
  0
LINE
  5
104
330
6C
100
AcDbEntity
  8
Visible (ISO)
100
AcDbLine
 10
405.4990692765506
 20
192.1875
 30
0.0
 11
400.4990692765507
 21
192.1875
 31
0.0
  0
LINE
  5
105
330
6C
100
AcDbEntity
  8
Visible (ISO)
100
AcDbLine
 10
413.0990692765506
 20
109.6875
 30
0.0
 11
409.4990692765507
 21
109.6875
 31
0.0
  0
LINE
  5
106
330
6C
100
AcDbEntity
  8
Visible (ISO)
100
AcDbLine
 10
413.0990692765506
 20
199.6875
 30
0.0
 11
409.4990692765507
 21
199.6875
 31
0.0
  0
LINE
  5
107
330
6C
100
AcDbEntity
  8
Visible Narrow (ISO)
100
AcDbLine
 10
391.6990692765507
 20
142.6874999999999
 30
0.0
 11
391.6990692765507
 21
166.6875
 31
0.0
  0
ARC
  5
108
330
6C
100
AcDbEntity
  8
Visible (ISO)
100
AcDbCircle
 10
391.6990692765507
 20
141.8875
 30
0.0
 40
0.8000000000000003
100
AcDbArc
 50
0.0
 51
90.0
  0
ARC
  5
109
330
6C
100
AcDbEntity
  8
Visible (ISO)
100
AcDbCircle
 10
391.6990692765507
 20
167.4875
 30
0.0
 40
0.8000000000000003
100
AcDbArc
 50
270.0
 51
0.0
  0
LINE
  5
10A
330
6C
100
AcDbEntity
  8
Visible (ISO)
100
AcDbLine
 10
392.4990692765507
 20
141.0514702342662
 30
0.0
 11
392.4990692765507
 21
168.3235297657338
 31
0.0
  0
LINE
  5
10B
330
6C
100
AcDbEntity
  8
Visible (ISO)
100
AcDbLine
 10
393.4990692765507
 20
168.6875
 30
0.0
 11
393.4990692765507
 21
140.6874999999999
 31
0.0
  0
LINE
  5
10C
330
6C
100
AcDbEntity
  8
Visible (ISO)
100
AcDbLine
 10
392.4990692765507
 20
168.3235297657338
 30
0.0
 11
393.4990692765507
 21
168.6875
 31
0.0
  0
LINE
  5
10D
330
6C
100
AcDbEntity
  8
Visible (ISO)
100
AcDbLine
 10
392.4990692765507
 20
141.0514702342662
 30
0.0
 11
393.4990692765507
 21
140.6874999999999
 31
0.0
  0
LINE
  5
10E
330
6C
100
AcDbEntity
  8
Visible Narrow (ISO)
100
AcDbLine
 10
353.4990692765508
 20
166.6875
 30
0.0
 11
353.4990692765508
 21
142.6874999999999
 31
0.0
  0
LINE
  5
10F
330
6C
100
AcDbEntity
  8
Visible (ISO)
100
AcDbLine
 10
352.4990692765507
 20
143.6874999999999
 30
0.0
 11
352.4990692765507
 21
165.6875
 31
0.0
  0
ARC
  5
110
330
6C
100
AcDbEntity
  8
Visible (ISO)
100
AcDbCircle
 10
353.4990692765508
 20
143.6874999999999
 30
0.0
 40
1.0
100
AcDbArc
 50
180.0
 51
270.0
  0
ARC
  5
111
330
6C
100
AcDbEntity
  8
Visible (ISO)
100
AcDbCircle
 10
353.4990692765508
 20
165.6875
 30
0.0
 40
1.0
100
AcDbArc
 50
90.0
 51
180.0
  0
LINE
  5
112
330
6C
100
AcDbEntity
  8
Visible (ISO)
100
AcDbLine
 10
391.6990692765507
 20
142.6874999999999
 30
0.0
 11
353.4990692765508
 21
142.6874999999999
 31
0.0
  0
LINE
  5
113
330
6C
100
AcDbEntity
  8
Visible (ISO)
100
AcDbLine
 10
391.6990692765507
 20
166.6875
 30
0.0
 11
353.4990692765508
 21
166.6875
 31
0.0
  0
LINE
  5
114
330
6C
100
AcDbEntity
  8
Visible (ISO)
100
AcDbLine
 10
395.4990692765507
 20
140.6874999999999
 30
0.0
 11
393.4990692765507
 21
140.6874999999999
 31
0.0
  0
LINE
  5
115
330
6C
100
AcDbEntity
  8
Visible (ISO)
100
AcDbLine
 10
395.4990692765507
 20
168.6875
 30
0.0
 11
393.4990692765507
 21
168.6875
 31
0.0
  0
ARC
  5
116
330
6C
100
AcDbEntity
  8
Visible (ISO)
100
AcDbCircle
 10
483.4990692765507
 20
106.6874999999999
 30
0.0
 40
1.000000000000007
100
AcDbArc
 50
270.0
 51
0.0
  0
LINE
  5
117
330
6C
100
AcDbEntity
  8
Visible Narrow (ISO)
100
AcDbLine
 10
483.4990692765507
 20
111.6874999999999
 30
0.0
 11
484.4990692765507
 21
111.6874999999999
 31
0.0
  0
LINE
  5
118
330
6C
100
AcDbEntity
  8
Visible Narrow (ISO)
100
AcDbLine
 10
483.4990692765507
 20
105.6874999999999
 30
0.0
 11
483.4990692765507
 21
111.6875
 31
0.0
  0
LINE
  5
119
330
6C
100
AcDbEntity
  8
Visible (ISO)
100
AcDbLine
 10
484.4990692765507
 20
111.6874999999999
 30
0.0
 11
484.4990692765507
 21
106.6874999999999
 31
0.0
  0
LINE
  5
11A
330
6C
100
AcDbEntity
  8
Visible Narrow (ISO)
100
AcDbLine
 10
483.4990692765507
 20
197.6875
 30
0.0
 11
484.4990692765507
 21
197.6875
 31
0.0
  0
LINE
  5
11B
330
6C
100
AcDbEntity
  8
Visible Narrow (ISO)
100
AcDbLine
 10
483.4990692765507
 20
197.6875
 30
0.0
 11
483.4990692765507
 21
111.6874999999999
 31
0.0
  0
LINE
  5
11C
330
6C
100
AcDbEntity
  8
Visible (ISO)
100
AcDbLine
 10
484.4990692765507
 20
111.6874999999999
 30
0.0
 11
484.4990692765507
 21
197.6875
 31
0.0
  0
ARC
  5
11D
330
6C
100
AcDbEntity
  8
Visible (ISO)
100
AcDbCircle
 10
483.4990692765507
 20
202.6875
 30
0.0
 40
0.9999999999999943
100
AcDbArc
 50
0.0
 51
90.0
  0
LINE
  5
11E
330
6C
100
AcDbEntity
  8
Visible Narrow (ISO)
100
AcDbLine
 10
483.4990692765507
 20
197.6875
 30
0.0
 11
483.4990692765507
 21
203.6875
 31
0.0
  0
LINE
  5
11F
330
6C
100
AcDbEntity
  8
Visible (ISO)
100
AcDbLine
 10
484.4990692765507
 20
202.6875
 30
0.0
 11
484.4990692765507
 21
197.6875
 31
0.0
  0
LINE
  5
120
330
6C
100
AcDbEntity
  8
Visible Narrow (ISO)
100
AcDbLine
 10
483.4990692765507
 20
197.6875
 30
0.0
 11
455.2990692765507
 21
197.6875
 31
0.0
  0
LINE
  5
121
330
6C
100
AcDbEntity
  8
Visible Narrow (ISO)
100
AcDbLine
 10
483.4990692765507
 20
111.6874999999999
 30
0.0
 11
455.2990692765507
 21
111.6874999999999
 31
0.0
  0
LINE
  5
122
330
6C
100
AcDbEntity
  8
Visible (ISO)
100
AcDbLine
 10
483.4990692765507
 20
203.6875
 30
0.0
 11
455.2990692765507
 21
203.6875
 31
0.0
  0
LINE
  5
123
330
6C
100
AcDbEntity
  8
Visible (ISO)
100
AcDbLine
 10
483.4990692765507
 20
105.6874999999999
 30
0.0
 11
455.2990692765507
 21
105.6874999999999
 31
0.0
  0
LINE
  5
124
330
6C
100
AcDbEntity
  8
Visible (ISO)
100
AcDbLine
 10
455.2990692765507
 20
111.6874999999999
 30
0.0
 11
455.2990692765507
 21
197.6875
 31
0.0
  0
LINE
  5
125
330
6C
100
AcDbEntity
  8
Visible (ISO)
100
AcDbLine
 10
455.2990692765507
 20
203.6875
 30
0.0
 11
455.2990692765507
 21
197.6875
 31
0.0
  0
LINE
  5
126
330
6C
100
AcDbEntity
  8
Visible (ISO)
100
AcDbLine
 10
500.6990692765508
 20
122.1875
 30
0.0
 11
500.6990692765508
 21
187.1875
 31
0.0
  0
LINE
  5
127
330
6C
100
AcDbEntity
  8
Visible Narrow (ISO)
100
AcDbLine
 10
455.2990692765507
 20
197.6875
 30
0.0
 11
454.9990692765507
 21
197.6875
 31
0.0
  0
LINE
  5
128
330
6C
100
AcDbEntity
  8
Visible (ISO)
100
AcDbLine
 10
454.9990692765507
 20
197.6875
 30
0.0
 11
454.9990692765507
 21
111.6874999999999
 31
0.0
  0
LINE
  5
129
330
6C
100
AcDbEntity
  8
Visible Narrow (ISO)
100
AcDbLine
 10
454.9990692765507
 20
111.6874999999999
 30
0.0
 11
455.2990692765507
 21
111.6874999999999
 31
0.0
  0
LINE
  5
12A
330
6C
100
AcDbEntity
  8
Visible (ISO)
100
AcDbLine
 10
454.9990692765507
 20
105.9874999999999
 30
0.0
 11
455.2990692765507
 21
105.6874999999999
 31
0.0
  0
LINE
  5
12B
330
6C
100
AcDbEntity
  8
Visible (ISO)
100
AcDbLine
 10
455.2990692765507
 20
111.6874999999999
 30
0.0
 11
455.2990692765507
 21
105.6874999999999
 31
0.0
  0
LINE
  5
12C
330
6C
100
AcDbEntity
  8
Visible (ISO)
100
AcDbLine
 10
454.9990692765507
 20
105.9874999999999
 30
0.0
 11
454.9990692765507
 21
111.6874999999999
 31
0.0
  0
LINE
  5
12D
330
6C
100
AcDbEntity
  8
Visible (ISO)
100
AcDbLine
 10
454.9990692765507
 20
203.3875
 30
0.0
 11
455.2990692765507
 21
203.6875
 31
0.0
  0
LINE
  5
12E
330
6C
100
AcDbEntity
  8
Visible (ISO)
100
AcDbLine
 10
454.9990692765507
 20
197.6875
 30
0.0
 11
454.9990692765507
 21
203.3875
 31
0.0
  0
LINE
  5
12F
330
6C
100
AcDbEntity
  8
Visible (ISO)
100
AcDbLine
 10
500.9990692765507
 20
122.4875
 30
0.0
 11
500.6990692765508
 21
122.1875
 31
0.0
  0
LINE
  5
130
330
6C
100
AcDbEntity
  8
Visible (ISO)
100
AcDbLine
 10
500.9990692765507
 20
186.8875
 30
0.0
 11
500.6990692765508
 21
187.1875
 31
0.0
  0
LINE
  5
131
330
6C
100
AcDbEntity
  8
Visible Narrow (ISO)
100
AcDbLine
 10
487.4990692765507
 20
187.1875
 30
0.0
 11
487.4990692765507
 21
122.1875
 31
0.0
  0
ARC
  5
132
330
6C
100
AcDbEntity
  8
Visible (ISO)
100
AcDbCircle
 10
487.4990692765507
 20
119.1875
 30
0.0
 40
3.0
100
AcDbArc
 50
90.0
 51
153.4409425194833
  0
ARC
  5
133
330
6C
100
AcDbEntity
  8
Visible (ISO)
100
AcDbCircle
 10
487.4990692765507
 20
190.1875
 30
0.0
 40
3.0
100
AcDbArc
 50
206.5590574805181
 51
270.0
  0
LINE
  5
134
330
6C
100
AcDbEntity
  8
Visible (ISO)
100
AcDbLine
 10
500.6990692765508
 20
122.1875
 30
0.0
 11
487.4990692765507
 21
122.1875
 31
0.0
  0
LINE
  5
135
330
6C
100
AcDbEntity
  8
Visible (ISO)
100
AcDbLine
 10
500.6990692765508
 20
187.1875
 30
0.0
 11
487.4990692765507
 21
187.1875
 31
0.0
  0
LINE
  5
136
330
6C
100
AcDbEntity
  8
Visible (ISO)
100
AcDbLine
 10
492.4990692765507
 20
119.7288600817735
 30
0.0
 11
492.4990692765507
 21
108.3288600817735
 31
0.0
  0
LINE
  5
137
330
6C
100
AcDbEntity
  8
Visible Narrow (ISO)
100
AcDbLine
 10
491.6990692765507
 20
107.5288600817734
 30
0.0
 11
491.6990692765507
 21
120.5288600817735
 31
0.0
  0
ARC
  5
138
330
6C
100
AcDbEntity
  8
Visible (ISO)
100
AcDbCircle
 10
491.6990692765507
 20
119.7288600817735
 30
0.0
 40
0.8000000000000003
100
AcDbArc
 50
0.0
 51
90.0
  0
ARC
  5
139
330
6C
100
AcDbEntity
  8
Visible (ISO)
100
AcDbCircle
 10
491.6990692765507
 20
108.3288600817734
 30
0.0
 40
0.8000000000000003
100
AcDbArc
 50
270.0
 51
0.0
  0
LINE
  5
13A
330
6C
100
AcDbEntity
  8
Visible (ISO)
100
AcDbLine
 10
491.6990692765507
 20
107.5288600817734
 30
0.0
 11
484.4990692765507
 21
107.5288600817734
 31
0.0
  0
LINE
  5
13B
330
6C
100
AcDbEntity
  8
Visible (ISO)
100
AcDbLine
 10
491.6990692765507
 20
120.5288600817735
 30
0.0
 11
484.4990692765507
 21
120.5288600817735
 31
0.0
  0
LINE
  5
13C
330
6C
100
AcDbEntity
  8
Visible (ISO)
100
AcDbLine
 10
492.4990692765507
 20
201.0461399182265
 30
0.0
 11
492.4990692765507
 21
189.6461399182264
 31
0.0
  0
LINE
  5
13D
330
6C
100
AcDbEntity
  8
Visible Narrow (ISO)
100
AcDbLine
 10
491.6990692765507
 20
188.8461399182265
 30
0.0
 11
491.6990692765507
 21
201.8461399182265
 31
0.0
  0
ARC
  5
13E
330
6C
100
AcDbEntity
  8
Visible (ISO)
100
AcDbCircle
 10
491.6990692765507
 20
201.0461399182265
 30
0.0
 40
0.8000000000000003
100
AcDbArc
 50
0.0
 51
90.0
  0
ARC
  5
13F
330
6C
100
AcDbEntity
  8
Visible (ISO)
100
AcDbCircle
 10
491.6990692765507
 20
189.6461399182264
 30
0.0
 40
0.8000000000000003
100
AcDbArc
 50
270.0
 51
0.0
  0
LINE
  5
140
330
6C
100
AcDbEntity
  8
Visible (ISO)
100
AcDbLine
 10
491.6990692765507
 20
188.8461399182265
 30
0.0
 11
484.4990692765507
 21
188.8461399182265
 31
0.0
  0
LINE
  5
141
330
6C
100
AcDbEntity
  8
Visible (ISO)
100
AcDbLine
 10
491.6990692765507
 20
201.8461399182265
 30
0.0
 11
484.4990692765507
 21
201.8461399182265
 31
0.0
  0
LINE
  5
142
330
6C
100
AcDbEntity
  8
Visible (ISO)
100
AcDbLine
 10
522.4990692765507
 20
199.3874999999999
 30
0.0
 11
522.4990692765507
 21
192.7348389345431
 31
0.0
  0
LINE
  5
143
330
6C
100
AcDbEntity
  8
Visible (ISO)
100
AcDbLine
 10
522.4990692765507
 20
116.6401610654568
 30
0.0
 11
522.4990692765507
 21
192.7348389345431
 31
0.0
  0
LINE
  5
144
330
6C
100
AcDbEntity
  8
Visible (ISO)
100
AcDbLine
 10
522.4990692765507
 20
116.6401610654569
 30
0.0
 11
522.4990692765507
 21
109.9875
 31
0.0
  0
LINE
  5
145
330
6C
100
AcDbEntity
  8
Visible (ISO)
100
AcDbLine
 10
500.9990692765507
 20
109.9875
 30
0.0
 11
500.9990692765507
 21
116.6401610654568
 31
0.0
  0
LINE
  5
146
330
6C
100
AcDbEntity
  8
Visible (ISO)
100
AcDbLine
 10
500.9990692765507
 20
192.7348389345431
 30
0.0
 11
500.9990692765507
 21
116.6401610654568
 31
0.0
  0
LINE
  5
147
330
6C
100
AcDbEntity
  8
Visible (ISO)
100
AcDbLine
 10
500.9990692765507
 20
192.7348389345431
 30
0.0
 11
500.9990692765507
 21
199.3875
 31
0.0
  0
SPLINE
  5
148
330
6C
100
AcDbEntity
  8
Visible (ISO)
100
AcDbSpline
210
0.0
220
0.0
230
1.0
 70
    24
 71
     3
 72
     8
 73
     4
 74
     0
 42
0.0000000001
 43
0.0000000001
 40
-0.0438348720438651
 40
-0.0438348720438651
 40
-0.0438348720438651
 40
-0.0438348720438651
 40
0.0
 40
0.0
 40
0.0
 40
0.0
 10
500.9990692765507
 20
199.3874999999999
 30
0.0
 10
501.0990598879912
 20
199.4874906114405
 30
0.0
 10
501.1990603718573
 20
199.5874910953067
 30
0.0
 10
501.2990692765507
 20
199.6875
 30
0.0
  0
SPLINE
  5
149
330
6C
100
AcDbEntity
  8
Visible (ISO)
100
AcDbSpline
210
0.0
220
0.0
230
1.0
 70
     8
 71
     3
 72
     8
 73
     4
 74
     0
 42
0.0000000001
 43
0.0000000001
 40
-0.0438348720450676
 40
-0.0438348720450676
 40
-0.0438348720450676
 40
-0.0438348720450676
 40
0.0
 40
0.0
 40
0.0
 40
0.0
 10
500.9990692765507
 20
192.7348389345431
 30
0.0
 10
501.0990598879899
 20
192.7716317457974
 30
0.0
 10
501.1990603718546
 20
192.8083748202623
 30
0.0
 10
501.2990692765507
 20
192.8450680566778
 30
0.0
  0
LINE
  5
14A
330
6C
100
AcDbEntity
  8
Visible (ISO)
100
AcDbLine
 10
501.2990692765507
 20
199.6874999999999
 30
0.0
 11
501.2990692765507
 21
192.8450680566778
 31
0.0
  0
SPLINE
  5
14B
330
6C
100
AcDbEntity
  8
Visible (ISO)
100
AcDbSpline
210
0.0
220
0.0
230
1.0
 70
     8
 71
     3
 72
     8
 73
     4
 74
     0
 42
0.0000000001
 43
0.0000000001
 40
-0.043834872047128
 40
-0.043834872047128
 40
-0.043834872047128
 40
-0.043834872047128
 40
0.0
 40
0.0
 40
0.0
 40
0.0
 10
500.9990692765507
 20
116.6401610654568
 30
0.0
 10
501.0990598879875
 20
116.6033682542034
 30
0.0
 10
501.19906037185
 20
116.5666251797394
 30
0.0
 10
501.2990692765507
 20
116.5299319433221
 30
0.0
  0
LINE
  5
14C
330
6C
100
AcDbEntity
  8
Visible (ISO)
100
AcDbLine
 10
501.2990692765507
 20
116.5299319433221
 30
0.0
 11
501.2990692765507
 21
192.8450680566778
 31
0.0
  0
SPLINE
  5
14D
330
6C
100
AcDbEntity
  8
Visible (ISO)
100
AcDbSpline
210
0.0
220
0.0
230
1.0
 70
    24
 71
     3
 72
     8
 73
     4
 74
     0
 42
0.0000000001
 43
0.0000000001
 40
-0.0438348720439615
 40
-0.0438348720439615
 40
-0.0438348720439615
 40
-0.0438348720439615
 40
0.0
 40
0.0
 40
0.0
 40
0.0
 10
500.9990692765507
 20
109.9875
 30
0.0
 10
501.0990598879911
 20
109.8875093885596
 30
0.0
 10
501.1990603718571
 20
109.7875089046935
 30
0.0
 10
501.2990692765507
 20
109.6875
 30
0.0
  0
LINE
  5
14E
330
6C
100
AcDbEntity
  8
Visible (ISO)
100
AcDbLine
 10
501.2990692765507
 20
116.5299319433221
 30
0.0
 11
501.2990692765507
 21
109.6875
 31
0.0
  0
LINE
  5
14F
330
6C
100
AcDbEntity
  8
Visible (ISO)
100
AcDbLine
 10
522.1990692765507
 20
109.6875
 30
0.0
 11
522.1990692765507
 21
116.5299319433221
 31
0.0
  0
SPLINE
  5
150
330
6C
100
AcDbEntity
  8
Visible (ISO)
100
AcDbSpline
210
0.0
220
0.0
230
1.0
 70
    24
 71
     3
 72
     8
 73
     4
 74
     0
 42
0.0000000001
 43
0.0000000001
 40
-0.0438348720461803
 40
-0.0438348720461803
 40
-0.0438348720461803
 40
-0.0438348720461803
 40
0.0
 40
0.0
 40
0.0
 40
0.0
 10
522.4990692765507
 20
109.9875
 30
0.0
 10
522.3990786651127
 20
109.8875093885621
 30
0.0
 10
522.2990781812492
 20
109.7875089046985
 30
0.0
 10
522.1990692765507
 20
109.6875
 30
0.0
  0
SPLINE
  5
151
330
6C
100
AcDbEntity
  8
Visible (ISO)
100
AcDbSpline
210
0.0
220
0.0
230
1.0
 70
     8
 71
     3
 72
     8
 73
     4
 74
     0
 42
0.0000000001
 43
0.0000000001
 40
-0.0438348720473883
 40
-0.0438348720473883
 40
-0.0438348720473883
 40
-0.0438348720473883
 40
0.0
 40
0.0
 40
0.0
 40
0.0
 10
522.4990692765507
 20
116.6401610654568
 30
0.0
 10
522.3990786651142
 20
116.6033682542035
 30
0.0
 10
522.299078181252
 20
116.5666251797396
 30
0.0
 10
522.1990692765507
 20
116.5299319433221
 30
0.0
  0
SPLINE
  5
152
330
6C
100
AcDbEntity
  8
Visible (ISO)
100
AcDbSpline
210
0.0
220
0.0
230
1.0
 70
     8
 71
     3
 72
     8
 73
     4
 74
     0
 42
0.0000000001
 43
0.0000000001
 40
-0.043834872047123
 40
-0.043834872047123
 40
-0.043834872047123
 40
-0.043834872047123
 40
0.0
 40
0.0
 40
0.0
 40
0.0
 10
522.4990692765507
 20
192.7348389345431
 30
0.0
 10
522.3990786651138
 20
192.7716317457965
 30
0.0
 10
522.2990781812513
 20
192.8083748202606
 30
0.0
 10
522.1990692765507
 20
192.8450680566778
 30
0.0
  0
LINE
  5
153
330
6C
100
AcDbEntity
  8
Visible (ISO)
100
AcDbLine
 10
522.1990692765507
 20
192.8450680566778
 30
0.0
 11
522.1990692765507
 21
116.5299319433221
 31
0.0
  0
SPLINE
  5
154
330
6C
100
AcDbEntity
  8
Visible (ISO)
100
AcDbSpline
210
0.0
220
0.0
230
1.0
 70
    24
 71
     3
 72
     8
 73
     4
 74
     0
 42
0.0000000001
 43
0.0000000001
 40
-0.043834872041644
 40
-0.043834872041644
 40
-0.043834872041644
 40
-0.043834872041644
 40
0.0
 40
0.0
 40
0.0
 40
0.0
 10
522.4990692765507
 20
199.3875
 30
0.0
 10
522.3990786651076
 20
199.487490611443
 30
0.0
 10
522.2990781812389
 20
199.5874910953118
 30
0.0
 10
522.1990692765507
 20
199.6875
 30
0.0
  0
LINE
  5
155
330
6C
100
AcDbEntity
  8
Visible (ISO)
100
AcDbLine
 10
522.1990692765507
 20
192.8450680566778
 30
0.0
 11
522.1990692765507
 21
199.6875
 31
0.0
  0
LINE
  5
156
330
6C
100
AcDbEntity
  8
Visible (ISO)
100
AcDbLine
 10
522.1990692765507
 20
109.6875
 30
0.0
 11
501.2990692765507
 21
109.6875
 31
0.0
  0
LINE
  5
157
330
6C
100
AcDbEntity
  8
Visible (ISO)
100
AcDbLine
 10
522.1990692765507
 20
116.5299319433221
 30
0.0
 11
501.2990692765507
 21
116.5299319433221
 31
0.0
  0
LINE
  5
158
330
6C
100
AcDbEntity
  8
Visible (ISO)
100
AcDbLine
 10
522.1990692765507
 20
192.8450680566778
 30
0.0
 11
501.2990692765507
 21
192.8450680566778
 31
0.0
  0
LINE
  5
159
330
6C
100
AcDbEntity
  8
Visible (ISO)
100
AcDbLine
 10
522.1990692765507
 20
199.6875
 30
0.0
 11
501.2990692765507
 21
199.6875
 31
0.0
  0
LINE
  5
15A
330
6C
100
AcDbEntity
  8
Visible (ISO)
100
AcDbLine
 10
503.1350692765507
 20
200.6875
 30
0.0
 11
510.8630692765507
 21
200.6875
 31
0.0
  0
LINE
  5
15B
330
6C
100
AcDbEntity
  8
Visible (ISO)
100
AcDbLine
 10
511.831834524173
 20
199.6879879239129
 30
0.0
 11
502.1663040289284
 21
199.6879879239129
 31
0.0
  0
LINE
  5
15C
330
6C
100
AcDbEntity
  8
Visible (ISO)
100
AcDbLine
 10
510.8630692765507
 20
200.6875
 30
0.0
 11
511.831834524173
 21
199.6879879239129
 31
0.0
  0
LINE
  5
15D
330
6C
100
AcDbEntity
  8
Visible (ISO)
100
AcDbLine
 10
503.1350692765507
 20
200.6875
 30
0.0
 11
502.1663040289284
 21
199.6879879239129
 31
0.0
  0
LINE
  5
15E
330
6C
100
AcDbEntity
  8
Visible (ISO)
100
AcDbLine
 10
502.1663192765507
 20
199.6875
 30
0.0
 11
502.1663040289284
 21
199.6879879239129
 31
0.0
  0
LINE
  5
15F
330
6C
100
AcDbEntity
  8
Visible (ISO)
100
AcDbLine
 10
511.8318192765507
 20
199.6875
 30
0.0
 11
511.831834524173
 21
199.6879879239129
 31
0.0
  0
LINE
  5
160
330
6C
100
AcDbEntity
  8
Visible Narrow (ISO)
100
AcDbLine
 10
511.2505356543713
 20
199.6875
 30
0.0
 11
511.2505509019936
 21
199.6879879239129
 31
0.0
  0
LINE
  5
161
330
6C
100
AcDbEntity
  8
Visible Narrow (ISO)
100
AcDbLine
 10
502.7475876511078
 20
199.6879879239129
 30
0.0
 11
502.7476028987301
 21
199.6875
 31
0.0
  0
ELLIPSE
  5
162
330
6C
100
AcDbEntity
  8
Visible Narrow (ISO)
100
AcDbEllipse
 10
189.0508570692982
 20
292.2724010341253
 30
0.0
 11
-11.37438791138659
 21
19.75194372525233
 31
0.0
210
0.0
220
0.0
230
1.0
 40
0.5780931159156392
 41
2.125251170967123
 42
7.299526789802255
  0
ELLIPSE
  5
163
330
6C
100
AcDbEntity
  8
Visible Narrow (ISO)
100
AcDbEllipse
 10
189.1544104598915
 20
292.3320334657751
 30
0.0
 11
11.55082244180744
 21
-20.05832723733346
 31
0.0
210
0.0
220
0.0
230
1.0
 40
0.5780931159156394
 41
5.495853435359401
 42
10.21210983258956
  0
SPLINE
  5
164
330
6C
100
AcDbEntity
  8
Visible (ISO)
100
AcDbSpline
210
0.0
220
0.0
230
1.0
 70
     8
 71
     3
 72
     8
 73
     4
 74
     0
 42
0.0000000001
 43
0.0000000001
 40
1.574663743640666
 40
1.574663743640666
 40
1.574663743640666
 40
1.574663743640666
 40
1.812200727346943
 40
1.812200727346943
 40
1.812200727346943
 40
1.812200727346943
 10
189.0911125699764
 20
273.4453149374699
 30
0.0
 10
187.785377874969
 20
274.20307610185
 30
0.0
 10
186.4855070497197
 20
275.1374037000443
 30
0.0
 10
185.2252396051831
 20
276.221890761667
 30
0.0
  0
SPLINE
  5
165
330
6C
100
AcDbEntity
  8
Visible (ISO)
100
AcDbSpline
210
0.0
220
0.0
230
1.0
 70
     8
 71
     3
 72
     8
 73
     4
 74
     0
 42
0.0000000001
 43
0.0000000001
 40
2.904055669883812
 40
2.904055669883812
 40
2.904055669883812
 40
2.904055669883812
 40
3.141592653590089
 40
3.141592653590089
 40
3.141592653590089
 40
3.141592653590089
 10
173.2484665271628
 20
297.0198932291542
 30
0.0
 10
172.943057761063
 20
298.6542468335419
 30
0.0
 10
172.7874011020096
 20
300.2474835477731
 30
0.0
 10
172.78740110201
 20
301.7571673146556
 30
0.0
  0
ELLIPSE
  5
166
330
6C
100
AcDbEntity
  8
Visible Narrow (ISO)
100
AcDbEllipse
 10
189.8437502881118
 20
292.7289978718108
 30
0.0
 11
-12.0373158373771
 21
20.9031366676835
 31
0.0
210
0.0
220
0.0
230
1.0
 40
0.5780931159156396
 41
2.354260781769607
 42
7.070517178999769
  0
ELLIPSE
  5
167
330
6C
100
AcDbEntity
  8
Visible Narrow (ISO)
100
AcDbEllipse
 10
190.4650706316715
 20
293.0867924617098
 30
0.0
 11
13.09592301990219
 21
-22.74143774017037
 31
0.0
210
0.0
220
0.0
230
0.9999999999999998
 40
0.5780931159156393
 41
5.187313200389072
 42
10.52065006755989
  0
ELLIPSE
  5
168
330
6C
100
AcDbEntity
  8
Visible (ISO)
100
AcDbEllipse
 10
189.0508570692982
 20
292.2724010341253
 30
0.0
 11
10.26876061337607
 21
-17.8319909030398
 31
0.0
210
0.0
220
0.0
230
1.0
 40
0.5780931159156393
 41
5.335008903715021
 42
10.37295436423394
  0
ELLIPSE
  5
169
330
6C
100
AcDbEntity
  8
Visible (ISO)
100
AcDbEllipse
 10
189.7579638504848
 20
292.6795967479175
 30
0.0
 11
9.980644231683653
 21
-17.33166872290605
 31
0.0
210
0.0
220
0.0
230
1.0
 40
0.5780931159156394
 41
5.861786860782729
 42
6.672607280857844
  0
ELLIPSE
  5
16A
330
6C
100
AcDbEntity
  8
Visible (ISO)
100
AcDbEllipse
 10
189.7579638504848
 20
292.6795967479175
 30
0.0
 11
-9.980644231683651
 21
17.33166872290605
 31
0.0
210
0.0
220
0.0
230
1.0
 40
0.5780931159156394
 41
5.893763333501327
 42
6.704583753576441
  0
ELLIPSE
  5
16B
330
6C
100
AcDbEntity
  8
Visible Narrow (ISO)
100
AcDbEllipse
 10
190.4650706316715
 20
293.0867924617098
 30
0.0
 11
-17.2166112996543
 21
29.89712854701296
 31
0.0
210
0.0
220
0.0
230
0.9999999999999998
 40
0.5780931159156392
 41
1.926047735733135
 42
7.498730225036243
  0
ELLIPSE
  5
16C
330
6C
100
AcDbEntity
  8
Visible Narrow (ISO)
100
AcDbEllipse
 10
192.5863909752314
 20
294.3083796030866
 30
0.0
 11
18.71370793440684
 21
-32.49687885544885
 31
0.0
210
0.0
220
0.0
230
1.0
 40
0.5780931159156394
 41
0.0000000000000021
 42
3.141592653589794
  0
SPLINE
  5
16D
330
6C
100
AcDbEntity
  8
Visible (ISO)
100
AcDbSpline
210
0.0
220
0.0
230
1.0
 70
     8
 71
     3
 72
    14
 73
    10
 74
     0
 42
0.0000000001
 43
0.0000000001
 40
0.7873318718204815
 40
0.7873318718204815
 40
0.7873318718204815
 40
0.7873318718204815
 40
1.065094683326195
 40
1.065094683326195
 40
1.364174639706741
 40
1.364174639706741
 40
1.692021164767143
 40
1.692021164767143
 40
2.021221704258632
 40
2.021221704258632
 40
2.021221704258632
 40
2.021221704258632
 10
211.3000989096383
 20
261.8115007476378
 30
0.0
 10
209.2835003802279
 20
260.6502188882874
 30
0.0
 10
206.9896002922174
 20
259.9882490056813
 30
0.0
 10
202.0199417716536
 20
259.6684409291601
 30
0.0
 10
199.3305125821967
 20
260.0783492049455
 30
0.0
 10
193.69498141899
 20
261.9578542119894
 30
0.0
 10
190.7416532573022
 20
263.5256808883159
 30
0.0
 10
185.0239612530209
 20
267.6236125792353
 30
0.0
 10
182.2607052756845
 20
270.1595407521874
 30
0.0
 10
179.7150497457735
 20
273.0487834564763
 30
0.0
  0
SPLINE
  5
16E
330
6C
100
AcDbEntity
  8
Visible (ISO)
100
AcDbSpline
210
0.0
220
0.0
230
1.0
 70
     8
 71
     3
 72
    14
 73
    10
 74
     0
 42
0.0000000001
 43
0.0000000001
 40
2.695034692972123
 40
2.695034692972123
 40
2.695034692972123
 40
2.695034692972123
 40
3.019028900782396
 40
3.019028900782396
 40
3.352595491013613
 40
3.352595491013613
 40
3.680415123600619
 40
3.680415123600619
 40
3.928924525410274
 40
3.928924525410274
 40
3.928924525410274
 40
3.928924525410274
 10
167.7382766677531
 20
293.8467859239635
 30
0.0
 10
166.5364162937912
 20
297.440991157996
 30
0.0
 10
165.7362848111583
 20
301.0457667830238
 30
0.0
 10
165.0318810015982
 20
308.0629842587378
 30
0.0
 10
165.1530437829502
 20
311.4671993159675
 30
0.0
 10
166.4254197067968
 20
317.6026701917262
 30
0.0
 10
167.5639783578068
 20
320.3526377181619
 30
0.0
 10
170.4963022545827
 20
324.3350546789358
 30
0.0
 10
172.0684685330676
 20
325.7662804231565
 30
0.0
 10
173.8726830408246
 20
326.8052584585355
 30
0.0
  0
ELLIPSE
  5
16F
330
6C
100
AcDbEntity
  8
Visible (ISO)
100
AcDbEllipse
 10
173.0287791306622
 20
349.3983019508705
 30
0.0
 11
-1.65853355520003
 21
2.880090050028913
 31
0.0
210
0.0
220
0.0
230
0.9999999999999998
 40
0.5780931159156394
 41
0.0
 42
6.283185307179586
  0
ELLIPSE
  5
170
330
6C
100
AcDbEntity
  8
Visible (ISO)
100
AcDbEllipse
 10
230.5287791306537
 20
249.8055458139018
 30
0.0
 11
-1.65853355520003
 21
2.880090050028913
 31
0.0
210
0.0
220
0.0
230
0.9999999999999998
 40
0.5780931159156394
 41
0.0
 42
6.283185307179586
  0
ELLIPSE
  5
171
330
6C
100
AcDbEntity
  8
Visible (ISO)
100
AcDbEllipse
 10
230.5287791306537
 20
316.2862541442102
 30
0.0
 11
-1.65853355520003
 21
2.880090050028913
 31
0.0
210
0.0
220
0.0
230
0.9999999999999998
 40
0.5780931159156394
 41
0.0
 42
6.283185307179586
  0
ELLIPSE
  5
172
330
6C
100
AcDbEntity
  8
Visible Narrow (ISO)
100
AcDbEllipse
 10
196.1219248811647
 20
296.3443581720479
 30
0.0
 11
-18.71370793440685
 21
32.49687885544885
 31
0.0
210
0.0
220
0.0
230
1.0
 40
0.5780931159156394
 41
3.141592653589791
 42
6.283185307179583
  0
ELLIPSE
  5
173
330
6C
100
AcDbEntity
  8
Visible Narrow (ISO)
100
AcDbEllipse
 10
198.2432452247247
 20
297.5659453134248
 30
0.0
 11
20.21080456915938
 21
-35.09662916388476
 31
0.0
210
0.0
220
0.0
230
0.9999999999999998
 40
0.5780931159156394
 41
5.880278915517686
 42
9.82768435243128
  0
ELLIPSE
  5
174
330
6C
100
AcDbEntity
  8
Visible (ISO)
100
AcDbEllipse
 10
198.2432452247247
 20
297.5659453134248
 30
0.0
 11
-21.95741730970404
 21
38.12967119039334
 31
0.0
210
0.0
220
0.0
230
0.9999999999999998
 40
0.5780931159156394
 41
2.46435787236791
 42
6.960420088401469
  0
ELLIPSE
  5
175
330
6C
100
AcDbEntity
  8
Visible (ISO)
100
AcDbEllipse
 10
198.9503520059113
 20
297.9731410272171
 30
0.0
 11
22.45644952128821
 21
-38.99625462653862
 31
0.0
210
0.0
220
0.0
230
1.0
 40
0.5780931159156394
 41
5.574288158957536
 42
10.13367510899143
  0
ELLIPSE
  5
176
330
6C
100
AcDbEntity
  8
Visible Narrow (ISO)
100
AcDbEllipse
 10
201.4959364181833
 20
299.4390455968693
 30
0.0
 11
-22.45644952128821
 21
38.99625462653862
 31
0.0
210
0.0
220
0.0
230
1.0
 40
0.5780931159156394
 41
3.141592653589793
 42
6.283185307179586
  0
ELLIPSE
  5
177
330
6C
100
AcDbEntity
  8
Visible Narrow (ISO)
100
AcDbEllipse
 10
201.778779130658
 20
299.6019238823862
 30
0.0
 11
22.65606240592189
 21
-39.34288800099677
 31
0.0
210
0.0
220
0.0
230
0.9999999999999998
 40
0.5780931159156392
 41
6.150077381435117
 42
9.557885886513846
  0
LINE
  5
178
330
6C
100
AcDbEntity
  8
Visible (ISO)
100
AcDbLine
 10
171.3731875396409
 20
356.7623751303224
 30
0.0
 11
232.184370721675
 21
321.7435437441764
 31
0.0
  0
ELLIPSE
  5
179
330
6C
100
AcDbEntity
  8
Visible (ISO)
100
AcDbEllipse
 10
171.3731875396409
 20
352.2658659436884
 30
0.0
 11
-2.744677163712993
 21
4.766208898799149
 31
0.0
210
0.0
220
0.0
230
0.9999999999999998
 40
0.5780931159156393
 41
5.499720852205171
 42
7.070517179000071
  0
LINE
  5
17A
330
6C
100
AcDbEntity
  8
Visible (ISO)
100
AcDbLine
 10
167.4841002431155
 20
293.7004154557213
 30
0.0
 11
167.4841002431155
 21
294.6258140119182
 31
0.0
  0
LINE
  5
17B
330
6C
100
AcDbEntity
  8
Visible (ISO)
100
AcDbLine
 10
167.4841002431155
 20
321.5623678202022
 30
0.0
 11
167.4841002431155
 21
354.5054423695465
 31
0.0
  0
LINE
  5
17C
330
6C
100
AcDbEntity
  8
Visible (ISO)
100
AcDbLine
 10
232.184370721675
 20
242.4414726344501
 30
0.0
 11
203.6073691143927
 21
258.8978733890845
 31
0.0
  0
LINE
  5
17D
330
6C
100
AcDbEntity
  8
Visible (ISO)
100
AcDbLine
 10
180.4454910705378
 20
272.2359118774371
 30
0.0
 11
179.3744832567891
 21
272.8526642588311
 31
0.0
  0
ELLIPSE
  5
17E
330
6C
100
AcDbEntity
  8
Visible (ISO)
100
AcDbEllipse
 10
232.184370721675
 20
246.937981821084
 30
0.0
 11
2.744677163712993
 21
-4.766208898799149
 31
0.0
210
0.0
220
0.0
230
0.9999999999999998
 40
0.5780931159156393
 41
5.499720852205171
 42
7.070517179000071
  0
LINE
  5
17F
330
6C
100
AcDbEntity
  8
Visible (ISO)
100
AcDbLine
 10
236.0734580182004
 20
315.0074581316843
 30
0.0
 11
236.0734580182004
 21
244.6984053952259
 31
0.0
  0
ELLIPSE
  5
180
330
6C
100
AcDbEntity
  8
Visible (ISO)
100
AcDbEllipse
 10
232.184370721675
 20
317.2470345575425
 30
0.0
 11
2.744677163712708
 21
-4.766208898799312
 31
0.0
210
0.0
220
0.0
230
1.0
 40
0.5780931159156394
 41
0.7873318718207188
 42
2.358128198615622
  0
LINE
  5
181
330
6C
100
AcDbEntity
  8
Visible Narrow (ISO)
100
AcDbLine
 10
171.7267409302342
 20
357.3747465496397
 30
0.0
 11
171.3731875396409
 21
356.7623751303224
 31
0.0
  0
LINE
  5
182
330
6C
100
AcDbEntity
  8
Visible Narrow (ISO)
100
AcDbLine
 10
232.184370721675
 20
321.7435437441764
 30
0.0
 11
232.5379241122683
 21
322.3559151634938
 31
0.0
  0
LINE
  5
183
330
6C
100
AcDbEntity
  8
Visible (ISO)
100
AcDbLine
 10
232.5379241122683
 20
322.3559151634938
 30
0.0
 11
171.7267409302342
 21
357.3747465496397
 31
0.0
  0
LINE
  5
184
330
6C
100
AcDbEntity
  8
Visible Narrow (ISO)
100
AcDbLine
 10
236.0734580182004
 20
315.0074581316843
 30
0.0
 11
236.780564799387
 21
315.0074581316843
 31
0.0
  0
ELLIPSE
  5
185
330
6C
100
AcDbEntity
  8
Visible (ISO)
100
AcDbEllipse
 10
232.5379241122683
 20
317.4506324144386
 30
0.0
 11
-2.994193269505403
 21
5.199500616871634
 31
0.0
210
0.0
220
0.0
230
0.9999999999999998
 40
0.5780931159156393
 41
3.928924525410035
 42
5.499720852204927
  0
LINE
  5
186
330
6C
100
AcDbEntity
  8
Visible Narrow (ISO)
100
AcDbLine
 10
236.0734580182004
 20
244.6984053952259
 30
0.0
 11
236.780564799387
 21
244.6984053952258
 31
0.0
  0
LINE
  5
187
330
6C
100
AcDbEntity
  8
Visible (ISO)
100
AcDbLine
 10
236.780564799387
 20
244.6984053952258
 30
0.0
 11
236.780564799387
 21
315.0074581316843
 31
0.0
  0
LINE
  5
188
330
6C
100
AcDbEntity
  8
Visible Narrow (ISO)
100
AcDbLine
 10
232.184370721675
 20
242.4414726344501
 30
0.0
 11
232.5379241122683
 21
242.2362969289249
 31
0.0
  0
ELLIPSE
  5
189
330
6C
100
AcDbEntity
  8
Visible (ISO)
100
AcDbEllipse
 10
232.5379241122683
 20
247.1415796779801
 30
0.0
 11
2.994193269505092
 21
-5.199500616871813
 31
0.0
210
0.0
220
0.0
230
0.9999999999999998
 40
0.5780931159156394
 41
5.499720852205171
 42
7.070517179000073
  0
LINE
  5
18A
330
6C
100
AcDbEntity
  8
Visible (ISO)
100
AcDbLine
 10
179.3731132675832
 20
272.8518753345167
 30
0.0
 11
180.4485542278674
 21
272.232570073818
 31
0.0
  0
LINE
  5
18B
330
6C
100
AcDbEntity
  8
Visible (ISO)
100
AcDbLine
 10
203.5981356315325
 20
258.9016127496015
 30
0.0
 11
232.5379241122683
 21
242.2362969289249
 31
0.0
  0
LINE
  5
18C
330
6C
100
AcDbEntity
  8
Visible (ISO)
100
AcDbLine
 10
167.4841002431155
 20
354.5054423695465
 30
0.0
 11
167.4841002431156
 21
354.9126380833389
 31
0.0
  0
ELLIPSE
  5
18D
330
6C
100
AcDbEntity
  8
Visible (ISO)
100
AcDbEllipse
 10
171.7267409302342
 20
352.4694638005845
 30
0.0
 11
-2.994193269505092
 21
5.199500616871813
 31
0.0
210
0.0
220
0.0
230
0.9999999999999998
 40
0.5780931159156394
 41
5.499720852205171
 42
7.070517179000067
  0
LINE
  5
18E
330
6C
100
AcDbEntity
  8
Visible Narrow (ISO)
100
AcDbLine
 10
200.505986924531
 20
373.9476121009853
 30
0.0
 11
171.7267409302342
 21
357.3747465496397
 31
0.0
  0
LINE
  5
18F
330
6C
100
AcDbEntity
  8
Visible Narrow (ISO)
100
AcDbLine
 10
261.3171701065651
 20
338.9287807148394
 30
0.0
 11
232.5379241122683
 21
322.3559151634938
 31
0.0
  0
LINE
  5
190
330
6C
100
AcDbEntity
  8
Visible Narrow (ISO)
100
AcDbLine
 10
265.5598107936837
 20
261.2712709465713
 30
0.0
 11
236.780564799387
 21
244.6984053952258
 31
0.0
  0
LINE
  5
191
330
6C
100
AcDbEntity
  8
Visible Narrow (ISO)
100
AcDbLine
 10
265.5598107936837
 20
331.5803236830297
 30
0.0
 11
236.780564799387
 21
315.0074581316843
 31
0.0
  0
LINE
  5
192
330
6C
100
AcDbEntity
  8
Visible (ISO)
100
AcDbLine
 10
197.5117936550259
 20
374.2418299688019
 30
0.0
 11
168.7325476607291
 21
357.6689644174563
 31
0.0
  0
LINE
  5
193
330
6C
100
AcDbEntity
  8
Visible (ISO)
100
AcDbLine
 10
264.3113633760702
 20
258.5149446124539
 30
0.0
 11
235.5321173817734
 21
241.9420790611084
 31
0.0
  0
ELLIPSE
  5
194
330
6C
100
AcDbEntity
  8
Visible (ISO)
100
AcDbEllipse
 10
200.505986924531
 20
369.04232935193
 30
0.0
 11
-2.994193269505085
 21
5.199500616871794
 31
0.0
210
0.0
220
0.0
230
1.0
 40
0.5780931159156394
 41
5.499720852205169
 42
6.283185307179585
  0
LINE
  5
195
330
6C
100
AcDbEntity
  8
Visible (ISO)
100
AcDbLine
 10
200.505986924531
 20
373.9476121009853
 30
0.0
 11
261.3171701065651
 21
338.9287807148394
 31
0.0
  0
ELLIPSE
  5
196
330
6C
100
AcDbEntity
  8
Visible (ISO)
100
AcDbEllipse
 10
261.3171701065651
 20
263.7144452293257
 30
0.0
 11
2.994193269505102
 21
-5.199500616871829
 31
0.0
210
0.0
220
0.0
230
1.0
 40
0.5780931159156393
 41
0.0
 42
0.7873318718204816
  0
LINE
  5
197
330
6C
100
AcDbEntity
  8
Visible (ISO)
100
AcDbLine
 10
265.5598107936838
 20
331.8246411113052
 30
0.0
 11
265.5598107936837
 21
331.5803236830297
 31
0.0
  0
LINE
  5
198
330
6C
100
AcDbEntity
  8
Visible (ISO)
100
AcDbLine
 10
265.5598107936837
 20
331.5803236830297
 30
0.0
 11
265.5598107936837
 21
261.2712709465713
 31
0.0
  0
ELLIPSE
  5
199
330
6C
100
AcDbEntity
  8
Visible (ISO)
100
AcDbEllipse
 10
261.3171701065651
 20
334.0234979657842
 30
0.0
 11
2.994193269504781
 21
-5.199500616871992
 31
0.0
210
0.0
220
0.0
230
1.0
 40
0.5780931159156394
 41
0.7873318718207321
 42
2.358128198615617
  0
ELLIPSE
  5
19A
330
6C
100
AcDbEntity
  8
Visible (ISO)
100
AcDbEllipse
 10
261.5293021409211
 20
334.1456566799219
 30
0.0
 11
-2.844483606030135
 21
4.939525586028058
 31
0.0
210
0.0
220
0.0
230
1.0
 40
0.5780931159156394
 41
3.928924525410041
 42
5.495853435359137
  0
LINE
  5
19B
330
6C
100
AcDbEntity
  8
Visible (ISO)
100
AcDbLine
 10
261.5448897591246
 20
338.7966641294881
 30
0.0
 11
261.3335781257268
 21
338.9192952811171
 31
0.0
  0
LINE
  5
19C
330
6C
100
AcDbEntity
  8
Visible (ISO)
100
AcDbLine
 10
172.78740110201
 20
301.7571673146556
 30
0.0
 11
172.7874011020102
 21
302.5510961267274
 31
0.0
  0
LINE
  5
19D
330
6C
100
AcDbEntity
  8
Visible (ISO)
100
AcDbLine
 10
189.0911125699764
 20
273.4453149374699
 30
0.0
 11
189.7777864403783
 21
273.04681530843
 31
0.0
  0
LINE
  5
19E
330
6C
100
AcDbEntity
  8
Visible (ISO)
100
AcDbLine
 10
214.8356328155716
 20
263.8474793165991
 30
0.0
 11
211.3000989096383
 21
261.8115007476378
 31
0.0
  0
LINE
  5
19F
330
6C
100
AcDbEntity
  8
Visible (ISO)
100
AcDbLine
 10
177.4082169467579
 20
328.8412370274969
 30
0.0
 11
173.8726830408246
 21
326.8052584585355
 31
0.0
  0
LINE
  5
1A0
330
6C
100
AcDbEntity
  8
Visible (ISO)
100
AcDbLine
 10
223.9523859394715
 20
260.4427909703306
 30
0.0
 11
221.4068015271995
 21
258.9768864006785
 31
0.0
  0
LINE
  5
1A1
330
6C
100
AcDbEntity
  8
Visible (ISO)
100
AcDbLine
 10
179.0394868968951
 20
338.4353002234079
 30
0.0
 11
176.4939024846231
 21
336.9693956537557
 31
0.0
  0
ELLIPSE
  5
1A2
330
6C
100
AcDbEntity
  8
Visible (ISO)
100
AcDbEllipse
 10
189.7579638504848
 20
292.6795967479176
 30
0.0
 11
6.986450962178603
 21
-12.13216810603432
 31
0.0
210
0.0
220
0.0
230
1.0
 40
0.5780931159156394
 41
0.0
 42
0.3758474079077043
  0
ELLIPSE
  5
1A3
330
6C
100
AcDbEntity
  8
Visible (ISO)
100
AcDbEllipse
 10
189.7579638504849
 20
292.6795967479176
 30
0.0
 11
-6.986450962178553
 21
12.13216810603422
 31
0.0
210
0.0
220
0.0
230
1.0
 40
0.5780931159156393
 41
5.907337899271873
 42
6.283185307179584
  0
ELLIPSE
  5
1A4
330
6C
100
AcDbEntity
  8
Visible (ISO)
100
AcDbEllipse
 10
189.0508570692982
 20
292.2724010341253
 30
0.0
 11
7.274567343870975
 21
-12.632490286168
 31
0.0
210
0.0
220
0.0
230
1.0
 40
0.5780931159156396
 41
5.981326172973671
 42
9.726637094975302
  0
ELLIPSE
  5
1A5
330
6C
100
AcDbEntity
  8
Visible (ISO)
100
AcDbEllipse
 10
189.0508570692982
 20
292.2724010341253
 30
0.0
 11
-9.692527849991227
 21
16.83134654277229
 31
0.0
210
0.0
220
0.0
230
1.0
 40
0.5780931159156394
 41
2.236783138542535
 42
7.187994822226845
  0
ELLIPSE
  5
1A6
330
6C
100
AcDbEntity
  8
Visible (ISO)
100
AcDbEllipse
 10
189.7579638504849
 20
292.6795967479175
 30
0.0
 11
-9.980644231683642
 21
17.33166872290604
 31
0.0
210
0.0
220
0.0
230
1.0
 40
0.5780931159156396
 41
5.893763333501332
 42
6.704583753576442
  0
ELLIPSE
  5
1A7
330
6C
100
AcDbEntity
  8
Visible (ISO)
100
AcDbEllipse
 10
189.7579638504849
 20
292.6795967479175
 30
0.0
 11
9.980644231683646
 21
-17.33166872290605
 31
0.0
210
0.0
220
0.0
230
1.0
 40
0.5780931159156393
 41
5.861786860782729
 42
6.672607280857837
  0
LINE
  5
1A8
330
6C
100
AcDbEntity
  8
Visible (ISO)
100
AcDbLine
 10
176.2262880991379
 20
305.3393954345287
 30
0.0
 11
176.5521766402912
 21
306.1350156341214
 31
0.0
  0
LINE
  5
1A9
330
6C
100
AcDbEntity
  8
Visible (ISO)
100
AcDbLine
 10
193.9154967995986
 20
274.6215882419348
 30
0.0
 11
194.767208003803
 21
274.5041026347834
 31
0.0
  0
ELLIPSE
  5
1AA
330
6C
100
AcDbEntity
  8
Visible (ISO)
100
AcDbEllipse
 10
158.6452654782722
 20
274.7629853410575
 30
0.0
 11
-2.495161057920913
 21
4.332917180726517
 31
0.0
210
0.0
220
0.0
230
0.9999999999999998
 40
0.5780931159156393
 41
0.0
 42
6.283185307179586
  0
ELLIPSE
  5
1AB
330
6C
100
AcDbEntity
  8
Visible (ISO)
100
AcDbEllipse
 10
160.6985502551605
 20
275.9453934052833
 30
0.0
 11
-1.65853355520003
 21
2.880090050028913
 31
0.0
210
0.0
220
0.0
230
0.9999999999999998
 40
0.5780931159156397
 41
0.1046035473418369
 42
3.036989106247961
  0
ELLIPSE
  5
1AC
330
6C
100
AcDbEntity
  8
Visible Narrow (ISO)
100
AcDbEllipse
 10
186.3638513007889
 20
290.7250573217146
 30
0.0
 11
-5.988386539010193
 21
10.39900123374363
 31
0.0
210
0.0
220
0.0
230
1.0
 40
0.5780931159156392
 41
3.141592653589786
 42
6.283185307179579
  0
ELLIPSE
  5
1AD
330
6C
100
AcDbEntity
  8
Visible Narrow (ISO)
100
AcDbEllipse
 10
186.9295367257383
 20
291.0508138927484
 30
0.0
 11
6.387612308277538
 21
-11.09226798265988
 31
0.0
210
0.0
220
0.0
230
1.0
 40
0.5780931159156394
 41
5.927764105489361
 42
9.7801991624596
  0
ELLIPSE
  5
1AE
330
6C
100
AcDbEntity
  8
Visible (ISO)
100
AcDbEllipse
 10
186.9295367257383
 20
291.0508138927484
 30
0.0
 11
-6.80481809122188
 21
11.81675752976922
 31
0.0
210
0.0
220
0.0
230
1.0
 40
0.5780931159156394
 41
2.646703892325854
 42
6.778074068443518
  0
ELLIPSE
  5
1AF
330
6C
100
AcDbEntity
  8
Visible (ISO)
100
AcDbEllipse
 10
187.6366435069249
 20
291.4580096065407
 30
0.0
 11
6.986450962178553
 21
-12.13216810603424
 31
0.0
210
0.0
220
0.0
230
1.0
 40
0.5780931159156392
 41
6.022375548938789
 42
9.685587719010172
  0
LINE
  5
1B0
330
6C
100
AcDbEntity
  8
Visible (ISO)
100
AcDbLine
 10
178.5933372264684
 20
301.4535599922282
 30
0.0
 11
179.0779358042582
 21
302.1384237662908
 31
0.0
  0
LINE
  5
1B1
330
6C
100
AcDbEntity
  8
Visible (ISO)
100
AcDbLine
 10
191.7427157674475
 20
278.6192952399724
 30
0.0
 11
192.5782949803809
 21
278.6946712940785
 31
0.0
  0
ELLIPSE
  5
1B2
330
6C
100
AcDbEntity
  8
Visible Narrow (ISO)
100
AcDbEllipse
 10
159.3523722594588
 20
275.1701810548498
 30
0.0
 11
5.98838653901019
 21
-10.39900123374364
 31
0.0
210
0.0
220
0.0
230
0.9999999999999998
 40
0.5780931159156394
 41
0.0
 42
3.141592653589791
  0
ELLIPSE
  5
1B3
330
6C
100
AcDbEntity
  8
Visible Narrow (ISO)
100
AcDbEllipse
 10
158.6452654782722
 20
274.7629853410575
 30
0.0
 11
-5.489354327426009
 21
9.532417797598336
 31
0.0
210
0.0
220
0.0
230
0.9999999999999998
 40
0.5780931159156394
 41
0.0
 42
6.283185307179586
  0
SPLINE
  5
1B4
330
6C
100
AcDbEntity
  8
Visible (ISO)
100
AcDbSpline
210
0.0
220
0.0
230
1.0
 70
     8
 71
     3
 72
    26
 73
    22
 74
     0
 42
0.0000000001
 43
0.0000000001
 40
0.7873318718204815
 40
0.7873318718204815
 40
0.7873318718204815
 40
0.7873318718204815
 40
1.063660571805224
 40
1.063660571805224
 40
1.361682561479294
 40
1.361682561479294
 40
1.689634830002312
 40
1.689634830002312
 40
2.023800512745531
 40
2.023800512745531
 40
2.355817953751278
 40
2.355817953751278
 40
2.686723632284175
 40
2.686723632284175
 40
3.018705143857673
 40
3.018705143857673
 40
3.352847252007308
 40
3.352847252007308
 40
3.680895091651295
 40
3.680895091651295
 40
3.928924525410274
 40
3.928924525410274
 40
3.928924525410274
 40
3.928924525410274
 10
165.340758798469
 20
264.7711798211061
 30
0.0
 10
164.6951017851252
 20
264.399370675149
 30
0.0
 10
163.9611374179986
 20
264.1866913125547
 30
0.0
 10
162.3716571403383
 20
264.0809585346105
 30
0.0
 10
161.5118608855882
 20
264.209977510178
 30
0.0
 10
159.7084330432998
 20
264.8060110276298
 30
0.0
 10
158.762566321121
 20
265.3056675977238
 30
0.0
 10
156.9184546941017
 20
266.6222003335389
 30
0.0
 10
156.0215206255525
 20
267.4455947520246
 30
0.0
 10
154.3772542124705
 20
269.3178443671307
 30
0.0
 10
153.6294569217659
 20
270.3650574661053
 30
0.0
 10
152.3497440603575
 20
272.5804676652594
 30
0.0
 10
151.8173622795758
 20
273.7478114248372
 30
0.0
 10
151.0180678300026
 20
276.0976498621541
 30
0.0
 10
150.7519356043232
 20
277.2797098030204
 30
0.0
 10
150.5230815797151
 20
279.5538199601345
 30
0.0
 10
150.5617269526065
 20
280.645475820841
 30
0.0
 10
150.9705239255846
 20
282.6140091369367
 30
0.0
 10
151.3363427667578
 20
283.4971740651336
 30
0.0
 10
152.2793839313013
 20
284.7759412561319
 30
0.0
 10
152.7844514794124
 20
285.2354507147712
 30
0.0
 10
153.3639857204486
 20
285.5691822885934
 30
0.0
  0
LINE
  5
1B5
330
6C
100
AcDbEntity
  8
Visible (ISO)
100
AcDbLine
 10
192.3522378397991
 20
280.326056087971
 30
0.0
 11
165.340758798469
 21
264.7711798211061
 31
0.0
  0
LINE
  5
1B6
330
6C
100
AcDbEntity
  8
Visible (ISO)
100
AcDbLine
 10
180.3754647617788
 20
301.1240585554582
 30
0.0
 11
153.3639857204486
 21
285.5691822885934
 31
0.0
  0
LINE
  5
1B7
330
6C
100
AcDbEntity
  8
Visible (ISO)
100
AcDbLine
 10
196.7444148126634
 20
280.5474286418833
 30
0.0
 11
194.6230944691034
 21
279.3258415005064
 31
0.0
  0
LINE
  5
1B8
330
6C
100
AcDbEntity
  8
Visible (ISO)
100
AcDbLine
 10
182.7715128883063
 20
304.8117648539517
 30
0.0
 11
180.6501925447463
 21
303.5901777125749
 31
0.0
  0
ELLIPSE
  5
1B9
330
6C
100
AcDbEntity
  8
Visible Narrow (ISO)
100
AcDbEllipse
 10
220.8706622227066
 20
384.8573015333602
 30
0.0
 11
0.499032211584398
 21
0.8665834361451638
 31
0.0
210
0.0
220
0.0
230
1.0
 40
0.5780931159158105
 41
0.0
 42
0.7834644549745633
  0
ELLIPSE
  5
1BA
330
6C
100
AcDbEntity
  8
Visible Narrow (ISO)
100
AcDbEllipse
 10
220.8706622227066
 20
380.7695659091475
 30
0.0
 11
-2.994193269505103
 21
5.199500616871848
 31
0.0
210
0.0
220
0.0
230
1.0
 40
0.5780931159156396
 41
5.499720852205175
 42
6.283185307179587
  0
ELLIPSE
  5
1BB
330
6C
100
AcDbEntity
  8
Visible Narrow (ISO)
100
AcDbEllipse
 10
285.2173793106728
 20
273.4057032175812
 30
0.0
 11
1.000000000000057
 21
-0.0000000000000076
 31
0.0
210
0.0
220
0.0
230
1.0
 40
0.5758617009853118
 41
5.497787143782074
 42
6.283185307179625
  0
ELLIPSE
  5
1BC
330
6C
100
AcDbEntity
  8
Visible Narrow (ISO)
100
AcDbEllipse
 10
281.6818454047407
 20
275.4416817865431
 30
0.0
 11
2.994193269505052
 21
-5.199500616871745
 31
0.0
210
0.0
220
0.0
230
0.9999999999999998
 40
0.5780931159156396
 41
0.0
 42
0.7873318718204861
  0
ELLIPSE
  5
1BD
330
6C
100
AcDbEntity
  8
Visible Narrow (ISO)
100
AcDbEllipse
 10
285.2173793106728
 20
343.7147559540396
 30
0.0
 11
1.000000000000057
 21
-0.0000000000000076
 31
0.0
210
0.0
220
0.0
230
1.0
 40
0.5758617009853118
 41
5.497787143782074
 42
6.283185307179625
  0
LINE
  5
1BE
330
6C
100
AcDbEntity
  8
Visible Narrow (ISO)
100
AcDbLine
 10
285.9244860918594
 20
343.3075602402472
 30
0.0
 11
285.9244860918593
 21
272.9985075037888
 31
0.0
  0
ELLIPSE
  5
1BF
330
6C
100
AcDbEntity
  8
Visible Narrow (ISO)
100
AcDbEllipse
 10
281.6818454047407
 20
349.8384701472143
 30
0.0
 11
0.4990322115843977
 21
0.8665834361451546
 31
0.0
210
0.0
220
0.0
230
1.0
 40
0.5780931159158104
 41
0.0000000000000515
 42
0.783464454974654
  0
ELLIPSE
  5
1C0
330
6C
100
AcDbEntity
  8
Visible Narrow (ISO)
100
AcDbEllipse
 10
281.6818454047407
 20
345.7507345230016
 30
0.0
 11
2.994193269504778
 21
-5.199500616871984
 31
0.0
210
0.0
220
0.0
230
1.0
 40
0.5780931159156394
 41
0.7873318718207205
 42
2.358128198615617
  0
LINE
  5
1C1
330
6C
100
AcDbEntity
  8
Visible Narrow (ISO)
100
AcDbLine
 10
220.8706622227066
 20
385.6748486582027
 30
0.0
 11
281.6818454047407
 21
350.6560172720568
 31
0.0
  0
SPLINE
  5
1C2
330
6C
100
AcDbEntity
  8
Visible (ISO)
100
AcDbSpline
210
0.0
220
0.0
230
1.0
 70
     8
 71
     3
 72
    16
 73
    12
 74
     0
 42
0.0000000001
 43
0.0000000001
 40
4.712388980384689
 40
4.712388980384689
 40
4.712388980384689
 40
4.712388980384689
 40
4.869081871379572
 40
4.869081871379572
 40
5.025774762374455
 40
5.025774762374455
 40
5.182467653369338
 40
5.182467653369338
 40
5.33916054436422
 40
5.33916054436422
 40
5.495853435359105
 40
5.495853435359105
 40
5.495853435359105
 40
5.495853435359105
 10
221.369694434291
 20
385.7238849695054
 30
0.0
 10
221.1457305951022
 20
385.8528571668998
 30
0.0
 10
220.9171525736898
 20
385.9642479354046
 30
0.0
 10
220.4525687766012
 20
386.1469214138035
 30
0.0
 10
220.2164993167548
 20
386.21822943744
 30
0.0
 10
219.7394086672294
 20
386.3142117161342
 30
0.0
 10
219.4982602121923
 20
386.3388388243028
 30
0.0
 10
219.0170683474563
 20
386.3332782138251
 30
0.0
 10
218.7769601744974
 20
386.3028753271021
 30
0.0
 10
218.3110956204376
 20
386.1810856970641
 30
0.0
 10
218.0855948058907
 20
386.0894940952689
 30
0.0
 10
217.8764689532015
 20
385.9690665260193
 30
0.0
  0
SPLINE
  5
1C3
330
6C
100
AcDbEntity
  8
Visible (ISO)
100
AcDbSpline
210
0.0
220
0.0
230
1.0
 70
     8
 71
     3
 72
    16
 73
    12
 74
     0
 42
0.0000000001
 43
0.0000000001
 40
2.354260781769312
 40
2.354260781769312
 40
2.354260781769312
 40
2.354260781769312
 40
2.511727156133408
 40
2.511727156133408
 40
2.669193530497504
 40
2.669193530497504
 40
2.8266599048616
 40
2.8266599048616
 40
2.984126279225696
 40
2.984126279225696
 40
3.141592653589793
 40
3.141592653589793
 40
3.141592653589793
 40
3.141592653589793
 10
284.6760386742458
 20
270.2421811696713
 30
0.0
 10
284.8861968352171
 20
270.3632032057242
 30
0.0
 10
285.0794638147596
 20
270.5131472445988
 30
0.0
 10
285.4198636011781
 20
270.8570620676712
 30
0.0
 10
285.5670483070157
 20
271.050702007993
 30
0.0
 10
285.8136755395106
 20
271.4667098379832
 30
0.0
 10
285.9133416072772
 20
271.6890269185125
 30
0.0
 10
286.0692912496314
 20
272.1526918312633
 30
0.0
 10
286.1256801127136
 20
272.3941286100405
 30
0.0
 10
286.1997195056821
 20
272.8906207475583
 30
0.0
 10
286.2173793106729
 20
273.1457446996014
 30
0.0
 10
286.2173793106729
 20
273.4057032175812
 30
0.0
  0
LINE
  5
1C4
330
6C
100
AcDbEntity
  8
Visible (ISO)
100
AcDbLine
 10
286.2173793106729
 20
273.4057032175812
 30
0.0
 11
286.2173793106729
 21
343.7147559540396
 31
0.0
  0
SPLINE
  5
1C5
330
6C
100
AcDbEntity
  8
Visible (ISO)
100
AcDbSpline
210
0.0
220
0.0
230
1.0
 70
     8
 71
     3
 72
    16
 73
    12
 74
     0
 42
0.0000000001
 43
0.0000000001
 40
3.141592653589793
 40
3.141592653589793
 40
3.141592653589793
 40
3.141592653589793
 40
3.455751918948772
 40
3.455751918948772
 40
3.769911184307751
 40
3.769911184307751
 40
4.084070449666731
 40
4.084070449666731
 40
4.39822971502571
 40
4.39822971502571
 40
4.712388980384689
 40
4.712388980384689
 40
4.712388980384689
 40
4.712388980384689
 10
286.2173793106729
 20
343.7147559540396
 30
0.0
 10
286.2173793106729
 20
344.2333960596629
 30
0.0
 10
286.1471955089199
 20
344.7715683921956
 30
0.0
 10
285.8854214625413
 20
345.8538043489082
 30
0.0
 10
285.6935472318838
 20
346.3977851236264
 30
0.0
 10
285.2067571315389
 20
347.4527641875696
 30
0.0
 10
284.9118446496497
 20
347.9635736057794
 30
0.0
 10
284.2417494212692
 20
348.9123481507875
 30
0.0
 10
283.8667299009176
 20
349.3502175515808
 30
0.0
 10
283.060704244327
 20
350.1171746450386
 30
0.0
 10
282.6299108477615
 20
350.4464725429055
 30
0.0
 10
282.1808776163251
 20
350.7050535833595
 30
0.0
  0
LINE
  5
1C6
330
6C
100
AcDbEntity
  8
Visible (ISO)
100
AcDbLine
 10
282.1808776163251
 20
350.7050535833595
 30
0.0
 11
221.369694434291
 21
385.7238849695054
 31
0.0
  0
LINE
  5
1C7
330
6C
100
AcDbEntity
  8
Visible Narrow (ISO)
100
AcDbLine
 10
285.9244860918594
 20
343.3075602402472
 30
0.0
 11
265.9840748623957
 21
331.8246411113051
 31
0.0
  0
LINE
  5
1C8
330
6C
100
AcDbEntity
  8
Visible Narrow (ISO)
100
AcDbLine
 10
285.9244860918593
 20
272.9985075037888
 30
0.0
 11
265.9840748623957
 21
261.5155883748466
 31
0.0
  0
LINE
  5
1C9
330
6C
100
AcDbEntity
  8
Visible Narrow (ISO)
100
AcDbLine
 10
281.6818454047407
 20
350.6560172720568
 30
0.0
 11
261.7414341752771
 21
339.1730981431147
 31
0.0
  0
LINE
  5
1CA
330
6C
100
AcDbEntity
  8
Visible Narrow (ISO)
100
AcDbLine
 10
220.8706622227066
 20
385.6748486582027
 30
0.0
 11
200.9302509932429
 21
374.1919295292606
 31
0.0
  0
LINE
  5
1CB
330
6C
100
AcDbEntity
  8
Visible (ISO)
100
AcDbLine
 10
217.8764689532015
 20
385.9690665260193
 30
0.0
 11
197.9360577237379
 21
374.4861473970772
 31
0.0
  0
LINE
  5
1CC
330
6C
100
AcDbEntity
  8
Visible (ISO)
100
AcDbLine
 10
284.6760386742458
 20
270.2421811696713
 30
0.0
 11
264.7356274447822
 21
258.7592620407292
 31
0.0
  0
LINE
  5
1CD
330
6C
100
AcDbEntity
  8
Visible (ISO)
100
AcDbLine
 10
265.9840748623957
 20
261.5155883748466
 30
0.0
 11
265.9840748623957
 21
331.8246411113051
 31
0.0
  0
ELLIPSE
  5
1CE
330
6C
100
AcDbEntity
  8
Visible (ISO)
100
AcDbEllipse
 10
261.7414341752771
 20
334.2678153940595
 30
0.0
 11
-2.994193269505403
 21
5.199500616871633
 31
0.0
210
0.0
220
0.0
230
1.0
 40
0.5780931159156396
 41
3.928924525410035
 42
5.499720852204933
  0
LINE
  5
1CF
330
6C
100
AcDbEntity
  8
Visible (ISO)
100
AcDbLine
 10
261.7414341752771
 20
339.1730981431147
 30
0.0
 11
200.9302509932429
 21
374.1919295292606
 31
0.0
  0
ELLIPSE
  5
1D0
330
6C
100
AcDbEntity
  8
Visible (ISO)
100
AcDbEllipse
 10
200.9302509932429
 20
369.2866467802054
 30
0.0
 11
-2.994193269505075
 21
5.199500616871784
 31
0.0
210
0.0
220
0.0
230
0.9999999999999998
 40
0.5780931159156394
 41
5.499720852205171
 42
6.353818364210805
  0
ELLIPSE
  5
1D1
330
6C
100
AcDbEntity
  8
Visible (ISO)
100
AcDbEllipse
 10
263.4384904501341
 20
335.1093901250724
 30
0.0
 11
16.21854687648426
 21
-28.16396167472334
 31
0.0
210
0.0
220
0.0
230
1.0
 40
0.5780931159156397
 41
2.241146830454116
 42
2.475109566777188
  0
ELLIPSE
  5
1D2
330
6C
100
AcDbEntity
  8
Visible (ISO)
100
AcDbEllipse
 10
263.438490450134
 20
335.1093901250724
 30
0.0
 11
16.21854687648595
 21
-28.16396167472238
 31
0.0
210
0.0
220
0.0
230
1.0
 40
0.5780931159156394
 41
0.6546190498760476
 42
0.9200446937649155
  0
LINE
  5
1D3
330
6C
100
AcDbEntity
  8
Visible Narrow (ISO)
100
AcDbLine
 10
265.9840748623957
 20
331.8246411113051
 30
0.0
 11
265.5598107936838
 21
331.8246411113052
 31
0.0
  0
LINE
  5
1D4
330
6C
100
AcDbEntity
  8
Visible Narrow (ISO)
100
AcDbLine
 10
265.5598107936838
 20
261.5155883748466
 30
0.0
 11
265.9840748623957
 21
261.5155883748466
 31
0.0
  0
ELLIPSE
  5
1D5
330
6C
100
AcDbEntity
  8
Visible (ISO)
100
AcDbEllipse
 10
261.7414341752771
 20
263.9587626576011
 30
0.0
 11
2.99419326950511
 21
-5.199500616871842
 31
0.0
210
0.0
220
0.0
230
1.0
 40
0.5780931159156394
 41
6.212552250148371
 42
7.070517179000062
  0
LINE
  5
1D6
330
6C
100
AcDbEntity
  8
Visible Narrow (ISO)
100
AcDbLine
 10
200.7185291608998
 20
373.8252171672186
 30
0.0
 11
200.9302509932429
 21
374.1919295292606
 31
0.0
  0
LINE
  5
1D7
330
6C
100
AcDbEntity
  8
Visible Narrow (ISO)
100
AcDbLine
 10
261.5293172119505
 20
338.8057013952697
 30
0.0
 11
261.7414341752771
 21
339.1730981431147
 31
0.0
  0
ELLIPSE
  5
1D8
330
6C
100
AcDbEntity
  8
Visible (ISO)
100
AcDbEllipse
 10
261.5293021409211
 20
334.1456566799219
 30
0.0
 11
2.844483606029541
 21
-4.939525586028388
 31
0.0
210
0.0
220
0.0
230
1.0
 40
0.5780931159156394
 41
0.7873318718207143
 42
2.354260781769824
  0
ELLIPSE
  5
1D9
330
6C
100
AcDbEntity
  8
Visible (ISO)
100
AcDbEllipse
 10
263.6506224844912
 20
335.2315488392095
 30
0.0
 11
-16.06883721301148
 21
27.90398664387629
 31
0.0
210
0.0
220
0.0
230
1.0
 40
0.5780931159156394
 41
3.92892452540973
 42
4.062255054714366
  0
ELLIPSE
  5
1DA
330
6C
100
AcDbEntity
  8
Visible (ISO)
100
AcDbEllipse
 10
263.65062248449
 20
335.2315488392097
 30
0.0
 11
-16.06883721301094
 21
27.90398664387919
 31
0.0
210
0.0
220
0.0
230
1.0
 40
0.5780931159156396
 41
5.382502278517899
 42
5.495853435359405
  0
LINE
  5
1DB
330
6C
100
AcDbEntity
  8
Visible (ISO)
100
AcDbLine
 10
286.4194608386935
 20
322.119846855087
 30
0.0
 11
286.4194608386934
 21
321.8755294268116
 31
0.0
  0
LINE
  5
1DC
330
6C
100
AcDbEntity
  8
Visible (ISO)
100
AcDbLine
 10
263.7386788539906
 20
361.5056610981637
 30
0.0
 11
263.5273672205926
 21
361.6282922497926
 31
0.0
  0
ELLIPSE
  5
1DD
330
6C
100
AcDbEntity
  8
Visible Narrow (ISO)
100
AcDbEllipse
 10
228.3245294194584
 20
381.2410067694263
 30
0.0
 11
-3.243709375297186
 21
5.632792334944467
 31
0.0
210
0.0
220
0.0
230
0.9999999999999998
 40
0.5780931159156394
 41
4.018969007623269
 42
6.283185307179588
  0
SPLINE
  5
1DE
330
6C
100
AcDbEntity
  8
Visible (ISO)
100
AcDbSpline
210
0.0
220
0.0
230
1.0
 70
     8
 71
     3
 72
    22
 73
    18
 74
     0
 42
0.0000000001
 43
0.0000000001
 40
4.715597357790889
 40
4.715597357790889
 40
4.715597357790889
 40
4.715597357790889
 40
4.798589449314821
 40
4.798589449314821
 40
5.139671421665216
 40
5.139671421665216
 40
5.478102154588684
 40
5.478102154588684
 40
5.814703736964597
 40
5.814703736964597
 40
6.152791155278041
 40
6.152791155278041
 40
6.49384569534581
 40
6.49384569534581
 40
6.82392624897877
 40
6.82392624897877
 40
7.066649762154001
 40
7.066649762154001
 40
7.066649762154001
 40
7.066649762154001
 10
233.1550142574875
 20
378.9371706494616
 30
0.0
 10
233.1546036601533
 20
379.0853714087869
 30
0.0
 10
233.1488868634582
 20
379.2354321098514
 30
0.0
 10
233.0933946991352
 20
380.009846589596
 30
0.0
 10
232.9617728970724
 20
380.6582841401187
 30
0.0
 10
232.5486178318475
 20
381.9452850900283
 30
0.0
 10
232.2680969810639
 20
382.5836162834425
 30
0.0
 10
231.5885506327242
 20
383.7921807066966
 30
0.0
 10
231.1903099894225
 20
384.3625080565451
 30
0.0
 10
230.3088971763739
 20
385.3857913107343
 30
0.0
 10
229.8256562481986
 20
385.8381779674028
 30
0.0
 10
228.8083431963234
 20
386.5782548136393
 30
0.0
 10
228.2738506689461
 20
386.865119769379
 30
0.0
 10
227.2065815540357
 20
387.2158574967265
 30
0.0
 10
226.6715052110516
 20
387.2864633421025
 30
0.0
 10
225.7764233123971
 20
387.1805254097108
 30
0.0
 10
225.4088799650086
 20
387.062716248415
 30
0.0
 10
225.0808200441612
 20
386.8737991043708
 30
0.0
  0
LINE
  5
1DF
330
6C
100
AcDbEntity
  8
Visible (ISO)
100
AcDbLine
 10
225.0808200441612
 20
386.8737991043708
 30
0.0
 11
222.2268281607699
 21
385.2302944838033
 31
0.0
  0
ELLIPSE
  5
1E0
330
6C
100
AcDbEntity
  8
Visible Narrow (ISO)
100
AcDbEllipse
 10
285.82452941945
 20
281.6482506324575
 30
0.0
 11
3.24370937529685
 21
-5.632792334944663
 31
0.0
210
0.0
220
0.0
230
1.0
 40
0.5780931159156392
 41
0.0
 42
2.272550914727023
  0
SPLINE
  5
1E1
330
6C
100
AcDbEntity
  8
Visible (ISO)
100
AcDbSpline
210
0.0
220
0.0
230
1.0
 70
     8
 71
     3
 72
    22
 73
    18
 74
     0
 42
0.0000000001
 43
0.0000000001
 40
0.7834644549744152
 40
0.7834644549744152
 40
0.7834644549744152
 40
0.7834644549744152
 40
1.044299121785058
 40
1.044299121785058
 40
1.329466267865424
 40
1.329466267865424
 40
1.656996795725027
 40
1.656996795725027
 40
1.998078768075422
 40
1.998078768075422
 40
2.33650950099889
 40
2.33650950099889
 40
2.673111083374803
 40
2.673111083374803
 40
3.011198501688247
 40
3.011198501688247
 40
3.142968822596085
 40
3.142968822596085
 40
3.142968822596085
 40
3.142968822596085
 10
289.0682387947471
 20
276.0154582975131
 30
0.0
 10
289.420777364368
 20
276.2184717578779
 30
0.0
 10
289.7248061227762
 20
276.5021870189934
 30
0.0
 10
290.2218746713259
 20
277.2047307912515
 30
0.0
 10
290.4039422850321
 20
277.6315967330011
 30
0.0
 10
290.6440232610929
 20
278.6211287925068
 30
0.0
 10
290.6808859132583
 20
279.1961169350054
 30
0.0
 10
290.5933946991267
 20
280.4170904526273
 30
0.0
 10
290.4617728970639
 20
281.0655280031499
 30
0.0
 10
290.048617831839
 20
282.3525289530596
 30
0.0
 10
289.7680969810554
 20
282.9908601464738
 30
0.0
 10
289.0885506327157
 20
284.1994245697279
 30
0.0
 10
288.6903099894141
 20
284.7697519195763
 30
0.0
 10
287.8088971763654
 20
285.7930351737655
 30
0.0
 10
287.3256562481902
 20
286.245421830434
 30
0.0
 10
286.6218381366223
 20
286.7574367774292
 30
0.0
 10
286.4209066097943
 20
286.8883228017497
 30
0.0
 10
286.2173793106729
 20
287.0052025443701
 30
0.0
  0
LINE
  5
1E2
330
6C
100
AcDbEntity
  8
Visible (ISO)
100
AcDbLine
 10
289.0682387947471
 20
276.0154582975131
 30
0.0
 11
286.2173793106729
 21
274.3737575057445
 31
0.0
  0
ELLIPSE
  5
1E3
330
6C
100
AcDbEntity
  8
Visible Narrow (ISO)
100
AcDbEllipse
 10
285.82452941945
 20
348.1289589627659
 30
0.0
 11
-3.243709375297187
 21
5.632792334944467
 31
0.0
210
0.0
220
0.0
230
0.9999999999999998
 40
0.5780931159156394
 41
3.141592653589788
 42
6.283185307179581
  0
SPLINE
  5
1E4
330
6C
100
AcDbEntity
  8
Visible (ISO)
100
AcDbSpline
210
0.0
220
0.0
230
1.0
 70
     8
 71
     3
 72
    26
 73
    22
 74
     0
 42
0.0000000001
 43
0.0000000001
 40
5.495853435359104
 40
5.495853435359104
 40
5.495853435359104
 40
5.495853435359104
 40
5.756688102169747
 40
5.756688102169747
 40
6.041855248250114
 40
6.041855248250114
 40
6.369385776109718
 40
6.369385776109718
 40
6.710467748460112
 40
6.710467748460112
 40
7.048898481383581
 40
7.048898481383581
 40
7.385500063759494
 40
7.385500063759494
 40
7.723587482072938
 40
7.723587482072938
 40
8.064642022140708
 40
8.064642022140708
 40
8.394722575773666
 40
8.394722575773666
 40
8.637446088948898
 40
8.637446088948898
 40
8.637446088948898
 40
8.637446088948898
 10
289.0682387947471
 20
342.4961666278215
 30
0.0
 10
289.420777364368
 20
342.6991800881862
 30
0.0
 10
289.7248061227762
 20
342.9828953493018
 30
0.0
 10
290.2218746713259
 20
343.6854391215598
 30
0.0
 10
290.4039422850321
 20
344.1123050633095
 30
0.0
 10
290.6440232610929
 20
345.1018371228152
 30
0.0
 10
290.6808859132583
 20
345.6768252653138
 30
0.0
 10
290.5933946991267
 20
346.8977987829356
 30
0.0
 10
290.4617728970639
 20
347.5462363334583
 30
0.0
 10
290.048617831839
 20
348.833237283368
 30
0.0
 10
289.7680969810554
 20
349.4715684767821
 30
0.0
 10
289.0885506327157
 20
350.6801329000363
 30
0.0
 10
288.690309989414
 20
351.2504602498847
 30
0.0
 10
287.8088971763654
 20
352.2737435040739
 30
0.0
 10
287.3256562481902
 20
352.7261301607424
 30
0.0
 10
286.308343196315
 20
353.466207006979
 30
0.0
 10
285.7738506689376
 20
353.7530719627186
 30
0.0
 10
284.7065815540272
 20
354.1038096900661
 30
0.0
 10
284.1715052110431
 20
354.1744155354422
 30
0.0
 10
283.2764233123886
 20
354.0684776030504
 30
0.0
 10
282.9088799650001
 20
353.9506684417546
 30
0.0
 10
282.5808200441527
 20
353.7617512977103
 30
0.0
  0
LINE
  5
1E5
330
6C
100
AcDbEntity
  8
Visible (ISO)
100
AcDbLine
 10
289.0682387947471
 20
342.4961666278215
 30
0.0
 11
286.2173793106729
 21
340.8544658360528
 31
0.0
  0
LINE
  5
1E6
330
6C
100
AcDbEntity
  8
Visible (ISO)
100
AcDbLine
 10
282.5808200441527
 20
353.7617512977103
 30
0.0
 11
279.7268281607613
 21
352.1182466771429
 31
0.0
  0
ELLIPSE
  5
1E7
330
6C
100
AcDbEntity
  8
Visible (ISO)
100
AcDbEllipse
 10
278.853418280003
 20
343.986256685744
 30
0.0
 11
-29.29319081999154
 21
50.86844770172932
 31
0.0
210
0.0
220
0.0
230
1.0
 40
0.5780931159156393
 41
4.634097960949691
 42
4.794547416665752
  0
LINE
  5
1E8
330
6C
100
AcDbEntity
  8
Visible (ISO)
100
AcDbLine
 10
232.042949365456
 20
382.9784929947457
 30
0.0
 11
232.0429493654561
 21
384.5386897995755
 31
0.0
  0
LINE
  5
1E9
330
6C
100
AcDbEntity
  8
Visible (ISO)
100
AcDbLine
 10
290.5541538512044
 20
283.1944790233961
 30
0.0
 11
289.207453777697
 21
283.9699920184434
 31
0.0
  0
ELLIPSE
  5
1EA
330
6C
100
AcDbEntity
  8
Visible (ISO)
100
AcDbEllipse
 10
263.6506224844895
 20
335.2315488392108
 30
0.0
 11
29.29319081999198
 21
-50.86844770173008
 31
0.0
210
0.0
220
0.0
230
0.9999999999999998
 40
0.5780931159156396
 41
6.204894287744592
 42
6.365343743460647
  0
LINE
  5
1EB
330
6C
100
AcDbEntity
  8
Visible (ISO)
100
AcDbLine
 10
295.2582956035241
 20
348.1353929865354
 30
0.0
 11
295.2582956035241
 21
285.9244078788448
 31
0.0
  0
ELLIPSE
  5
1EC
330
6C
100
AcDbEntity
  8
Visible (ISO)
100
AcDbEllipse
 10
263.650622484491
 20
335.2315488392106
 30
0.0
 11
29.29319081999056
 21
-50.86844770172759
 31
0.0
210
0.0
220
0.0
230
1.0
 40
0.5780931159156396
 41
1.492505307359898
 42
1.652954763075962
  0
LINE
  5
1ED
330
6C
100
AcDbEntity
  8
Visible (ISO)
100
AcDbLine
 10
236.7470911177756
 20
387.268618655024
 30
0.0
 11
290.5541538512044
 21
356.2831919843192
 31
0.0
  0
ELLIPSE
  5
1EE
330
6C
100
AcDbEntity
  8
Visible (ISO)
100
AcDbEllipse
 10
263.6506224844906
 20
335.2315488392093
 30
0.0
 11
-29.29319081999198
 21
50.86844770173008
 31
0.0
210
0.0
220
0.0
230
0.9999999999999998
 40
0.5780931159156396
 41
6.204894287744593
 42
6.365343743460648
  0
SPLINE
  5
1EF
330
6C
100
AcDbEntity
  8
Visible (ISO)
100
AcDbSpline
210
0.0
220
0.0
230
1.0
 70
    24
 71
     3
 72
     8
 73
     4
 74
     0
 42
0.0000000001
 43
0.0000000001
 40
-0.043834872047128
 40
-0.043834872047128
 40
-0.043834872047128
 40
-0.043834872047128
 40
0.0
 40
0.0
 40
0.0
 40
0.0
 10
232.0429493654561
 20
384.5386897995755
 30
0.0
 10
232.0429493654561
 20
384.6502011534237
 30
0.0
 10
232.0429493654561
 20
384.7616798851216
 30
0.0
 10
232.0429493654561
 20
384.873124729726
 30
0.0
  0
SPLINE
  5
1F0
330
6C
100
AcDbEntity
  8
Visible (ISO)
100
AcDbSpline
210
0.0
220
0.0
230
1.0
 70
     8
 71
     3
 72
     8
 73
     4
 74
     0
 42
0.0000000001
 43
0.0000000001
 40
-0.0438348720439615
 40
-0.0438348720439615
 40
-0.0438348720439615
 40
-0.0438348720439615
 40
0.0
 40
0.0
 40
0.0
 40
0.0
 10
236.7470911177757
 20
387.268618655024
 30
0.0
 10
236.791778710843
 20
387.4060633153577
 30
0.0
 10
236.8365084539906
 20
387.5434998142666
 30
0.0
 10
236.8812793923859
 20
387.6809263326829
 30
0.0
  0
ELLIPSE
  5
1F1
330
6C
100
AcDbEntity
  8
Visible (ISO)
100
AcDbEllipse
 10
263.8627545188461
 20
335.3537075533477
 30
0.0
 11
-29.44290048346682
 21
51.12842273257296
 31
0.0
210
0.0
220
0.0
230
1.0
 40
0.5780931159156394
 41
6.203021229183673
 42
6.367216802021566
  0
SPLINE
  5
1F2
330
6C
100
AcDbEntity
  8
Visible (ISO)
100
AcDbSpline
210
0.0
220
0.0
230
1.0
 70
     8
 71
     3
 72
     8
 73
     4
 74
     0
 42
0.0000000001
 43
0.0000000001
 40
-0.0438348720438651
 40
-0.0438348720438651
 40
-0.0438348720438651
 40
-0.0438348720438651
 40
0.0
 40
0.0
 40
0.0
 40
0.0
 10
290.5541538512044
 20
356.2831919843192
 30
0.0
 10
290.6508743369463
 20
356.3906728945704
 30
0.0
 10
290.7475666343261
 20
356.4981861486117
 30
0.0
 10
290.8442296453062
 20
356.6057300098413
 30
0.0
  0
LINE
  5
1F3
330
6C
100
AcDbEntity
  8
Visible (ISO)
100
AcDbLine
 10
290.8442296453062
 20
356.6057300098413
 30
0.0
 11
236.8812793923859
 21
387.6809263326829
 31
0.0
  0
SPLINE
  5
1F4
330
6C
100
AcDbEntity
  8
Visible (ISO)
100
AcDbSpline
210
0.0
220
0.0
230
1.0
 70
     8
 71
     3
 72
     8
 73
     4
 74
     0
 42
0.0000000001
 43
0.0000000001
 40
-0.0438348720450676
 40
-0.0438348720450676
 40
-0.0438348720450676
 40
-0.0438348720450676
 40
0.0
 40
0.0
 40
0.0
 40
0.0
 10
295.2582956035241
 20
348.1353929865354
 30
0.0
 10
295.3997036823313
 20
348.1654728435913
 30
0.0
 10
295.5411257228568
 20
348.1955120384779
 30
0.0
 10
295.682559672236
 20
348.2255104884105
 30
0.0
  0
ELLIPSE
  5
1F5
330
6C
100
AcDbEntity
  8
Visible (ISO)
100
AcDbEllipse
 10
263.862754518846
 20
335.3537075533477
 30
0.0
 11
-29.44290048346681
 21
51.12842273257294
 31
0.0
210
0.0
220
0.0
230
1.0
 40
0.5780931159156396
 41
4.632224902388774
 42
4.796420475226668
  0
SPLINE
  5
1F6
330
6C
100
AcDbEntity
  8
Visible (ISO)
100
AcDbSpline
210
0.0
220
0.0
230
1.0
 70
     8
 71
     3
 72
     8
 73
     4
 74
     0
 42
0.0000000001
 43
0.0000000001
 40
-0.043834872047128
 40
-0.043834872047128
 40
-0.043834872047128
 40
-0.043834872047128
 40
0.0
 40
0.0
 40
0.0
 40
0.0
 10
295.2582956035241
 20
285.9244078788448
 30
0.0
 10
295.399703682328
 20
285.8943280217896
 30
0.0
 10
295.5411257228501
 20
285.8642888269036
 30
0.0
 10
295.682559672236
 20
285.8342903769695
 30
0.0
  0
LINE
  5
1F7
330
6C
100
AcDbEntity
  8
Visible (ISO)
100
AcDbLine
 10
295.682559672236
 20
285.8342903769695
 30
0.0
 11
295.682559672236
 21
348.2255104884105
 31
0.0
  0
SPLINE
  5
1F8
330
6C
100
AcDbEntity
  8
Visible (ISO)
100
AcDbSpline
210
0.0
220
0.0
230
1.0
 70
     8
 71
     3
 72
     8
 73
     4
 74
     0
 42
0.0000000001
 43
0.0000000001
 40
-0.0438348720439615
 40
-0.0438348720439615
 40
-0.0438348720439615
 40
-0.0438348720439615
 40
0.0
 40
0.0
 40
0.0
 40
0.0
 10
290.5541538512044
 20
283.1944790233961
 30
0.0
 10
290.6508743369461
 20
283.1384658598584
 30
0.0
 10
290.7475666343259
 20
283.0824688977644
 30
0.0
 10
290.8442296453062
 20
283.0264887740126
 30
0.0
  0
ELLIPSE
  5
1F9
330
6C
100
AcDbEntity
  8
Visible (ISO)
100
AcDbEllipse
 10
263.862754518846
 20
335.3537075533479
 30
0.0
 11
29.44290048346682
 21
-51.12842273257296
 31
0.0
210
0.0
220
0.0
230
1.0
 40
0.5780931159156394
 41
6.203021229183672
 42
6.367216802021565
  0
LINE
  5
1FA
330
6C
100
AcDbEntity
  8
Visible (ISO)
100
AcDbLine
 10
289.2083597570555
 20
283.9685235904516
 30
0.0
 11
290.8442296453062
 21
283.0264887740126
 31
0.0
  0
ELLIPSE
  5
1FB
330
6C
100
AcDbEntity
  8
Visible (ISO)
100
AcDbEllipse
 10
278.6412862456469
 20
343.8640979716066
 30
0.0
 11
29.44290048346694
 21
-51.12842273257317
 31
0.0
210
0.0
220
0.0
230
1.0
 40
0.5780931159156394
 41
0.0
 42
0.0840314948419803
  0
SPLINE
  5
1FC
330
6C
100
AcDbEntity
  8
Visible (ISO)
100
AcDbSpline
210
0.0
220
0.0
230
1.0
 70
    24
 71
     3
 72
     8
 73
     4
 74
     0
 42
0.0000000001
 43
0.0000000001
 40
-0.043834872047123
 40
-0.043834872047123
 40
-0.043834872047123
 40
-0.043834872047123
 40
0.0
 40
0.0
 40
0.0
 40
0.0
 10
310.4610913990371
 20
356.8901008330692
 30
0.0
 10
310.461091399037
 20
356.8387491933313
 30
0.0
 10
310.461091399037
 20
356.7873488514053
 30
0.0
 10
310.461091399037
 20
356.735900906669
 30
0.0
  0
LINE
  5
1FD
330
6C
100
AcDbEntity
  8
Visible (ISO)
100
AcDbLine
 10
310.461091399037
 20
356.735900906669
 30
0.0
 11
310.461091399037
 21
294.344680795228
 31
0.0
  0
SPLINE
  5
1FE
330
6C
100
AcDbEntity
  8
Visible (ISO)
100
AcDbSpline
210
0.0
220
0.0
230
1.0
 70
     8
 71
     3
 72
     8
 73
     4
 74
     0
 42
0.0000000001
 43
0.0000000001
 40
-0.043834872041644
 40
-0.043834872041644
 40
-0.043834872041644
 40
-0.043834872041644
 40
0.0
 40
0.0
 40
0.0
 40
0.0
 10
305.7569496467175
 20
365.0378998308531
 30
0.0
 10
305.7122620536489
 20
365.0639492443087
 30
0.0
 10
305.6675323105003
 20
365.0900229615358
 30
0.0
 10
305.6227613721071
 20
365.1161204280998
 30
0.0
  0
ELLIPSE
  5
1FF
330
6C
100
AcDbEntity
  8
Visible (ISO)
100
AcDbEllipse
 10
278.641286245647
 20
343.8640979716062
 30
0.0
 11
29.44290048346681
 21
-51.12842273257295
 31
0.0
210
0.0
220
0.0
230
0.9999999999999998
 40
0.5780931159156394
 41
1.490632248798984
 42
1.654827821636877
  0
LINE
  5
200
330
6C
100
AcDbEntity
  8
Visible (ISO)
100
AcDbLine
 10
251.659811119187
 20
396.1913167509414
 30
0.0
 11
305.6227613721071
 21
365.1161204280998
 31
0.0
  0
ELLIPSE
  5
201
330
6C
100
AcDbEntity
  8
Visible (ISO)
100
AcDbEllipse
 10
278.6412862456451
 20
343.8640979716099
 30
0.0
 11
-29.44290048346484
 21
51.12842273256926
 31
0.0
210
0.0
220
0.0
230
1.0
 40
0.5780931159156397
 41
6.203021229183651
 42
6.283185307179572
  0
LINE
  5
202
330
6C
100
AcDbEntity
  8
Visible (ISO)
100
AcDbLine
 10
310.461091399037
 20
294.344680795228
 30
0.0
 11
295.682559672236
 21
285.8342903769695
 31
0.0
  0
LINE
  5
203
330
6C
100
AcDbEntity
  8
Visible (ISO)
100
AcDbLine
 10
310.461091399037
 20
356.735900906669
 30
0.0
 11
295.682559672236
 21
348.2255104884105
 31
0.0
  0
LINE
  5
204
330
6C
100
AcDbEntity
  8
Visible (ISO)
100
AcDbLine
 10
305.6227613721071
 20
365.1161204280998
 30
0.0
 11
290.8442296453062
 21
356.6057300098413
 31
0.0
  0
LINE
  5
205
330
6C
100
AcDbEntity
  8
Visible (ISO)
100
AcDbLine
 10
251.659811119187
 20
396.1913167509414
 30
0.0
 11
236.8812793923859
 21
387.6809263326829
 31
0.0
  0
LINE
  5
206
330
6C
100
AcDbEntity
  8
Visible (ISO)
100
AcDbLine
 10
308.0841867291138
 20
292.7356752390334
 30
0.0
 11
293.3056550023128
 21
284.2252848207749
 31
0.0
  0
LINE
  5
207
330
6C
100
AcDbEntity
  8
Visible (ISO)
100
AcDbLine
 10
249.1983857621803
 20
394.9925207041791
 30
0.0
 11
234.4198540353793
 21
386.4821302859206
 31
0.0
  0
ELLIPSE
  5
208
330
6C
100
AcDbEntity
  8
Visible (ISO)
100
AcDbEllipse
 10
275.6714377646608
 20
370.8027380130042
 30
0.0
 11
-3.863999999999999
 21
0.0000000000002309
 31
0.0
210
0.0
220
0.0
230
1.0
 40
0.5758617009853117
 41
0.0
 42
6.283185307179586
  0
ELLIPSE
  5
209
330
6C
100
AcDbEntity
  8
Visible (ISO)
100
AcDbEllipse
 10
275.6714377646608
 20
369.9855897889539
 30
0.0
 11
-4.832765247622278
 21
0.0000000000000007
 31
0.0
210
0.0
220
0.0
230
1.0
 40
0.5758617009853114
 41
5.531721013547656
 42
10.1762422544013
  0
LINE
  5
20A
330
6C
100
AcDbEntity
  8
Visible (ISO)
100
AcDbLine
 10
278.4948237913821
 20
372.3218549963481
 30
0.0
 11
279.2026908367522
 21
371.8855731647761
 31
0.0
  0
LINE
  5
20B
330
6C
100
AcDbEntity
  8
Visible (ISO)
100
AcDbLine
 10
272.8480517379395
 20
372.3218549963481
 30
0.0
 11
272.1401846925695
 21
371.8855731647761
 31
0.0
  0
LINE
  5
20C
330
6C
100
AcDbEntity
  8
Visible (ISO)
100
AcDbLine
 10
272.8830500855346
 20
370.3724851159508
 30
0.0
 11
273.6301963123418
 21
371.9782107878588
 31
0.0
  0
LINE
  5
20D
330
6C
100
AcDbEntity
  8
Visible (ISO)
100
AcDbLine
 10
273.6301963123418
 20
371.9782107878588
 30
0.0
 11
276.4185839914679
 21
372.4084636849121
 31
0.0
  0
LINE
  5
20E
330
6C
100
AcDbEntity
  8
Visible (ISO)
100
AcDbLine
 10
276.4185839914679
 20
372.4084636849121
 30
0.0
 11
278.459825443787
 21
371.2329909100577
 31
0.0
  0
LINE
  5
20F
330
6C
100
AcDbEntity
  8
Visible (ISO)
100
AcDbLine
 10
278.459825443787
 20
371.2329909100577
 30
0.0
 11
277.7126792169799
 21
369.6272652381497
 31
0.0
  0
LINE
  5
210
330
6C
100
AcDbEntity
  8
Visible (ISO)
100
AcDbLine
 10
277.7126792169799
 20
369.6272652381497
 30
0.0
 11
274.9242915378537
 21
369.1970123410963
 31
0.0
  0
LINE
  5
211
330
6C
100
AcDbEntity
  8
Visible (ISO)
100
AcDbLine
 10
274.9242915378537
 20
369.1970123410963
 30
0.0
 11
272.8830500855346
 21
370.3724851159508
 31
0.0
  0
LINE
  5
212
330
6C
100
AcDbEntity
  8
Visible (ISO)
100
AcDbLine
 10
273.6301963123418
 20
369.9422322188968
 30
0.0
 11
273.6301963123418
 21
371.9782107878588
 31
0.0
  0
SPLINE
  5
213
330
6C
100
AcDbEntity
  8
Visible (ISO)
100
AcDbSpline
210
0.0
220
0.0
230
1.0
 70
    12
 71
     2
 72
     6
 73
     3
 74
     0
 42
0.0000000001
 43
0.0000000001
 40
0.0
 40
0.0
 40
0.0
 40
0.0581035144460574
 40
0.0581035144460574
 40
0.0581035144460574
 10
276.4185839914679
 20
369.5470487479633
 30
0.0
 41
1.0
 10
276.1079224297591
 20
369.4232089288717
 30
0.0
 41
1.0307715404329
 10
275.8244982346159
 20
369.3359157447114
 30
0.0
 41
1.04930152423602
  0
LINE
  5
214
330
6C
100
AcDbEntity
  8
Visible (ISO)
100
AcDbLine
 10
276.4185839914679
 20
369.5470487479633
 30
0.0
 11
276.4185839914679
 21
372.4084636849121
 31
0.0
  0
SPLINE
  5
215
330
6C
100
AcDbEntity
  8
Visible (ISO)
100
AcDbSpline
210
0.0
220
0.0
230
1.0
 70
    12
 71
     2
 72
     6
 73
     3
 74
     0
 42
0.0000000001
 43
0.0000000001
 40
0.2777031406804475
 40
0.2777031406804475
 40
0.2777031406804475
 40
0.2921090345194801
 40
0.2921090345194801
 40
0.2921090345194801
 10
276.532405747299
 20
369.4451470615967
 30
0.0
 41
1.014506172702379
 10
276.476264378684
 20
369.4945812882053
 30
0.0
 41
1.007629341339608
 10
276.4185839914679
 20
369.5470487479633
 30
0.0
 41
1.0
  0
LINE
  5
216
330
6C
100
AcDbEntity
  8
Visible (ISO)
100
AcDbLine
 10
270.839858686195
 20
369.9239321640558
 30
0.0
 11
270.8398434422671
 21
369.924330871573
 31
0.0
  0
LINE
  5
217
330
6C
100
AcDbEntity
  8
Visible (ISO)
100
AcDbLine
 10
280.5030168431266
 20
369.9239321640558
 30
0.0
 11
280.5030320870545
 21
369.924330871573
 31
0.0
  0
CIRCLE
  5
218
330
6C
100
AcDbEntity
  8
Visible Narrow (ISO)
100
AcDbCircle
 10
218.7499999999875
 20
154.6875
 30
0.0
 40
22.79289321881345
  0
CIRCLE
  5
219
330
6C
100
AcDbEntity
  8
Visible Narrow (ISO)
100
AcDbCircle
 10
218.7499999999876
 20
154.6875
 30
0.0
 40
23.14644660940672
  0
CIRCLE
  5
21A
330
6C
100
AcDbEntity
  8
Visible Narrow (ISO)
100
AcDbCircle
 10
218.7499999999878
 20
154.6875
 30
0.0
 40
24.12132034355964
  0
CIRCLE
  5
21B
330
6C
100
AcDbEntity
  8
Visible Narrow (ISO)
100
AcDbCircle
 10
218.7499999999881
 20
154.6875
 30
0.0
 40
26.24264068711929
  0
CIRCLE
  5
21C
330
6C
100
AcDbEntity
  8
Visible (ISO)
100
AcDbCircle
 10
218.7499999999875
 20
154.6875
 30
0.0
 40
20.57735026918962
  0
CIRCLE
  5
21D
330
6C
100
AcDbEntity
  8
Visible (ISO)
100
AcDbCircle
 10
218.7499999999878
 20
154.6875
 30
0.0
 40
20.0
  0
CIRCLE
  5
21E
330
6C
100
AcDbEntity
  8
Visible Narrow (ISO)
100
AcDbCircle
 10
218.7499999999881
 20
154.6875
 30
0.0
 40
34.50000000000001
  0
CIRCLE
  5
21F
330
6C
100
AcDbEntity
  8
Visible (ISO)
100
AcDbCircle
 10
218.749999999989
 20
154.6875
 30
0.0
 40
37.5
  0
CIRCLE
  5
220
330
6C
100
AcDbEntity
  8
Visible (ISO)
100
AcDbCircle
 10
178.0913600817664
 20
195.3461399182264
 30
0.0
 40
3.3235
  0
CIRCLE
  5
221
330
6C
100
AcDbEntity
  8
Visible (ISO)
100
AcDbCircle
 10
178.0913600817664
 20
114.0288600817735
 30
0.0
 40
3.3235
  0
CIRCLE
  5
222
330
6C
100
AcDbEntity
  8
Visible (ISO)
100
AcDbCircle
 10
259.4086399182194
 20
114.0288600817735
 30
0.0
 40
3.3235
  0
CIRCLE
  5
223
330
6C
100
AcDbEntity
  8
Visible Narrow (ISO)
100
AcDbCircle
 10
178.0913600817664
 20
195.3461399182264
 30
0.0
 40
4.0
  0
CIRCLE
  5
224
330
6C
100
AcDbEntity
  8
Visible Narrow (ISO)
100
AcDbCircle
 10
178.0913600817664
 20
114.0288600817735
 30
0.0
 40
4.0
  0
CIRCLE
  5
225
330
6C
100
AcDbEntity
  8
Visible Narrow (ISO)
100
AcDbCircle
 10
259.4086399182194
 20
114.0288600817735
 30
0.0
 40
4.0
  0
CIRCLE
  5
226
330
6C
100
AcDbEntity
  8
Visible (ISO)
100
AcDbCircle
 10
259.4086399182194
 20
195.3461399182264
 30
0.0
 40
3.3235
  0
CIRCLE
  5
227
330
6C
100
AcDbEntity
  8
Visible Narrow (ISO)
100
AcDbCircle
 10
218.7499999999914
 20
154.6875
 30
0.0
 40
40.5
  0
CIRCLE
  5
228
330
6C
100
AcDbEntity
  8
Visible (ISO)
100
AcDbCircle
 10
218.7499999999914
 20
154.6875
 30
0.0
 40
44.00000000000001
  0
CIRCLE
  5
229
330
6C
100
AcDbEntity
  8
Visible (ISO)
100
AcDbCircle
 10
218.7499999999917
 20
154.6875
 30
0.0
 40
45.0
  0
CIRCLE
  5
22A
330
6C
100
AcDbEntity
  8
Visible Narrow (ISO)
100
AcDbCircle
 10
218.7499999999928
 20
154.6875
 30
0.0
 40
45.4
  0
LINE
  5
22B
330
6C
100
AcDbEntity
  8
Visible (ISO)
100
AcDbLine
 10
175.7499999999928
 20
203.1875
 30
0.0
 11
261.7499999999928
 21
203.1875
 31
0.0
  0
ARC
  5
22C
330
6C
100
AcDbEntity
  8
Visible (ISO)
100
AcDbCircle
 10
175.7499999999928
 20
197.6875
 30
0.0
 40
5.49999999999998
100
AcDbArc
 50
90.0
 51
180.0
  0
LINE
  5
22D
330
6C
100
AcDbEntity
  8
Visible (ISO)
100
AcDbLine
 10
170.2499999999928
 20
111.6875
 30
0.0
 11
170.2499999999928
 21
197.6875
 31
0.0
  0
ARC
  5
22E
330
6C
100
AcDbEntity
  8
Visible (ISO)
100
AcDbCircle
 10
175.7499999999928
 20
111.6874999999999
 30
0.0
 40
5.49999999999998
100
AcDbArc
 50
180.0
 51
270.0000000000003
  0
LINE
  5
22F
330
6C
100
AcDbEntity
  8
Visible (ISO)
100
AcDbLine
 10
261.7499999999928
 20
106.1874999999999
 30
0.0
 11
175.7499999999928
 21
106.1874999999999
 31
0.0
  0
ARC
  5
230
330
6C
100
AcDbEntity
  8
Visible (ISO)
100
AcDbCircle
 10
261.7499999999929
 20
111.6874999999999
 30
0.0
 40
5.49999999999998
100
AcDbArc
 50
269.9999999999994
 51
0.0
  0
LINE
  5
231
330
6C
100
AcDbEntity
  8
Visible (ISO)
100
AcDbLine
 10
267.2499999999928
 20
197.6875
 30
0.0
 11
267.2499999999928
 21
111.6875
 31
0.0
  0
ARC
  5
232
330
6C
100
AcDbEntity
  8
Visible (ISO)
100
AcDbCircle
 10
261.7499999999929
 20
197.6875
 30
0.0
 40
5.49999999999998
100
AcDbArc
 50
0.0
 51
90.0
  0
LINE
  5
233
330
6C
100
AcDbEntity
  8
Visible Narrow (ISO)
100
AcDbLine
 10
175.749999999993
 20
203.6875
 30
0.0
 11
175.7499999999928
 21
203.1875
 31
0.0
  0
LINE
  5
234
330
6C
100
AcDbEntity
  8
Visible Narrow (ISO)
100
AcDbLine
 10
261.7499999999928
 20
203.1875
 30
0.0
 11
261.749999999993
 21
203.6875
 31
0.0
  0
LINE
  5
235
330
6C
100
AcDbEntity
  8
Visible (ISO)
100
AcDbLine
 10
261.749999999993
 20
203.6875
 30
0.0
 11
175.749999999993
 21
203.6875
 31
0.0
  0
LINE
  5
236
330
6C
100
AcDbEntity
  8
Visible Narrow (ISO)
100
AcDbLine
 10
267.2499999999928
 20
197.6875
 30
0.0
 11
267.749999999993
 21
197.6875
 31
0.0
  0
ARC
  5
237
330
6C
100
AcDbEntity
  8
Visible (ISO)
100
AcDbCircle
 10
261.749999999993
 20
197.6875
 30
0.0
 40
5.999999999999996
100
AcDbArc
 50
0.0
 51
90.0
  0
LINE
  5
238
330
6C
100
AcDbEntity
  8
Visible Narrow (ISO)
100
AcDbLine
 10
267.2499999999928
 20
111.6875
 30
0.0
 11
267.749999999993
 21
111.6875
 31
0.0
  0
LINE
  5
239
330
6C
100
AcDbEntity
  8
Visible (ISO)
100
AcDbLine
 10
267.749999999993
 20
111.6875
 30
0.0
 11
267.749999999993
 21
197.6875
 31
0.0
  0
LINE
  5
23A
330
6C
100
AcDbEntity
  8
Visible Narrow (ISO)
100
AcDbLine
 10
261.7499999999928
 20
106.1874999999999
 30
0.0
 11
261.749999999993
 21
105.6875
 31
0.0
  0
ARC
  5
23B
330
6C
100
AcDbEntity
  8
Visible (ISO)
100
AcDbCircle
 10
261.749999999993
 20
111.6875
 30
0.0
 40
5.999999999999996
100
AcDbArc
 50
270.0
 51
0.0
  0
LINE
  5
23C
330
6C
100
AcDbEntity
  8
Visible Narrow (ISO)
100
AcDbLine
 10
175.7499999999928
 20
106.1874999999999
 30
0.0
 11
175.749999999993
 21
105.6875
 31
0.0
  0
LINE
  5
23D
330
6C
100
AcDbEntity
  8
Visible (ISO)
100
AcDbLine
 10
175.749999999993
 20
105.6875
 30
0.0
 11
261.749999999993
 21
105.6875
 31
0.0
  0
LINE
  5
23E
330
6C
100
AcDbEntity
  8
Visible Narrow (ISO)
100
AcDbLine
 10
170.2499999999928
 20
111.6875
 30
0.0
 11
169.749999999993
 21
111.6875
 31
0.0
  0
ARC
  5
23F
330
6C
100
AcDbEntity
  8
Visible (ISO)
100
AcDbCircle
 10
175.749999999993
 20
111.6875
 30
0.0
 40
5.999999999999996
100
AcDbArc
 50
180.0
 51
270.0
  0
LINE
  5
240
330
6C
100
AcDbEntity
  8
Visible Narrow (ISO)
100
AcDbLine
 10
170.2499999999928
 20
197.6875
 30
0.0
 11
169.749999999993
 21
197.6875
 31
0.0
  0
LINE
  5
241
330
6C
100
AcDbEntity
  8
Visible (ISO)
100
AcDbLine
 10
169.749999999993
 20
197.6875
 30
0.0
 11
169.749999999993
 21
111.6875
 31
0.0
  0
ARC
  5
242
330
6C
100
AcDbEntity
  8
Visible (ISO)
100
AcDbCircle
 10
175.749999999993
 20
197.6875
 30
0.0
 40
5.999999999999996
100
AcDbArc
 50
90.0
 51
180.0
  0
CIRCLE
  5
243
330
6C
100
AcDbEntity
  8
Visible Narrow (ISO)
100
AcDbCircle
 10
259.4086399182194
 20
195.3461399182264
 30
0.0
 40
4.0
  0
CIRCLE
  5
244
330
6C
100
AcDbEntity
  8
Visible (ISO)
100
AcDbCircle
 10
218.7499999999875
 20
154.6875
 30
0.0
 40
14.57735026918963
  0
CIRCLE
  5
245
330
6C
100
AcDbEntity
  8
Visible (ISO)
100
AcDbCircle
 10
218.7499999999875
 20
154.6875
 30
0.0
 40
19.42264973081037
  0
CIRCLE
  5
246
330
6C
100
AcDbEntity
  8
Visible (ISO)
100
AcDbCircle
 10
218.7499999999878
 20
154.6875
 30
0.0
 40
20.0
  0
CIRCLE
  5
247
330
6C
100
AcDbEntity
  8
Visible (ISO)
100
AcDbCircle
 10
218.7499999999747
 20
154.6875
 30
0.0
 40
5.000000000000002
  0
CIRCLE
  5
248
330
6C
100
AcDbEntity
  8
Visible (ISO)
100
AcDbCircle
 10
218.7499999999756
 20
154.6875
 30
0.0
 40
3.3235
  0
CIRCLE
  5
249
330
6C
100
AcDbEntity
  8
Visible Narrow (ISO)
100
AcDbCircle
 10
218.7499999999866
 20
154.6875
 30
0.0
 40
12.8
  0
CIRCLE
  5
24A
330
6C
100
AcDbEntity
  8
Visible (ISO)
100
AcDbCircle
 10
218.7499999999866
 20
154.6875
 30
0.0
 40
13.6360297657338
  0
CIRCLE
  5
24B
330
6C
100
AcDbEntity
  8
Visible (ISO)
100
AcDbCircle
 10
218.7499999999869
 20
154.6875
 30
0.0
 40
14.0
  0
CIRCLE
  5
24C
330
6C
100
AcDbEntity
  8
Visible (ISO)
100
AcDbCircle
 10
218.749999999975
 20
154.6875
 30
0.0
 40
12.0
  0
CIRCLE
  5
24D
330
6C
100
AcDbEntity
  8
Visible Narrow (ISO)
100
AcDbCircle
 10
218.7499999999747
 20
154.6875
 30
0.0
 40
11.0
  0
CIRCLE
  5
24E
330
6C
100
AcDbEntity
  8
Visible Narrow (ISO)
100
AcDbCircle
 10
218.7499999999753
 20
154.6875
 30
0.0
 40
4.0
  0
LINE
  5
24F
330
6C
100
AcDbEntity
  8
Visible (ISO)
100
AcDbLine
 10
395.4990692765507
 20
286.5821067811865
 30
0.0
 11
395.4990692765507
 21
332.1678932188135
 31
0.0
  0
LINE
  5
250
330
6C
100
AcDbEntity
  8
Visible Narrow (ISO)
100
AcDbLine
 10
395.6455158859574
 20
332.5214466094067
 30
0.0
 11
395.6455158859574
 21
286.2285533905932
 31
0.0
  0
ARC
  5
251
330
6C
100
AcDbEntity
  8
Visible (ISO)
100
AcDbCircle
 10
395.9990692765507
 20
286.5821067811865
 30
0.0
 40
0.5000000000000001
100
AcDbArc
 50
180.0
 51
225.0
  0
ARC
  5
252
330
6C
100
AcDbEntity
  8
Visible (ISO)
100
AcDbCircle
 10
395.9990692765507
 20
332.1678932188135
 30
0.0
 40
0.5000000000000001
100
AcDbArc
 50
135.0
 51
180.0
  0
LINE
  5
253
330
6C
100
AcDbEntity
  8
Visible Narrow (ISO)
100
AcDbLine
 10
396.6203896201103
 20
285.2536796564404
 30
0.0
 11
396.6203896201103
 21
333.4963203435596
 31
0.0
  0
ARC
  5
254
330
6C
100
AcDbEntity
  8
Visible (ISO)
100
AcDbCircle
 10
394.4990692765507
 20
283.1323593128807
 30
0.0
 40
3.0
100
AcDbArc
 50
0.0
 51
45.0
  0
ARC
  5
255
330
6C
100
AcDbEntity
  8
Visible (ISO)
100
AcDbCircle
 10
394.4990692765507
 20
335.6176406871193
 30
0.0
 40
3.0
100
AcDbArc
 50
315.0
 51
0.0
  0
LINE
  5
256
330
6C
100
AcDbEntity
  8
Visible (ISO)
100
AcDbLine
 10
397.4990692765507
 20
274.8749999999999
 30
0.0
 11
397.4990692765507
 21
343.875
 31
0.0
  0
LINE
  5
257
330
6C
100
AcDbEntity
  8
Visible Narrow (ISO)
100
AcDbLine
 10
400.4990692765507
 20
346.875
 30
0.0
 11
400.4990692765507
 21
271.875
 31
0.0
  0
ARC
  5
258
330
6C
100
AcDbEntity
  8
Visible (ISO)
100
AcDbCircle
 10
400.4990692765507
 20
274.8749999999999
 30
0.0
 40
3.0
100
AcDbArc
 50
180.0
 51
270.0
  0
ARC
  5
259
330
6C
100
AcDbEntity
  8
Visible (ISO)
100
AcDbCircle
 10
400.4990692765507
 20
343.875
 30
0.0
 40
3.0
100
AcDbArc
 50
90.0
 51
180.0
  0
LINE
  5
25A
330
6C
100
AcDbEntity
  8
Visible Narrow (ISO)
100
AcDbLine
 10
405.4990692765507
 20
271.875
 30
0.0
 11
405.4990692765507
 21
346.875
 31
0.0
  0
ARC
  5
25B
330
6C
100
AcDbEntity
  8
Visible (ISO)
100
AcDbCircle
 10
405.4990692765507
 20
268.8749999999999
 30
0.0
 40
3.0
100
AcDbArc
 50
0.0
 51
90.0
  0
ARC
  5
25C
330
6C
100
AcDbEntity
  8
Visible (ISO)
100
AcDbCircle
 10
405.4990692765507
 20
349.875
 30
0.0
 40
3.0
100
AcDbArc
 50
270.0
 51
0.0
  0
LINE
  5
25D
330
6C
100
AcDbEntity
  8
Visible (ISO)
100
AcDbLine
 10
408.4990692765507
 20
265.375
 30
0.0
 11
408.4990692765507
 21
353.3749999999999
 31
0.0
  0
LINE
  5
25E
330
6C
100
AcDbEntity
  8
Visible (ISO)
100
AcDbLine
 10
409.4990692765507
 20
354.3749999999999
 30
0.0
 11
409.4990692765507
 21
264.375
 31
0.0
  0
LINE
  5
25F
330
6C
100
AcDbEntity
  8
Visible (ISO)
100
AcDbLine
 10
408.4990692765507
 20
353.3749999999999
 30
0.0
 11
409.4990692765507
 21
354.3749999999999
 31
0.0
  0
LINE
  5
260
330
6C
100
AcDbEntity
  8
Visible (ISO)
100
AcDbLine
 10
408.4990692765507
 20
265.375
 30
0.0
 11
409.4990692765507
 21
264.375
 31
0.0
  0
LINE
  5
261
330
6C
100
AcDbEntity
  8
Visible Narrow (ISO)
100
AcDbLine
 10
413.0990692765506
 20
264.375
 30
0.0
 11
413.0990692765506
 21
354.3749999999999
 31
0.0
  0
ARC
  5
262
330
6C
100
AcDbEntity
  8
Visible (ISO)
100
AcDbCircle
 10
413.0990692765506
 20
263.975
 30
0.0
 40
0.4000000000000002
100
AcDbArc
 50
0.0
 51
90.0
  0
ARC
  5
263
330
6C
100
AcDbEntity
  8
Visible (ISO)
100
AcDbCircle
 10
413.0990692765506
 20
354.775
 30
0.0
 40
0.4000000000000002
100
AcDbArc
 50
270.0
 51
0.0
  0
LINE
  5
264
330
6C
100
AcDbEntity
  8
Visible (ISO)
100
AcDbLine
 10
413.4990692765507
 20
352.3750000000144
 30
0.0
 11
413.4990692765507
 21
266.3750000000143
 31
0.0
  0
LINE
  5
265
330
6C
100
AcDbEntity
  8
Visible (ISO)
100
AcDbLine
 10
413.4990692765507
 20
352.3750000000144
 30
0.0
 11
413.4990692765507
 21
357.8750000000128
 31
0.0
  0
LINE
  5
266
330
6C
100
AcDbEntity
  8
Visible (ISO)
100
AcDbLine
 10
413.4990692765507
 20
260.8750000000128
 30
0.0
 11
413.4990692765507
 21
266.3750000000144
 31
0.0
  0
LINE
  5
267
330
6C
100
AcDbEntity
  8
Visible Narrow (ISO)
100
AcDbLine
 10
413.9990692765507
 20
352.3750000000145
 30
0.0
 11
413.4990692765507
 21
352.3750000000144
 31
0.0
  0
LINE
  5
268
330
6C
100
AcDbEntity
  8
Visible Narrow (ISO)
100
AcDbLine
 10
413.4990692765507
 20
266.3750000000143
 30
0.0
 11
413.9990692765507
 21
266.3750000000145
 31
0.0
  0
LINE
  5
269
330
6C
100
AcDbEntity
  8
Visible (ISO)
100
AcDbLine
 10
413.9990692765507
 20
266.3750000000145
 30
0.0
 11
413.9990692765507
 21
352.3750000000145
 31
0.0
  0
LINE
  5
26A
330
6C
100
AcDbEntity
  8
Visible (ISO)
100
AcDbLine
 10
413.4990692765507
 20
260.8750000000128
 30
0.0
 11
413.9990692765507
 21
260.3750000000127
 31
0.0
  0
LINE
  5
26B
330
6C
100
AcDbEntity
  8
Visible (ISO)
100
AcDbLine
 10
413.9990692765507
 20
266.3750000000145
 30
0.0
 11
413.9990692765507
 21
260.3750000000127
 31
0.0
  0
LINE
  5
26C
330
6C
100
AcDbEntity
  8
Visible (ISO)
100
AcDbLine
 10
413.4990692765507
 20
357.8750000000127
 30
0.0
 11
413.9990692765507
 21
358.3750000000127
 31
0.0
  0
LINE
  5
26D
330
6C
100
AcDbEntity
  8
Visible (ISO)
100
AcDbLine
 10
413.9990692765507
 20
358.3750000000127
 30
0.0
 11
413.9990692765507
 21
352.3750000000145
 31
0.0
  0
LINE
  5
26E
330
6C
100
AcDbEntity
  8
Visible (ISO)
100
AcDbLine
 10
454.6990692765507
 20
358.3750000000127
 30
0.0
 11
413.9990692765507
 21
358.3750000000127
 31
0.0
  0
LINE
  5
26F
330
6C
100
AcDbEntity
  8
Visible Narrow (ISO)
100
AcDbLine
 10
454.6990692765507
 20
352.3750000000145
 30
0.0
 11
413.9990692765507
 21
352.3750000000145
 31
0.0
  0
LINE
  5
270
330
6C
100
AcDbEntity
  8
Visible Narrow (ISO)
100
AcDbLine
 10
454.6990692765507
 20
266.3750000000145
 30
0.0
 11
413.9990692765507
 21
266.3750000000145
 31
0.0
  0
LINE
  5
271
330
6C
100
AcDbEntity
  8
Visible (ISO)
100
AcDbLine
 10
454.6990692765507
 20
260.3750000000127
 30
0.0
 11
413.9990692765507
 21
260.3750000000127
 31
0.0
  0
LINE
  5
272
330
6C
100
AcDbEntity
  8
Visible (ISO)
100
AcDbLine
 10
454.6990692765507
 20
352.3750000000145
 30
0.0
 11
454.6990692765507
 21
358.3750000000127
 31
0.0
  0
LINE
  5
273
330
6C
100
AcDbEntity
  8
Visible (ISO)
100
AcDbLine
 10
454.6990692765507
 20
352.3750000000145
 30
0.0
 11
454.6990692765507
 21
266.3750000000145
 31
0.0
  0
LINE
  5
274
330
6C
100
AcDbEntity
  8
Visible Narrow (ISO)
100
AcDbLine
 10
454.6990692765507
 20
266.3750000000145
 30
0.0
 11
454.9990692765507
 21
266.3750000000145
 31
0.0
  0
LINE
  5
275
330
6C
100
AcDbEntity
  8
Visible (ISO)
100
AcDbLine
 10
454.9990692765507
 20
266.3750000000145
 30
0.0
 11
454.9990692765507
 21
352.3750000000144
 31
0.0
  0
LINE
  5
276
330
6C
100
AcDbEntity
  8
Visible Narrow (ISO)
100
AcDbLine
 10
454.9990692765507
 20
352.3750000000144
 30
0.0
 11
454.6990692765507
 21
352.3750000000145
 31
0.0
  0
LINE
  5
277
330
6C
100
AcDbEntity
  8
Visible (ISO)
100
AcDbLine
 10
454.9990692765507
 20
358.0750000000128
 30
0.0
 11
454.6990692765507
 21
358.3750000000127
 31
0.0
  0
LINE
  5
278
330
6C
100
AcDbEntity
  8
Visible (ISO)
100
AcDbLine
 10
454.9990692765507
 20
358.0750000000127
 30
0.0
 11
454.9990692765507
 21
352.3750000000144
 31
0.0
  0
LINE
  5
279
330
6C
100
AcDbEntity
  8
Visible (ISO)
100
AcDbLine
 10
454.9990692765507
 20
260.6750000000127
 30
0.0
 11
454.6990692765507
 21
260.3750000000127
 31
0.0
  0
LINE
  5
27A
330
6C
100
AcDbEntity
  8
Visible (ISO)
100
AcDbLine
 10
454.6990692765507
 20
260.3750000000127
 30
0.0
 11
454.6990692765507
 21
266.3750000000145
 31
0.0
  0
LINE
  5
27B
330
6C
100
AcDbEntity
  8
Visible (ISO)
100
AcDbLine
 10
454.9990692765507
 20
266.3750000000144
 30
0.0
 11
454.9990692765507
 21
260.6750000000127
 31
0.0
  0
LINE
  5
27C
330
6C
100
AcDbEntity
  8
Visible (ISO)
100
AcDbLine
 10
395.6455158859574
 20
332.5214466094067
 30
0.0
 11
396.6203896201103
 21
333.4963203435596
 31
0.0
  0
LINE
  5
27D
330
6C
100
AcDbEntity
  8
Visible (ISO)
100
AcDbLine
 10
395.6455158859574
 20
286.2285533905932
 30
0.0
 11
396.6203896201103
 21
285.2536796564404
 31
0.0
  0
LINE
  5
27E
330
6C
100
AcDbEntity
  8
Visible (ISO)
100
AcDbLine
 10
405.4990692765507
 20
271.875
 30
0.0
 11
400.4990692765507
 21
271.875
 31
0.0
  0
LINE
  5
27F
330
6C
100
AcDbEntity
  8
Visible (ISO)
100
AcDbLine
 10
405.4990692765506
 20
346.875
 30
0.0
 11
400.4990692765507
 21
346.875
 31
0.0
  0
LINE
  5
280
330
6C
100
AcDbEntity
  8
Visible (ISO)
100
AcDbLine
 10
413.0990692765506
 20
264.375
 30
0.0
 11
409.4990692765507
 21
264.375
 31
0.0
  0
LINE
  5
281
330
6C
100
AcDbEntity
  8
Visible (ISO)
100
AcDbLine
 10
413.0990692765506
 20
354.3749999999999
 30
0.0
 11
409.4990692765507
 21
354.3749999999999
 31
0.0
  0
LINE
  5
282
330
6C
100
AcDbEntity
  8
Visible Narrow (ISO)
100
AcDbLine
 10
391.6990692765507
 20
297.3749999999999
 30
0.0
 11
391.6990692765507
 21
321.375
 31
0.0
  0
ARC
  5
283
330
6C
100
AcDbEntity
  8
Visible (ISO)
100
AcDbCircle
 10
391.6990692765507
 20
296.575
 30
0.0
 40
0.8000000000000003
100
AcDbArc
 50
0.0
 51
90.0
  0
ARC
  5
284
330
6C
100
AcDbEntity
  8
Visible (ISO)
100
AcDbCircle
 10
391.6990692765507
 20
322.175
 30
0.0
 40
0.8000000000000003
100
AcDbArc
 50
270.0
 51
0.0
  0
LINE
  5
285
330
6C
100
AcDbEntity
  8
Visible (ISO)
100
AcDbLine
 10
392.4990692765507
 20
295.7389702342662
 30
0.0
 11
392.4990692765507
 21
323.0110297657338
 31
0.0
  0
LINE
  5
286
330
6C
100
AcDbEntity
  8
Visible (ISO)
100
AcDbLine
 10
393.4990692765507
 20
323.375
 30
0.0
 11
393.4990692765507
 21
295.3749999999999
 31
0.0
  0
LINE
  5
287
330
6C
100
AcDbEntity
  8
Visible (ISO)
100
AcDbLine
 10
392.4990692765507
 20
323.0110297657338
 30
0.0
 11
393.4990692765507
 21
323.375
 31
0.0
  0
LINE
  5
288
330
6C
100
AcDbEntity
  8
Visible (ISO)
100
AcDbLine
 10
392.4990692765507
 20
295.7389702342662
 30
0.0
 11
393.4990692765507
 21
295.3749999999999
 31
0.0
  0
LINE
  5
289
330
6C
100
AcDbEntity
  8
Visible Narrow (ISO)
100
AcDbLine
 10
353.4990692765508
 20
321.375
 30
0.0
 11
353.4990692765508
 21
297.3749999999999
 31
0.0
  0
LINE
  5
28A
330
6C
100
AcDbEntity
  8
Visible (ISO)
100
AcDbLine
 10
352.4990692765507
 20
298.375
 30
0.0
 11
352.4990692765507
 21
320.375
 31
0.0
  0
ARC
  5
28B
330
6C
100
AcDbEntity
  8
Visible (ISO)
100
AcDbCircle
 10
353.4990692765508
 20
298.375
 30
0.0
 40
1.0
100
AcDbArc
 50
180.0
 51
270.0
  0
ARC
  5
28C
330
6C
100
AcDbEntity
  8
Visible (ISO)
100
AcDbCircle
 10
353.4990692765508
 20
320.375
 30
0.0
 40
1.0
100
AcDbArc
 50
90.0
 51
180.0
  0
LINE
  5
28D
330
6C
100
AcDbEntity
  8
Visible (ISO)
100
AcDbLine
 10
391.6990692765507
 20
297.3749999999999
 30
0.0
 11
353.4990692765508
 21
297.3749999999999
 31
0.0
  0
LINE
  5
28E
330
6C
100
AcDbEntity
  8
Visible (ISO)
100
AcDbLine
 10
391.6990692765507
 20
321.375
 30
0.0
 11
353.4990692765508
 21
321.375
 31
0.0
  0
LINE
  5
28F
330
6C
100
AcDbEntity
  8
Visible (ISO)
100
AcDbLine
 10
395.4990692765507
 20
295.3749999999999
 30
0.0
 11
393.4990692765507
 21
295.3749999999999
 31
0.0
  0
LINE
  5
290
330
6C
100
AcDbEntity
  8
Visible (ISO)
100
AcDbLine
 10
395.4990692765507
 20
323.375
 30
0.0
 11
393.4990692765507
 21
323.375
 31
0.0
  0
LINE
  5
291
330
6C
100
AcDbEntity
  8
Visible Narrow (ISO)
100
AcDbLine
 10
484.4990692765507
 20
352.3750000000142
 30
0.0
 11
483.4990692765507
 21
352.3750000000145
 31
0.0
  0
LINE
  5
292
330
6C
100
AcDbEntity
  8
Visible (ISO)
100
AcDbLine
 10
484.4990692765507
 20
357.3750000000128
 30
0.0
 11
484.4990692765507
 21
352.3750000000143
 31
0.0
  0
ARC
  5
293
330
6C
100
AcDbEntity
  8
Visible (ISO)
100
AcDbCircle
 10
483.4990692765507
 20
357.3750000000127
 30
0.0
 40
1.000000000000007
100
AcDbArc
 50
0.0
 51
90.0
  0
LINE
  5
294
330
6C
100
AcDbEntity
  8
Visible Narrow (ISO)
100
AcDbLine
 10
483.4990692765507
 20
352.3750000000145
 30
0.0
 11
483.4990692765507
 21
358.3750000000128
 31
0.0
  0
ARC
  5
295
330
6C
100
AcDbEntity
  8
Visible (ISO)
100
AcDbCircle
 10
483.4990692765507
 20
261.3750000000127
 30
0.0
 40
1.000000000000007
100
AcDbArc
 50
270.0
 51
0.0
  0
LINE
  5
296
330
6C
100
AcDbEntity
  8
Visible Narrow (ISO)
100
AcDbLine
 10
483.4990692765507
 20
266.3750000000145
 30
0.0
 11
484.4990692765507
 21
266.3750000000142
 31
0.0
  0
LINE
  5
297
330
6C
100
AcDbEntity
  8
Visible Narrow (ISO)
100
AcDbLine
 10
483.4990692765507
 20
260.3750000000127
 30
0.0
 11
483.4990692765507
 21
266.3750000000145
 31
0.0
  0
LINE
  5
298
330
6C
100
AcDbEntity
  8
Visible (ISO)
100
AcDbLine
 10
484.4990692765507
 20
266.3750000000142
 30
0.0
 11
484.4990692765507
 21
261.3750000000127
 31
0.0
  0
LINE
  5
299
330
6C
100
AcDbEntity
  8
Visible Narrow (ISO)
100
AcDbLine
 10
483.4990692765507
 20
352.3750000000145
 30
0.0
 11
483.4990692765507
 21
266.3750000000145
 31
0.0
  0
LINE
  5
29A
330
6C
100
AcDbEntity
  8
Visible (ISO)
100
AcDbLine
 10
484.4990692765507
 20
266.3750000000142
 30
0.0
 11
484.4990692765507
 21
352.3750000000142
 31
0.0
  0
LINE
  5
29B
330
6C
100
AcDbEntity
  8
Visible (ISO)
100
AcDbLine
 10
483.4990692765507
 20
260.3750000000127
 30
0.0
 11
455.2990692765507
 21
260.3750000000127
 31
0.0
  0
LINE
  5
29C
330
6C
100
AcDbEntity
  8
Visible Narrow (ISO)
100
AcDbLine
 10
483.4990692765507
 20
266.3750000000145
 30
0.0
 11
455.2990692765507
 21
266.3750000000145
 31
0.0
  0
LINE
  5
29D
330
6C
100
AcDbEntity
  8
Visible Narrow (ISO)
100
AcDbLine
 10
483.4990692765507
 20
352.3750000000145
 30
0.0
 11
455.2990692765507
 21
352.3750000000145
 31
0.0
  0
LINE
  5
29E
330
6C
100
AcDbEntity
  8
Visible (ISO)
100
AcDbLine
 10
483.4990692765507
 20
358.3750000000127
 30
0.0
 11
455.2990692765507
 21
358.3750000000127
 31
0.0
  0
LINE
  5
29F
330
6C
100
AcDbEntity
  8
Visible (ISO)
100
AcDbLine
 10
455.2990692765507
 20
266.3750000000145
 30
0.0
 11
455.2990692765507
 21
260.3750000000127
 31
0.0
  0
LINE
  5
2A0
330
6C
100
AcDbEntity
  8
Visible (ISO)
100
AcDbLine
 10
455.2990692765507
 20
266.3750000000145
 30
0.0
 11
455.2990692765507
 21
352.3750000000145
 31
0.0
  0
LINE
  5
2A1
330
6C
100
AcDbEntity
  8
Visible (ISO)
100
AcDbLine
 10
455.2990692765507
 20
358.3750000000128
 30
0.0
 11
455.2990692765507
 21
352.3750000000145
 31
0.0
  0
LINE
  5
2A2
330
6C
100
AcDbEntity
  8
Visible (ISO)
100
AcDbLine
 10
500.6990692765508
 20
276.8749999999999
 30
0.0
 11
500.6990692765508
 21
341.875
 31
0.0
  0
LINE
  5
2A3
330
6C
100
AcDbEntity
  8
Visible (ISO)
100
AcDbLine
 10
455.2990692765507
 20
260.3750000000127
 30
0.0
 11
454.9990692765507
 21
260.6750000000127
 31
0.0
  0
LINE
  5
2A4
330
6C
100
AcDbEntity
  8
Visible (ISO)
100
AcDbLine
 10
454.9990692765507
 20
358.0750000000128
 30
0.0
 11
455.2990692765507
 21
358.3750000000127
 31
0.0
  0
LINE
  5
2A5
330
6C
100
AcDbEntity
  8
Visible Narrow (ISO)
100
AcDbLine
 10
454.9990692765507
 20
352.3750000000144
 30
0.0
 11
455.2990692765507
 21
352.3750000000145
 31
0.0
  0
LINE
  5
2A6
330
6C
100
AcDbEntity
  8
Visible (ISO)
100
AcDbLine
 10
454.9990692765507
 20
352.3750000000144
 30
0.0
 11
454.9990692765507
 21
358.0750000000128
 31
0.0
  0
LINE
  5
2A7
330
6C
100
AcDbEntity
  8
Visible Narrow (ISO)
100
AcDbLine
 10
454.9990692765507
 20
266.3750000000144
 30
0.0
 11
455.2990692765507
 21
266.3750000000145
 31
0.0
  0
LINE
  5
2A8
330
6C
100
AcDbEntity
  8
Visible (ISO)
100
AcDbLine
 10
454.9990692765507
 20
352.3750000000144
 30
0.0
 11
454.9990692765507
 21
266.3750000000144
 31
0.0
  0
LINE
  5
2A9
330
6C
100
AcDbEntity
  8
Visible (ISO)
100
AcDbLine
 10
454.9990692765507
 20
260.6750000000127
 30
0.0
 11
454.9990692765507
 21
266.3750000000144
 31
0.0
  0
LINE
  5
2AA
330
6C
100
AcDbEntity
  8
Visible (ISO)
100
AcDbLine
 10
500.9990692765507
 20
277.1749999999999
 30
0.0
 11
500.6990692765508
 21
276.8749999999999
 31
0.0
  0
LINE
  5
2AB
330
6C
100
AcDbEntity
  8
Visible (ISO)
100
AcDbLine
 10
500.9990692765507
 20
341.575
 30
0.0
 11
500.6990692765508
 21
341.875
 31
0.0
  0
LINE
  5
2AC
330
6C
100
AcDbEntity
  8
Visible Narrow (ISO)
100
AcDbLine
 10
487.4990692765507
 20
341.875
 30
0.0
 11
487.4990692765507
 21
276.8749999999999
 31
0.0
  0
ARC
  5
2AD
330
6C
100
AcDbEntity
  8
Visible (ISO)
100
AcDbCircle
 10
487.4990692765507
 20
273.875
 30
0.0
 40
3.0
100
AcDbArc
 50
90.0
 51
153.4409425194833
  0
ARC
  5
2AE
330
6C
100
AcDbEntity
  8
Visible (ISO)
100
AcDbCircle
 10
487.4990692765507
 20
344.875
 30
0.0
 40
3.0
100
AcDbArc
 50
206.5590574805181
 51
270.0
  0
LINE
  5
2AF
330
6C
100
AcDbEntity
  8
Visible (ISO)
100
AcDbLine
 10
500.6990692765508
 20
276.8749999999999
 30
0.0
 11
487.4990692765507
 21
276.8749999999999
 31
0.0
  0
LINE
  5
2B0
330
6C
100
AcDbEntity
  8
Visible (ISO)
100
AcDbLine
 10
500.6990692765508
 20
341.875
 30
0.0
 11
487.4990692765507
 21
341.875
 31
0.0
  0
LINE
  5
2B1
330
6C
100
AcDbEntity
  8
Visible (ISO)
100
AcDbLine
 10
492.4990692765507
 20
355.7336399182385
 30
0.0
 11
492.4990692765507
 21
344.3336399182385
 31
0.0
  0
LINE
  5
2B2
330
6C
100
AcDbEntity
  8
Visible Narrow (ISO)
100
AcDbLine
 10
491.6990692765507
 20
343.5336399182385
 30
0.0
 11
491.6990692765507
 21
356.5336399182385
 31
0.0
  0
ARC
  5
2B3
330
6C
100
AcDbEntity
  8
Visible (ISO)
100
AcDbCircle
 10
491.6990692765507
 20
355.7336399182385
 30
0.0
 40
0.8000000000000003
100
AcDbArc
 50
0.0
 51
90.0
  0
ARC
  5
2B4
330
6C
100
AcDbEntity
  8
Visible (ISO)
100
AcDbCircle
 10
491.6990692765507
 20
344.3336399182385
 30
0.0
 40
0.8000000000000003
100
AcDbArc
 50
270.0
 51
0.0
  0
LINE
  5
2B5
330
6C
100
AcDbEntity
  8
Visible (ISO)
100
AcDbLine
 10
491.6990692765507
 20
343.5336399182385
 30
0.0
 11
484.4990692765507
 21
343.5336399182385
 31
0.0
  0
LINE
  5
2B6
330
6C
100
AcDbEntity
  8
Visible (ISO)
100
AcDbLine
 10
491.6990692765507
 20
356.5336399182385
 30
0.0
 11
484.4990692765507
 21
356.5336399182385
 31
0.0
  0
LINE
  5
2B7
330
6C
100
AcDbEntity
  8
Visible (ISO)
100
AcDbLine
 10
492.4990692765507
 20
274.4163600817855
 30
0.0
 11
492.4990692765507
 21
263.0163600817855
 31
0.0
  0
LINE
  5
2B8
330
6C
100
AcDbEntity
  8
Visible Narrow (ISO)
100
AcDbLine
 10
491.6990692765507
 20
262.2163600817855
 30
0.0
 11
491.6990692765507
 21
275.2163600817855
 31
0.0
  0
ARC
  5
2B9
330
6C
100
AcDbEntity
  8
Visible (ISO)
100
AcDbCircle
 10
491.6990692765507
 20
274.4163600817855
 30
0.0
 40
0.8000000000000003
100
AcDbArc
 50
0.0
 51
90.0
  0
ARC
  5
2BA
330
6C
100
AcDbEntity
  8
Visible (ISO)
100
AcDbCircle
 10
491.6990692765507
 20
263.0163600817855
 30
0.0
 40
0.8000000000000003
100
AcDbArc
 50
270.0
 51
0.0
  0
LINE
  5
2BB
330
6C
100
AcDbEntity
  8
Visible (ISO)
100
AcDbLine
 10
491.6990692765507
 20
262.2163600817855
 30
0.0
 11
484.4990692765507
 21
262.2163600817855
 31
0.0
  0
LINE
  5
2BC
330
6C
100
AcDbEntity
  8
Visible (ISO)
100
AcDbLine
 10
491.6990692765507
 20
275.2163600817855
 30
0.0
 11
484.4990692765507
 21
275.2163600817855
 31
0.0
  0
LINE
  5
2BD
330
6C
100
AcDbEntity
  8
Visible (ISO)
100
AcDbLine
 10
522.4990692765507
 20
354.0750000000113
 30
0.0
 11
522.4990692765507
 21
347.4223389345564
 31
0.0
  0
LINE
  5
2BE
330
6C
100
AcDbEntity
  8
Visible (ISO)
100
AcDbLine
 10
522.4990692765507
 20
271.3276610654701
 30
0.0
 11
522.4990692765507
 21
347.4223389345564
 31
0.0
  0
LINE
  5
2BF
330
6C
100
AcDbEntity
  8
Visible (ISO)
100
AcDbLine
 10
522.4990692765507
 20
271.3276610654701
 30
0.0
 11
522.4990692765507
 21
264.6750000000113
 31
0.0
  0
LINE
  5
2C0
330
6C
100
AcDbEntity
  8
Visible (ISO)
100
AcDbLine
 10
500.9990692765507
 20
264.6750000000113
 30
0.0
 11
500.9990692765507
 21
271.3276610654701
 31
0.0
  0
LINE
  5
2C1
330
6C
100
AcDbEntity
  8
Visible (ISO)
100
AcDbLine
 10
500.9990692765507
 20
347.4223389345564
 30
0.0
 11
500.9990692765507
 21
271.3276610654701
 31
0.0
  0
LINE
  5
2C2
330
6C
100
AcDbEntity
  8
Visible (ISO)
100
AcDbLine
 10
500.9990692765507
 20
347.4223389345564
 30
0.0
 11
500.9990692765507
 21
354.0750000000113
 31
0.0
  0
SPLINE
  5
2C3
330
6C
100
AcDbEntity
  8
Visible (ISO)
100
AcDbSpline
210
0.0
220
0.0
230
1.0
 70
    24
 71
     3
 72
     8
 73
     4
 74
     0
 42
0.0000000001
 43
0.0000000001
 40
-0.043834872047128
 40
-0.043834872047128
 40
-0.043834872047128
 40
-0.043834872047128
 40
0.0
 40
0.0
 40
0.0
 40
0.0
 10
500.9990692765507
 20
354.0750000000112
 30
0.0
 10
501.0990598879875
 20
354.1749906114481
 30
0.0
 10
501.19906037185
 20
354.2749910953106
 30
0.0
 10
501.2990692765507
 20
354.3750000000112
 30
0.0
  0
SPLINE
  5
2C4
330
6C
100
AcDbEntity
  8
Visible (ISO)
100
AcDbSpline
210
0.0
220
0.0
230
1.0
 70
     8
 71
     3
 72
     8
 73
     4
 74
     0
 42
0.0000000001
 43
0.0000000001
 40
-0.0438348720439615
 40
-0.0438348720439615
 40
-0.0438348720439615
 40
-0.0438348720439615
 40
0.0
 40
0.0
 40
0.0
 40
0.0
 10
500.9990692765507
 20
347.4223389345563
 30
0.0
 10
501.0990598879911
 20
347.4591317458112
 30
0.0
 10
501.1990603718571
 20
347.4958748202766
 30
0.0
 10
501.2990692765507
 20
347.5325680566911
 30
0.0
  0
LINE
  5
2C5
330
6C
100
AcDbEntity
  8
Visible (ISO)
100
AcDbLine
 10
501.2990692765507
 20
354.3750000000112
 30
0.0
 11
501.2990692765507
 21
347.5325680566911
 31
0.0
  0
SPLINE
  5
2C6
330
6C
100
AcDbEntity
  8
Visible (ISO)
100
AcDbSpline
210
0.0
220
0.0
230
1.0
 70
     8
 71
     3
 72
     8
 73
     4
 74
     0
 42
0.0000000001
 43
0.0000000001
 40
-0.0438348720438651
 40
-0.0438348720438651
 40
-0.0438348720438651
 40
-0.0438348720438651
 40
0.0
 40
0.0
 40
0.0
 40
0.0
 10
500.9990692765507
 20
271.3276610654701
 30
0.0
 10
501.0990598879912
 20
271.2908682542153
 30
0.0
 10
501.1990603718573
 20
271.25412517975
 30
0.0
 10
501.2990692765507
 20
271.2174319433355
 30
0.0
  0
LINE
  5
2C7
330
6C
100
AcDbEntity
  8
Visible (ISO)
100
AcDbLine
 10
501.2990692765507
 20
271.2174319433355
 30
0.0
 11
501.2990692765507
 21
347.5325680566911
 31
0.0
  0
SPLINE
  5
2C8
330
6C
100
AcDbEntity
  8
Visible (ISO)
100
AcDbSpline
210
0.0
220
0.0
230
1.0
 70
    24
 71
     3
 72
     8
 73
     4
 74
     0
 42
0.0000000001
 43
0.0000000001
 40
-0.0438348720450676
 40
-0.0438348720450676
 40
-0.0438348720450676
 40
-0.0438348720450676
 40
0.0
 40
0.0
 40
0.0
 40
0.0
 10
500.9990692765507
 20
264.6750000000113
 30
0.0
 10
501.0990598879899
 20
264.5750093885721
 30
0.0
 10
501.1990603718546
 20
264.4750089047073
 30
0.0
 10
501.2990692765507
 20
264.3750000000113
 30
0.0
  0
LINE
  5
2C9
330
6C
100
AcDbEntity
  8
Visible (ISO)
100
AcDbLine
 10
501.2990692765507
 20
271.2174319433354
 30
0.0
 11
501.2990692765507
 21
264.3750000000113
 31
0.0
  0
SPLINE
  5
2CA
330
6C
100
AcDbEntity
  8
Visible (ISO)
100
AcDbSpline
210
0.0
220
0.0
230
1.0
 70
    24
 71
     3
 72
     8
 73
     4
 74
     0
 42
0.0000000001
 43
0.0000000001
 40
-0.0438348721258326
 40
-0.0438348721258326
 40
-0.0438348721258326
 40
-0.0438348721258326
 40
0.0
 40
0.0
 40
0.0
 40
0.0
 10
522.1990692765507
 20
354.3750000000112
 30
0.0
 10
522.2990781812355
 20
354.2749910953264
 30
0.0
 10
522.399078665106
 20
354.174990611456
 30
0.0
 10
522.4990692765507
 20
354.0750000000112
 30
0.0
  0
SPLINE
  5
2CB
330
6C
100
AcDbEntity
  8
Visible (ISO)
100
AcDbSpline
210
0.0
220
0.0
230
1.0
 70
    24
 71
     3
 72
     8
 73
     4
 74
     0
 42
0.0000000001
 43
0.0000000001
 40
-0.043834872047123
 40
-0.043834872047123
 40
-0.043834872047123
 40
-0.043834872047123
 40
0.0
 40
0.0
 40
0.0
 40
0.0
 10
522.4990692765507
 20
264.6750000000113
 30
0.0
 10
522.3990786651138
 20
264.5750093885745
 30
0.0
 10
522.2990781812513
 20
264.475008904712
 30
0.0
 10
522.1990692765507
 20
264.3750000000113
 30
0.0
  0
SPLINE
  5
2CC
330
6C
100
AcDbEntity
  8
Visible (ISO)
100
AcDbSpline
210
0.0
220
0.0
230
1.0
 70
     8
 71
     3
 72
     8
 73
     4
 74
     0
 42
0.0000000001
 43
0.0000000001
 40
-0.043834872041644
 40
-0.043834872041644
 40
-0.043834872041644
 40
-0.043834872041644
 40
0.0
 40
0.0
 40
0.0
 40
0.0
 10
522.4990692765507
 20
271.3276610654701
 30
0.0
 10
522.3990786651076
 20
271.2908682542144
 30
0.0
 10
522.2990781812389
 20
271.2541251797481
 30
0.0
 10
522.1990692765507
 20
271.2174319433355
 30
0.0
  0
LINE
  5
2CD
330
6C
100
AcDbEntity
  8
Visible (ISO)
100
AcDbLine
 10
522.1990692765507
 20
264.3750000000113
 30
0.0
 11
522.1990692765507
 21
271.2174319433355
 31
0.0
  0
SPLINE
  5
2CE
330
6C
100
AcDbEntity
  8
Visible (ISO)
100
AcDbSpline
210
0.0
220
0.0
230
1.0
 70
     8
 71
     3
 72
     8
 73
     4
 74
     0
 42
0.0000000001
 43
0.0000000001
 40
-0.0438348720461803
 40
-0.0438348720461803
 40
-0.0438348720461803
 40
-0.0438348720461803
 40
0.0
 40
0.0
 40
0.0
 40
0.0
 10
522.4990692765507
 20
347.4223389345563
 30
0.0
 10
522.3990786651127
 20
347.4591317458102
 30
0.0
 10
522.2990781812492
 20
347.4958748202747
 30
0.0
 10
522.1990692765507
 20
347.5325680566911
 30
0.0
  0
LINE
  5
2CF
330
6C
100
AcDbEntity
  8
Visible (ISO)
100
AcDbLine
 10
522.1990692765507
 20
347.5325680566911
 30
0.0
 11
522.1990692765507
 21
271.2174319433355
 31
0.0
  0
LINE
  5
2D0
330
6C
100
AcDbEntity
  8
Visible (ISO)
100
AcDbLine
 10
522.1990692765507
 20
347.5325680566912
 30
0.0
 11
522.1990692765507
 21
354.3750000000113
 31
0.0
  0
LINE
  5
2D1
330
6C
100
AcDbEntity
  8
Visible (ISO)
100
AcDbLine
 10
522.1990692765507
 20
354.3750000000112
 30
0.0
 11
501.2990692765507
 21
354.3750000000112
 31
0.0
  0
LINE
  5
2D2
330
6C
100
AcDbEntity
  8
Visible (ISO)
100
AcDbLine
 10
522.1990692765507
 20
264.3750000000113
 30
0.0
 11
501.2990692765507
 21
264.3750000000113
 31
0.0
  0
LINE
  5
2D3
330
6C
100
AcDbEntity
  8
Visible (ISO)
100
AcDbLine
 10
522.1990692765507
 20
271.2174319433355
 30
0.0
 11
501.2990692765507
 21
271.2174319433355
 31
0.0
  0
LINE
  5
2D4
330
6C
100
AcDbEntity
  8
Visible (ISO)
100
AcDbLine
 10
522.1990692765507
 20
347.5325680566911
 30
0.0
 11
501.2990692765507
 21
347.5325680566911
 31
0.0
  0
CIRCLE
  5
2D5
330
6C
100
AcDbEntity
  8
Visible Narrow (ISO)
100
AcDbCircle
 10
506.9990692765507
 20
298.3750000000134
 30
0.0
 40
4.845657006448429
  0
CIRCLE
  5
2D6
330
6C
100
AcDbEntity
  8
Visible (ISO)
100
AcDbCircle
 10
506.9990692765507
 20
298.3750000000136
 30
0.0
 40
3.863999999999999
  0
CIRCLE
  5
2D7
330
6C
100
AcDbEntity
  8
Visible (ISO)
100
AcDbCircle
 10
506.9990692765507
 20
298.3750000000134
 30
0.0
 40
4.832765247622278
  0
LINE
  5
2D8
330
6C
100
AcDbEntity
  8
Visible (ISO)
100
AcDbLine
 10
504.4990692765508
 20
299.8183756729877
 30
0.0
 11
506.9990692765507
 21
301.2617513459618
 31
0.0
  0
LINE
  5
2D9
330
6C
100
AcDbEntity
  8
Visible (ISO)
100
AcDbLine
 10
506.9990692765507
 20
301.2617513459618
 30
0.0
 11
509.4990692765507
 21
299.8183756729877
 31
0.0
  0
LINE
  5
2DA
330
6C
100
AcDbEntity
  8
Visible (ISO)
100
AcDbLine
 10
509.4990692765507
 20
299.8183756729877
 30
0.0
 11
509.4990692765507
 21
296.9316243270396
 31
0.0
  0
LINE
  5
2DB
330
6C
100
AcDbEntity
  8
Visible (ISO)
100
AcDbLine
 10
509.4990692765507
 20
296.9316243270396
 30
0.0
 11
506.9990692765507
 21
295.4882486540655
 31
0.0
  0
LINE
  5
2DC
330
6C
100
AcDbEntity
  8
Visible (ISO)
100
AcDbLine
 10
506.9990692765507
 20
295.4882486540655
 30
0.0
 11
504.4990692765508
 21
296.9316243270396
 31
0.0
  0
LINE
  5
2DD
330
6C
100
AcDbEntity
  8
Visible (ISO)
100
AcDbLine
 10
504.4990692765508
 20
296.9316243270396
 30
0.0
 11
504.4990692765508
 21
299.8183756729877
 31
0.0
  0
LINE
  5
2DE
330
6C
100
AcDbEntity
  8
Center Mark (ISO)
100
AcDbLine
 10
267.6562499999917
 20
154.6875
 30
0.0
 11
169.8437499999917
 21
154.6875
 31
0.0
  0
LINE
  5
2DF
330
6C
100
AcDbEntity
  8
Center Mark (ISO)
100
AcDbLine
 10
218.7499999999917
 20
203.59375
 30
0.0
 11
218.7499999999917
 21
105.78125
 31
0.0
  0
LINE
  5
2E0
330
6C
100
AcDbEntity
  8
Center Mark (ISO)
100
AcDbLine
 10
183.2035653330498
 20
119.1410653330569
 30
0.0
 11
172.9791548304829
 21
108.91665483049
 31
0.0
  0
LINE
  5
2E1
330
6C
100
AcDbEntity
  8
Center Mark (ISO)
100
AcDbLine
 10
183.2035653330498
 20
190.233934666943
 30
0.0
 11
172.9791548304829
 21
200.4583451695099
 31
0.0
  0
LINE
  5
2E2
330
6C
100
AcDbEntity
  8
Center Mark (ISO)
100
AcDbLine
 10
254.2964346669359
 20
119.1410653330569
 30
0.0
 11
264.5208451695028
 21
108.91665483049
 31
0.0
  0
LINE
  5
2E3
330
6C
100
AcDbEntity
  8
Center Mark (ISO)
100
AcDbLine
 10
264.5208451695028
 20
200.4583451695099
 30
0.0
 11
254.2964346669359
 21
190.233934666943
 31
0.0
  0
CIRCLE
  5
2E4
330
6C
100
AcDbEntity
  8
Centerline (ISO)
100
AcDbCircle
 10
218.7499999999928
 20
154.6875
 30
0.0
 40
57.5
  0
LINE
  5
2E5
330
6C
100
AcDbEntity
  8
Center Mark (ISO)
100
AcDbLine
 10
179.656249999993
 20
111.6875
 30
0.0
 11
165.843749999993
 21
111.6875
 31
0.0
  0
LINE
  5
2E6
330
6C
100
AcDbEntity
  8
Center Mark (ISO)
100
AcDbLine
 10
175.749999999993
 20
115.59375
 30
0.0
 11
175.749999999993
 21
101.78125
 31
0.0
  0
LINE
  5
2E7
330
6C
100
AcDbEntity
  8
Center Mark (ISO)
100
AcDbLine
 10
179.656249999993
 20
197.6875
 30
0.0
 11
165.843749999993
 21
197.6875
 31
0.0
  0
LINE
  5
2E8
330
6C
100
AcDbEntity
  8
Center Mark (ISO)
100
AcDbLine
 10
175.749999999993
 20
207.59375
 30
0.0
 11
175.749999999993
 21
193.78125
 31
0.0
  0
LINE
  5
2E9
330
6C
100
AcDbEntity
  8
Center Mark (ISO)
100
AcDbLine
 10
271.656249999993
 20
111.6875
 30
0.0
 11
257.843749999993
 21
111.6875
 31
0.0
  0
LINE
  5
2EA
330
6C
100
AcDbEntity
  8
Center Mark (ISO)
100
AcDbLine
 10
261.749999999993
 20
115.59375
 30
0.0
 11
261.749999999993
 21
101.78125
 31
0.0
  0
LINE
  5
2EB
330
6C
100
AcDbEntity
  8
Center Mark (ISO)
100
AcDbLine
 10
271.656249999993
 20
197.6875
 30
0.0
 11
257.843749999993
 21
197.6875
 31
0.0
  0
LINE
  5
2EC
330
6C
100
AcDbEntity
  8
Center Mark (ISO)
100
AcDbLine
 10
261.749999999993
 20
207.59375
 30
0.0
 11
261.749999999993
 21
193.78125
 31
0.0
  0
ENDSEC
  0
SECTION
  2
OBJECTS
  0
DICTIONARY
  5
C
330
0
100
AcDbDictionary
281
     1
  3
ACAD_CIP_PREVIOUS_PRODUCT_INFO
350
2ED
  3
ACAD_COLOR
350
63
  3
ACAD_GROUP
350
D
  3
ACAD_LAYOUT
350
62
  3
ACAD_MATERIAL
350
10
  3
ACAD_MLEADERSTYLE
350
66
  3
ACAD_MLINESTYLE
350
5F
  3
ACAD_PLOTSETTINGS
350
61
  3
ACAD_PLOTSTYLENAME
350
E
  3
ACAD_SCALELIST
350
42
  3
ACAD_TABLESTYLE
350
64
  3
ACAD_VISUALSTYLE
350
29
  3
ACDB_RECOMPOSE_DATA
350
301
  3
AcDbVariableDictionary
350
2EE
  0
DICTIONARY
  5
2FB
330
CD
100
AcDbDictionary
280
     1
281
     1
  3
ACAD_MLATT
360
2FD
  3
ACAD_XREC_ROUNDTRIP
360
2FC
  0
DICTIONARY
  5
2FE
330
D3
100
AcDbDictionary
280
     1
281
     1
  3
ACAD_MLATT
360
300
  3
ACAD_XREC_ROUNDTRIP
360
2FF
  0
XRECORD
  5
2ED
102
{ACAD_REACTORS
330
C
102
}
330
C
100
AcDbXrecord
280
     1
300
INVPROSA
300
2012
300
85768INVNTOR_2012_0F
  0
DICTIONARY
  5
63
102
{ACAD_REACTORS
330
C
102
}
330
C
100
AcDbDictionary
281
     1
  0
DICTIONARY
  5
D
102
{ACAD_REACTORS
330
C
102
}
330
C
100
AcDbDictionary
281
     1
  0
DICTIONARY
  5
62
102
{ACAD_REACTORS
330
C
102
}
330
C
100
AcDbDictionary
281
     1
  3
Layout1
350
6B
  3
Layout2
350
73
  3
Model
350
6F
  0
DICTIONARY
  5
10
102
{ACAD_REACTORS
330
C
102
}
330
C
100
AcDbDictionary
281
     1
  3
ByBlock
350
19
  3
ByLayer
350
11
  3
Global
350
21
  0
DICTIONARY
  5
66
102
{ACAD_REACTORS
330
C
102
}
330
C
100
AcDbDictionary
281
     1
  3
Standard
350
67
  0
DICTIONARY
  5
5F
102
{ACAD_REACTORS
330
C
102
}
330
C
100
AcDbDictionary
281
     1
  3
Standard
350
60
  0
DICTIONARY
  5
61
102
{ACAD_REACTORS
330
C
102
}
330
C
100
AcDbDictionary
281
     1
  0
ACDBDICTIONARYWDFLT
  5
E
102
{ACAD_REACTORS
330
C
102
}
330
C
100
AcDbDictionary
281
     1
  3
Normal
350
F
100
AcDbDictionaryWithDefault
340
F
  0
DICTIONARY
  5
42
102
{ACAD_REACTORS
330
C
102
}
330
C
100
AcDbDictionary
281
     1
  3
A0
350
43
  3
A1
350
44
  3
A2
350
45
  3
A3
350
46
  3
A4
350
47
  3
A5
350
48
  3
A6
350
49
  3
A7
350
4A
  3
A8
350
4B
  3
A9
350
4C
  3
B0
350
4D
  3
B1
350
4E
  3
B2
350
4F
  3
B3
350
50
  3
B4
350
51
  3
B5
350
52
  3
B6
350
53
  0
DICTIONARY
  5
64
102
{ACAD_REACTORS
330
C
102
}
330
C
100
AcDbDictionary
281
     1
  3
Standard
350
65
  0
DICTIONARY
  5
29
102
{ACAD_REACTORS
330
C
102
}
330
C
100
AcDbDictionary
281
     1
  3
2dWireframe
350
2F
  3
Basic
350
2E
  3
Brighten
350
35
  3
ColorChange
350
39
  3
Conceptual
350
32
  3
Dim
350
34
  3
EdgeColorOff
350
41
  3
Facepattern
350
38
  3
Flat
350
2A
  3
FlatWithEdges
350
2B
  3
Gouraud
350
2C
  3
GouraudWithEdges
350
2D
  3
Hidden
350
31
  3
JitterOff
350
3F
  3
Linepattern
350
37
  3
OverhangOff
350
40
  3
Realistic
350
33
  3
Shaded
350
3E
  3
Shaded with edges
350
3D
  3
Shades of Gray
350
3A
  3
Sketchy
350
3B
  3
Thicken
350
36
  3
Wireframe
350
30
  3
X-Ray
350
3C
  0
XRECORD
  5
301
102
{ACAD_REACTORS
330
C
102
}
330
C
100
AcDbXrecord
280
     1
 90
        1
330
65
330
CD
330
D3
  0
DICTIONARY
  5
2EE
102
{ACAD_REACTORS
330
C
102
}
330
C
100
AcDbDictionary
281
     1
  3
CANNOSCALE
350
2F2
  3
CMLEADERSTYLE
350
2F0
  3
CTABLESTYLE
350
2EF
  3
LAYEREVAL
350
2F4
  3
LAYERNOTIFY
350
2F5
  3
LIGHTINGUNITS
350
2F3
  3
MSLTSCALE
350
2F1
  3
XCLIPFRAME
350
2F6
  0
XRECORD
  5
2FD
102
{ACAD_REACTORS
330
2FB
102
}
330
2FB
100
AcDbXrecord
280
     1
 70
     4
 70
     0
 70
     0
 40
1.0
  2
部品番号
  1
Embedded Object
 10
39.99999999999993
 20
104.5
 30
0.0
 40
3.100000023841857
 41
52.04190794399206
 46
0.0
 71
     5
 72
     5
  1
VRXF-□-15~81D-S-14EJ14
  7
文字スタイル12
 73
     1
 44
1.0
  0
XRECORD
  5
2FC
102
{ACAD_REACTORS
330
2FB
102
}
330
2FB
100
AcDbXrecord
280
     1
102
ACAD_MATT_HEIGHT
140
3.100000023841857
  0
XRECORD
  5
300
102
{ACAD_REACTORS
330
2FE
102
}
330
2FE
100
AcDbXrecord
280
     1
 70
     2
 70
     0
 70
     0
 40
1.0
  2
部品番号
  1
Embedded Object
 10
328.125
 20
22.65624999999999
 30
0.0
 40
4.843750037252902
 41
81.31548116248758
 46
0.0
 71
     5
 72
     5
  1
VRXF-□-15~81D-S-14EJ14
  7
文字スタイル12
 73
     1
 44
1.0
  0
XRECORD
  5
2FF
102
{ACAD_REACTORS
330
2FE
102
}
330
2FE
100
AcDbXrecord
280
     1
102
ACAD_MATT_HEIGHT
140
4.843750037252902
  0
LAYOUT
  5
6B
102
{ACAD_REACTORS
330
62
102
}
330
62
100
AcDbPlotSettings
  1

  2

  4

  6

 40
0.0
 41
0.0
 42
0.0
 43
0.0
 44
0.0
 45
0.0
 46
0.0
 47
0.0
 48
0.0
 49
0.0
140
0.0
141
0.0
142
1.0
143
1.0
 70
   688
 72
     0
 73
     0
 74
     5
  7

 75
    16
147
1.0
 76
     0
 77
     2
 78
   300
148
0.0
149
0.0
100
AcDbLayout
  1
Layout1
 70
     1
 71
     1
 10
0.0
 20
0.0
 11
12.0
 21
9.0
 12
0.0
 22
0.0
 32
0.0
 14
0.0
 24
0.0
 34
0.0
 15
0.0
 25
0.0
 35
0.0
146
0.0
 13
0.0
 23
0.0
 33
0.0
 16
1.0
 26
0.0
 36
0.0
 17
0.0
 27
1.0
 37
0.0
 76
     0
330
68
  0
LAYOUT
  5
73
102
{ACAD_REACTORS
330
62
102
}
330
62
100
AcDbPlotSettings
  1

  2

  4

  6

 40
0.0
 41
0.0
 42
0.0
 43
0.0
 44
0.0
 45
0.0
 46
0.0
 47
0.0
 48
0.0
 49
0.0
140
0.0
141
0.0
142
1.0
143
1.0
 70
   688
 72
     0
 73
     0
 74
     5
  7

 75
    16
147
1.0
 76
     0
 77
     2
 78
   300
148
0.0
149
0.0
100
AcDbLayout
  1
Layout2
 70
     1
 71
     2
 10
0.0
 20
0.0
 11
12.0
 21
9.0
 12
0.0
 22
0.0
 32
0.0
 14
0.0
 24
0.0
 34
0.0
 15
0.0
 25
0.0
 35
0.0
146
0.0
 13
0.0
 23
0.0
 33
0.0
 16
1.0
 26
0.0
 36
0.0
 17
0.0
 27
1.0
 37
0.0
 76
     0
330
70
  0
LAYOUT
  5
6F
102
{ACAD_REACTORS
330
62
102
}
330
62
100
AcDbPlotSettings
  1

  2

  4

  6

 40
0.0
 41
0.0
 42
0.0
 43
0.0
 44
0.0
 45
0.0
 46
0.0
 47
0.0
 48
0.0
 49
0.0
140
0.0
141
0.0
142
1.0
143
1.0
 70
  1712
 72
     0
 73
     0
 74
     0
  7

 75
     0
147
1.0
 76
     0
 77
     2
 78
   300
148
0.0
149
0.0
100
AcDbLayout
  1
Model
 70
     1
 71
     0
 10
0.0
 20
0.0
 11
12.0
 21
9.0
 12
0.0
 22
0.0
 32
0.0
 14
0.0
 24
0.0
 34
0.0
 15
0.0
 25
0.0
 35
0.0
146
0.0
 13
0.0
 23
0.0
 33
0.0
 16
1.0
 26
0.0
 36
0.0
 17
0.0
 27
1.0
 37
0.0
 76
     0
330
6C
  0
MATERIAL
  5
19
102
{ACAD_XDICTIONARY
360
1A
102
}
102
{ACAD_REACTORS
330
10
102
}
330
10
100
AcDbMaterial
  1
ByBlock
 72
     0
 43
0.0208333333333333
 43
0.0
 43
0.0
 43
0.0
 43
0.0
 43
0.0208333333333333
 43
0.0
 43
0.0
 43
0.0
 43
0.0
 43
1.0
 43
0.0
 43
0.0
 43
0.0
 43
0.0
 43
1.0
 77
     0
 47
0.0208333333333333
 47
0.0
 47
0.0
 47
0.0
 47
0.0
 47
0.0208333333333333
 47
0.0
 47
0.0
 47
0.0
 47
0.0
 47
1.0
 47
0.0
 47
0.0
 47
0.0
 47
0.0
 47
1.0
171
     0
 49
0.0208333333333333
 49
0.0
 49
0.0
 49
0.0
 49
0.0
 49
0.0208333333333333
 49
0.0
 49
0.0
 49
0.0
 49
0.0
 49
1.0
 49
0.0
 49
0.0
 49
0.0
 49
0.0
 49
1.0
175
     0
142
0.0208333333333333
142
0.0
142
0.0
142
0.0
142
0.0
142
0.0208333333333333
142
0.0
142
0.0
142
0.0
142
0.0
142
1.0
142
0.0
142
0.0
142
0.0
142
0.0
142
1.0
179
     0
144
0.0208333333333333
144
0.0
144
0.0
144
0.0
144
0.0
144
0.0208333333333333
144
0.0
144
0.0
144
0.0
144
0.0
144
1.0
144
0.0
144
0.0
144
0.0
144
0.0
144
1.0
147
0.0208333333333333
147
0.0
147
0.0
147
0.0
147
0.0
147
0.0208333333333333
147
0.0
147
0.0
147
0.0
147
0.0
147
1.0
147
0.0
147
0.0
147
0.0
147
0.0
147
1.0
  0
MATERIAL
  5
11
102
{ACAD_XDICTIONARY
360
12
102
}
102
{ACAD_REACTORS
330
10
102
}
330
10
100
AcDbMaterial
  1
ByLayer
 72
     0
 43
0.0208333333333333
 43
0.0
 43
0.0
 43
0.0
 43
0.0
 43
0.0208333333333333
 43
0.0
 43
0.0
 43
0.0
 43
0.0
 43
1.0
 43
0.0
 43
0.0
 43
0.0
 43
0.0
 43
1.0
 77
     0
 47
0.0208333333333333
 47
0.0
 47
0.0
 47
0.0
 47
0.0
 47
0.0208333333333333
 47
0.0
 47
0.0
 47
0.0
 47
0.0
 47
1.0
 47
0.0
 47
0.0
 47
0.0
 47
0.0
 47
1.0
171
     0
 49
0.0208333333333333
 49
0.0
 49
0.0
 49
0.0
 49
0.0
 49
0.0208333333333333
 49
0.0
 49
0.0
 49
0.0
 49
0.0
 49
1.0
 49
0.0
 49
0.0
 49
0.0
 49
0.0
 49
1.0
175
     0
142
0.0208333333333333
142
0.0
142
0.0
142
0.0
142
0.0
142
0.0208333333333333
142
0.0
142
0.0
142
0.0
142
0.0
142
1.0
142
0.0
142
0.0
142
0.0
142
0.0
142
1.0
179
     0
144
0.0208333333333333
144
0.0
144
0.0
144
0.0
144
0.0
144
0.0208333333333333
144
0.0
144
0.0
144
0.0
144
0.0
144
1.0
144
0.0
144
0.0
144
0.0
144
0.0
144
1.0
147
0.0208333333333333
147
0.0
147
0.0
147
0.0
147
0.0
147
0.0208333333333333
147
0.0
147
0.0
147
0.0
147
0.0
147
1.0
147
0.0
147
0.0
147
0.0
147
0.0
147
1.0
  0
MATERIAL
  5
21
102
{ACAD_XDICTIONARY
360
22
102
}
102
{ACAD_REACTORS
330
10
102
}
330
10
100
AcDbMaterial
  1
Global
 72
     0
 43
0.0208333333333333
 43
0.0
 43
0.0
 43
0.0
 43
0.0
 43
0.0208333333333333
 43
0.0
 43
0.0
 43
0.0
 43
0.0
 43
1.0
 43
0.0
 43
0.0
 43
0.0
 43
0.0
 43
1.0
 77
     0
 47
0.0208333333333333
 47
0.0
 47
0.0
 47
0.0
 47
0.0
 47
0.0208333333333333
 47
0.0
 47
0.0
 47
0.0
 47
0.0
 47
1.0
 47
0.0
 47
0.0
 47
0.0
 47
0.0
 47
1.0
171
     0
 49
0.0208333333333333
 49
0.0
 49
0.0
 49
0.0
 49
0.0
 49
0.0208333333333333
 49
0.0
 49
0.0
 49
0.0
 49
0.0
 49
1.0
 49
0.0
 49
0.0
 49
0.0
 49
0.0
 49
1.0
175
     0
142
0.0208333333333333
142
0.0
142
0.0
142
0.0
142
0.0
142
0.0208333333333333
142
0.0
142
0.0
142
0.0
142
0.0
142
1.0
142
0.0
142
0.0
142
0.0
142
0.0
142
1.0
179
     0
144
0.0208333333333333
144
0.0
144
0.0
144
0.0
144
0.0
144
0.0208333333333333
144
0.0
144
0.0
144
0.0
144
0.0
144
1.0
144
0.0
144
0.0
144
0.0
144
0.0
144
1.0
147
0.0208333333333333
147
0.0
147
0.0
147
0.0
147
0.0
147
0.0208333333333333
147
0.0
147
0.0
147
0.0
147
0.0
147
1.0
147
0.0
147
0.0
147
0.0
147
0.0
147
1.0
  0
MLEADERSTYLE
  5
67
102
{ACAD_XDICTIONARY
360
2F9
102
}
102
{ACAD_REACTORS
330
66
102
}
330
66
100
AcDbMLeaderStyle
170
     2
171
     1
172
     0
 90
        2
 40
0.0
 41
0.0
173
     1
 91
-1056964608
340
5B
 92
       -2
290
     1
 42
0.09
291
     1
 43
0.36
  3
Standard
 44
0.18
300

342
55
174
     1
178
     6
175
     1
176
     0
 93
-1056964608
 45
0.18
292
     0
297
     0
 46
0.18
 94
-1056964608
 47
1.0
 49
1.0
140
1.0
293
     1
141
0.0
294
     1
177
     0
142
1.0
295
     0
296
     0
143
0.125
1001
ACAD_MLEADERVER
1070
     2
  0
MLINESTYLE
  5
60
102
{ACAD_REACTORS
330
5F
102
}
330
5F
100
AcDbMlineStyle
  2
STANDARD
 70
     0
  3

 62
   256
 51
90.0
 52
90.0
 71
     2
 49
0.5
 62
   256
  6
BYLAYER
 49
-0.5
 62
   256
  6
BYLAYER
  0
ACDBPLACEHOLDER
  5
F
102
{ACAD_REACTORS
330
E
102
}
330
E
  0
SCALE
  5
43
102
{ACAD_REACTORS
330
42
102
}
330
42
100
AcDbScale
 70
     0
300
1:1
140
1.0
141
1.0
290
     1
  0
SCALE
  5
44
102
{ACAD_REACTORS
330
42
102
}
330
42
100
AcDbScale
 70
     0
300
1/128" = 1'-0"
140
0.0078125
141
12.0
290
     0
  0
SCALE
  5
45
102
{ACAD_REACTORS
330
42
102
}
330
42
100
AcDbScale
 70
     0
300
1/64" = 1'-0"
140
0.015625
141
12.0
290
     0
  0
SCALE
  5
46
102
{ACAD_REACTORS
330
42
102
}
330
42
100
AcDbScale
 70
     0
300
1/32" = 1'-0"
140
0.03125
141
12.0
290
     0
  0
SCALE
  5
47
102
{ACAD_REACTORS
330
42
102
}
330
42
100
AcDbScale
 70
     0
300
1/16" = 1'-0"
140
0.0625
141
12.0
290
     0
  0
SCALE
  5
48
102
{ACAD_REACTORS
330
42
102
}
330
42
100
AcDbScale
 70
     0
300
3/32" = 1'-0"
140
0.09375
141
12.0
290
     0
  0
SCALE
  5
49
102
{ACAD_REACTORS
330
42
102
}
330
42
100
AcDbScale
 70
     0
300
1/8" = 1'-0"
140
0.125
141
12.0
290
     0
  0
SCALE
  5
4A
102
{ACAD_REACTORS
330
42
102
}
330
42
100
AcDbScale
 70
     0
300
3/16" = 1'-0"
140
0.1875
141
12.0
290
     0
  0
SCALE
  5
4B
102
{ACAD_REACTORS
330
42
102
}
330
42
100
AcDbScale
 70
     0
300
1/4" = 1'-0"
140
0.25
141
12.0
290
     0
  0
SCALE
  5
4C
102
{ACAD_REACTORS
330
42
102
}
330
42
100
AcDbScale
 70
     0
300
3/8" = 1'-0"
140
0.375
141
12.0
290
     0
  0
SCALE
  5
4D
102
{ACAD_REACTORS
330
42
102
}
330
42
100
AcDbScale
 70
     0
300
1/2" = 1'-0"
140
0.5
141
12.0
290
     0
  0
SCALE
  5
4E
102
{ACAD_REACTORS
330
42
102
}
330
42
100
AcDbScale
 70
     0
300
3/4" = 1'-0"
140
0.75
141
12.0
290
     0
  0
SCALE
  5
4F
102
{ACAD_REACTORS
330
42
102
}
330
42
100
AcDbScale
 70
     0
300
1" = 1'-0"
140
1.0
141
12.0
290
     0
  0
SCALE
  5
50
102
{ACAD_REACTORS
330
42
102
}
330
42
100
AcDbScale
 70
     0
300
1-1/2" = 1'-0"
140
1.5
141
12.0
290
     0
  0
SCALE
  5
51
102
{ACAD_REACTORS
330
42
102
}
330
42
100
AcDbScale
 70
     0
300
3" = 1'-0"
140
3.0
141
12.0
290
     0
  0
SCALE
  5
52
102
{ACAD_REACTORS
330
42
102
}
330
42
100
AcDbScale
 70
     0
300
6" = 1'-0"
140
6.0
141
12.0
290
     0
  0
SCALE
  5
53
102
{ACAD_REACTORS
330
42
102
}
330
42
100
AcDbScale
 70
     0
300
1'-0" = 1'-0"
140
12.0
141
12.0
290
     0
  0
TABLESTYLE
  5
65
102
{ACAD_XDICTIONARY
360
2F7
102
}
102
{ACAD_REACTORS
330
64
102
}
330
64
100
AcDbTableStyle
  3
Standard
 70
     0
 71
     0
 40
0.06
 41
0.06
280
     0
281
     0
  7
Standard
140
0.18
170
     2
 62
     0
 63
     7
283
     0
274
    -2
284
     1
 64
     0
275
    -2
285
     1
 65
     0
276
    -2
286
     1
 66
     0
277
    -2
287
     1
 67
     0
278
    -2
288
     1
 68
     0
279
    -2
289
     1
 69
     0
  7
Standard
140
0.25
170
     5
 62
     0
 63
     7
283
     0
274
    -2
284
     1
 64
     0
275
    -2
285
     1
 65
     0
276
    -2
286
     1
 66
     0
277
    -2
287
     1
 67
     0
278
    -2
288
     1
 68
     0
279
    -2
289
     1
 69
     0
  7
Standard
140
0.18
170
     5
 62
     0
 63
     7
283
     0
274
    -2
284
     1
 64
     0
275
    -2
285
     1
 65
     0
276
    -2
286
     1
 66
     0
277
    -2
287
     1
 67
     0
278
    -2
288
     1
 68
     0
279
    -2
289
     1
 69
     0
  0
VISUALSTYLE
  5
2F
102
{ACAD_XDICTIONARY
360
30F
102
}
102
{ACAD_REACTORS
330
29
102
}
330
29
100
AcDbVisualStyle
  2
2dWireframe
 70
     4
 71
     0
 72
     2
 73
     0
 90
        0
 40
-0.6
 41
-30.0
 62
     5
 63
     7
421
 16777215
 74
     1
 91
        4
 64
     7
 65
   257
 75
     1
175
     1
 42
1.0
 92
        0
 66
   257
 43
1.0
 76
     1
 77
     6
 78
     2
 67
     7
 79
     5
170
     0
171
     0
290
     0
174
     0
 93
        1
 44
0.0
173
     0
291
     0
 45
0.0
1001
ACAD
1000
AcDbSavedByObjectVersion
1070
     0
  0
VISUALSTYLE
  5
2E
102
{ACAD_XDICTIONARY
360
30D
102
}
102
{ACAD_REACTORS
330
29
102
}
330
29
100
AcDbVisualStyle
  2
Basic
 70
     7
 71
     1
 72
     0
 73
     1
 90
        0
 40
-0.6
 41
-30.0
 62
     5
 63
     7
421
 16777215
 74
     0
 91
        4
 64
     7
 65
   257
 75
     1
175
     1
 42
1.0
 92
        8
 66
     7
 43
1.0
 76
     1
 77
     6
 78
     2
 67
     7
 79
     5
170
     0
171
     0
290
     0
174
     0
 93
        1
 44
0.0
173
     0
291
     1
 45
0.0
1001
ACAD
1000
AcDbSavedByObjectVersion
1070
     0
  0
VISUALSTYLE
  5
35
102
{ACAD_XDICTIONARY
360
31B
102
}
102
{ACAD_REACTORS
330
29
102
}
330
29
100
AcDbVisualStyle
  2
Brighten
 70
    12
 71
     2
 72
     2
 73
     0
 90
        0
 40
-0.6
 41
-30.0
 62
     5
 63
     7
421
 16777215
 74
     1
 91
        4
 64
     7
 65
   257
 75
     1
175
     1
 42
1.0
 92
        8
 66
     7
 43
1.0
 76
     1
 77
     6
 78
     2
 67
     7
 79
     5
170
     0
171
     0
290
     0
174
     0
 93
        1
 44
50.0
173
     0
291
     1
 45
0.0
1001
ACAD
1000
AcDbSavedByObjectVersion
1070
     0
  0
VISUALSTYLE
  5
39
102
{ACAD_XDICTIONARY
360
323
102
}
102
{ACAD_REACTORS
330
29
102
}
330
29
100
AcDbVisualStyle
  2
ColorChange
 70
    16
 71
     2
 72
     2
 73
     3
 90
        0
 40
-0.6
 41
-30.0
 62
     5
 63
     8
421
  8421504
 74
     1
 91
        4
 64
     7
 65
   257
 75
     1
175
     1
 42
1.0
 92
        8
 66
     8
424
  8421504
 43
1.0
 76
     1
 77
     6
 78
     2
 67
     7
 79
     5
170
     0
171
     0
290
     0
174
     0
 93
        1
 44
0.0
173
     0
291
     1
 45
0.0
1001
ACAD
1000
AcDbSavedByObjectVersion
1070
     0
  0
VISUALSTYLE
  5
32
102
{ACAD_XDICTIONARY
360
315
102
}
102
{ACAD_REACTORS
330
29
102
}
330
29
100
AcDbVisualStyle
  2
Conceptual
 70
     9
 71
     3
 72
     2
 73
     0
 90
        0
 40
-0.6
 41
-30.0
 62
     5
 63
     7
421
 16777215
 74
     2
 91
        2
 64
     7
 65
   257
 75
     1
175
     1
 42
179.0
 92
        8
 66
     7
 43
1.0
 76
     1
 77
     6
 78
     2
 67
     7
 79
     3
170
     0
171
     0
290
     0
174
     0
 93
        1
 44
0.0
173
     0
291
     0
 45
0.0
1001
ACAD
1000
AcDbSavedByObjectVersion
1070
     0
  0
VISUALSTYLE
  5
34
102
{ACAD_XDICTIONARY
360
319
102
}
102
{ACAD_REACTORS
330
29
102
}
330
29
100
AcDbVisualStyle
  2
Dim
 70
    11
 71
     2
 72
     2
 73
     0
 90
        0
 40
-0.6
 41
-30.0
 62
     5
 63
     7
421
 16777215
 74
     1
 91
        4
 64
     7
 65
   257
 75
     1
175
     1
 42
1.0
 92
        8
 66
     7
 43
1.0
 76
     1
 77
     6
 78
     2
 67
     7
 79
     5
170
     0
171
     0
290
     0
174
     0
 93
        1
 44
-50.0
173
     0
291
     1
 45
0.0
1001
ACAD
1000
AcDbSavedByObjectVersion
1070
     0
  0
VISUALSTYLE
  5
41
102
{ACAD_XDICTIONARY
360
333
102
}
102
{ACAD_REACTORS
330
29
102
}
330
29
100
AcDbVisualStyle
  2
EdgeColorOff
 70
    22
 71
     2
 72
     2
 73
     0
 90
        0
 40
-0.6
 41
-30.0
 62
     5
 63
     7
421
 16777215
 74
     1
 91
        4
 64
     7
 65
   257
 75
     1
175
     1
 42
1.0
 92
        8
 66
     7
 43
1.0
 76
     1
 77
     6
 78
     2
 67
     7
 79
     5
170
     0
171
     0
290
     0
174
     0
 93
        1
 44
0.0
173
     0
291
     1
 45
0.0
1001
ACAD
1000
AcDbSavedByObjectVersion
1070
     0
  0
VISUALSTYLE
  5
38
102
{ACAD_XDICTIONARY
360
321
102
}
102
{ACAD_REACTORS
330
29
102
}
330
29
100
AcDbVisualStyle
  2
Facepattern
 70
    15
 71
     2
 72
     2
 73
     0
 90
        0
 40
-0.6
 41
-30.0
 62
     5
 63
     7
421
 16777215
 74
     1
 91
        4
 64
     7
 65
   257
 75
     1
175
     1
 42
1.0
 92
        8
 66
     7
 43
1.0
 76
     1
 77
     6
 78
     2
 67
     7
 79
     5
170
     0
171
     0
290
     0
174
     0
 93
        1
 44
0.0
173
     0
291
     1
 45
0.0
1001
ACAD
1000
AcDbSavedByObjectVersion
1070
     0
  0
VISUALSTYLE
  5
2A
102
{ACAD_XDICTIONARY
360
305
102
}
102
{ACAD_REACTORS
330
29
102
}
330
29
100
AcDbVisualStyle
  2
Flat
 70
     0
 71
     2
 72
     1
 73
     1
 90
        2
 40
-0.6
 41
30.0
 62
     5
 63
     7
421
 16777215
 74
     0
 91
        0
 64
     7
 65
   257
 75
     1
175
     1
 42
1.0
 92
        8
 66
     7
 43
1.0
 76
     1
 77
     6
 78
     2
 67
     7
 79
     5
170
     0
171
     0
290
     0
174
     0
 93
       13
 44
0.0
173
     0
291
     1
 45
0.0
1001
ACAD
1000
AcDbSavedByObjectVersion
1070
     0
  0
VISUALSTYLE
  5
2B
102
{ACAD_XDICTIONARY
360
307
102
}
102
{ACAD_REACTORS
330
29
102
}
330
29
100
AcDbVisualStyle
  2
FlatWithEdges
 70
     1
 71
     2
 72
     1
 73
     1
 90
        2
 40
-0.6
 41
30.0
 62
     5
 63
     7
421
 16777215
 74
     1
 91
        0
 64
     7
 65
   257
 75
     1
175
     1
 42
1.0
 92
        0
 66
   257
 43
1.0
 76
     1
 77
     6
 78
     2
 67
     7
 79
     5
170
     0
171
     0
290
     0
174
     0
 93
       13
 44
0.0
173
     0
291
     1
 45
0.0
1001
ACAD
1000
AcDbSavedByObjectVersion
1070
     0
  0
VISUALSTYLE
  5
2C
102
{ACAD_XDICTIONARY
360
309
102
}
102
{ACAD_REACTORS
330
29
102
}
330
29
100
AcDbVisualStyle
  2
Gouraud
 70
     2
 71
     2
 72
     2
 73
     1
 90
        2
 40
-0.6
 41
30.0
 62
     5
 63
     7
421
 16777215
 74
     0
 91
        0
 64
     7
 65
   257
 75
     1
175
     1
 42
1.0
 92
        0
 66
     7
 43
1.0
 76
     1
 77
     6
 78
     2
 67
     7
 79
     5
170
     0
171
     0
290
     0
174
     0
 93
       13
 44
0.0
173
     0
291
     1
 45
0.0
1001
ACAD
1000
AcDbSavedByObjectVersion
1070
     0
  0
VISUALSTYLE
  5
2D
102
{ACAD_XDICTIONARY
360
30B
102
}
102
{ACAD_REACTORS
330
29
102
}
330
29
100
AcDbVisualStyle
  2
GouraudWithEdges
 70
     3
 71
     2
 72
     2
 73
     1
 90
        2
 40
-0.6
 41
30.0
 62
     5
 63
     7
421
 16777215
 74
     1
 91
        0
 64
     7
 65
   257
 75
     1
175
     1
 42
1.0
 92
        0
 66
   257
 43
1.0
 76
     1
 77
     6
 78
     2
 67
     7
 79
     5
170
     0
171
     0
290
     0
174
     0
 93
       13
 44
0.0
173
     0
291
     1
 45
0.0
1001
ACAD
1000
AcDbSavedByObjectVersion
1070
     0
  0
VISUALSTYLE
  5
31
102
{ACAD_XDICTIONARY
360
313
102
}
102
{ACAD_REACTORS
330
29
102
}
330
29
100
AcDbVisualStyle
  2
Hidden
 70
     6
 71
     1
 72
     2
 73
     2
 90
        0
 40
-0.6
 41
-30.0
 62
     5
 63
     7
421
 16777215
 74
     2
 91
        2
 64
     7
 65
   257
 75
     2
175
     1
 42
40.0
 92
        0
 66
   257
 43
1.0
 76
     1
 77
     6
 78
     2
 67
     7
 79
     3
170
     0
171
     0
290
     0
174
     0
 93
        1
 44
0.0
173
     0
291
     0
 45
0.0
1001
ACAD
1000
AcDbSavedByObjectVersion
1070
     0
  0
VISUALSTYLE
  5
3F
102
{ACAD_XDICTIONARY
360
32F
102
}
102
{ACAD_REACTORS
330
29
102
}
330
29
100
AcDbVisualStyle
  2
JitterOff
 70
    20
 71
     2
 72
     2
 73
     0
 90
        0
 40
-0.6
 41
-30.0
 62
     5
 63
     7
421
 16777215
 74
     1
 91
        4
 64
     7
 65
   257
 75
     1
175
     1
 42
1.0
 92
       10
 66
     7
 43
1.0
 76
     1
 77
     6
 78
     2
 67
     7
 79
     5
170
     0
171
     0
290
     0
174
     0
 93
        1
 44
0.0
173
     0
291
     1
 45
0.0
1001
ACAD
1000
AcDbSavedByObjectVersion
1070
     0
  0
VISUALSTYLE
  5
37
102
{ACAD_XDICTIONARY
360
31F
102
}
102
{ACAD_REACTORS
330
29
102
}
330
29
100
AcDbVisualStyle
  2
Linepattern
 70
    14
 71
     2
 72
     2
 73
     0
 90
        0
 40
-0.6
 41
-30.0
 62
     5
 63
     7
421
 16777215
 74
     1
 91
        4
 64
     7
 65
   257
 75
     7
175
     7
 42
1.0
 92
        8
 66
     7
 43
1.0
 76
     1
 77
     6
 78
     2
 67
     7
 79
     5
170
     0
171
     0
290
     0
174
     0
 93
        1
 44
0.0
173
     0
291
     1
 45
0.0
1001
ACAD
1000
AcDbSavedByObjectVersion
1070
     0
  0
VISUALSTYLE
  5
40
102
{ACAD_XDICTIONARY
360
331
102
}
102
{ACAD_REACTORS
330
29
102
}
330
29
100
AcDbVisualStyle
  2
OverhangOff
 70
    21
 71
     2
 72
     2
 73
     0
 90
        0
 40
-0.6
 41
-30.0
 62
     5
 63
     7
421
 16777215
 74
     1
 91
        4
 64
     7
 65
   257
 75
     1
175
     1
 42
1.0
 92
        9
 66
     7
 43
1.0
 76
     1
 77
     6
 78
     2
 67
     7
 79
     5
170
     0
171
     0
290
     0
174
     0
 93
        1
 44
0.0
173
     0
291
     1
 45
0.0
1001
ACAD
1000
AcDbSavedByObjectVersion
1070
     0
  0
VISUALSTYLE
  5
33
102
{ACAD_XDICTIONARY
360
317
102
}
102
{ACAD_REACTORS
330
29
102
}
330
29
100
AcDbVisualStyle
  2
Realistic
 70
     8
 71
     2
 72
     3
 73
     0
 90
        2
 40
-0.6
 41
30.0
 62
     5
 63
     7
421
 16777215
 74
     0
 91
        0
 64
     7
 65
   257
 75
     1
175
     1
 42
1.0
 92
        8
 66
   257
 43
1.0
 76
     1
 77
     6
 78
     2
 67
     7
 79
     3
170
     0
171
     0
290
     0
174
     0
 93
       13
 44
0.0
173
     0
291
     0
 45
0.0
1001
ACAD
1000
AcDbSavedByObjectVersion
1070
     0
  0
VISUALSTYLE
  5
3E
102
{ACAD_XDICTIONARY
360
32D
102
}
102
{ACAD_REACTORS
330
29
102
}
330
29
100
AcDbVisualStyle
  2
Shaded
 70
    27
 71
     2
 72
     2
 73
     1
 90
        2
 40
-0.6
 41
30.0
 62
     5
 63
     7
421
 16777215
 74
     0
 91
        4
 64
     7
 65
   257
 75
     1
175
     1
 42
1.0
 92
        8
 66
   257
 43
1.0
 76
     1
 77
     6
 78
     2
 67
     8
425
  7895160
 79
     3
170
     0
171
     0
290
     0
174
     0
 93
        5
 44
0.0
173
     0
291
     0
 45
0.0
1001
ACAD
1000
AcDbSavedByObjectVersion
1070
     0
  0
VISUALSTYLE
  5
3D
102
{ACAD_XDICTIONARY
360
32B
102
}
102
{ACAD_REACTORS
330
29
102
}
330
29
100
AcDbVisualStyle
  2
Shaded with edges
 70
    26
 71
     2
 72
     2
 73
     1
 90
        2
 40
-0.6
 41
30.0
 62
     5
 63
     7
421
 16777215
 74
     1
 91
       10
 64
     7
 65
   257
 75
     2
175
     1
 42
1.0
 92
        8
 66
   257
 43
1.0
 76
     1
 77
     6
 78
     2
 67
     7
 79
     3
170
     0
171
     0
290
     0
174
     0
 93
        5
 44
0.0
173
     0
291
     0
 45
0.0
1001
ACAD
1000
AcDbSavedByObjectVersion
1070
     0
  0
VISUALSTYLE
  5
3A
102
{ACAD_XDICTIONARY
360
325
102
}
102
{ACAD_REACTORS
330
29
102
}
330
29
100
AcDbVisualStyle
  2
Shades of Gray
 70
    23
 71
     2
 72
     2
 73
     3
 90
        0
 40
-0.6
 41
-30.0
 62
     5
 63
     7
421
 16777215
 74
     2
 91
        2
 64
     7
 65
     7
 75
     1
175
     1
 42
40.0
 92
        8
 66
     7
 43
1.0
 76
     1
 77
     6
 78
     2
 67
     7
 79
     3
170
     0
171
     0
290
     0
174
     0
 93
        1
 44
0.0
173
     0
291
     0
 45
0.0
1001
ACAD
1000
AcDbSavedByObjectVersion
1070
     0
  0
VISUALSTYLE
  5
3B
102
{ACAD_XDICTIONARY
360
327
102
}
102
{ACAD_REACTORS
330
29
102
}
330
29
100
AcDbVisualStyle
  2
Sketchy
 70
    24
 71
     1
 72
     2
 73
     2
 90
        0
 40
-0.6
 41
-30.0
 62
     5
 63
     7
421
 16777215
 74
     2
 91
        2
 64
     7
 65
     7
 75
     1
175
     1
 42
40.0
 92
       11
 66
     7
 43
1.0
 76
     1
 77
     6
 78
     2
 67
     7
 79
     6
170
     0
171
     0
290
     0
174
     0
 93
        1
 44
0.0
173
     0
291
     0
 45
0.0
1001
ACAD
1000
AcDbSavedByObjectVersion
1070
     0
  0
VISUALSTYLE
  5
36
102
{ACAD_XDICTIONARY
360
31D
102
}
102
{ACAD_REACTORS
330
29
102
}
330
29
100
AcDbVisualStyle
  2
Thicken
 70
    13
 71
     2
 72
     2
 73
     0
 90
        0
 40
-0.6
 41
-30.0
 62
     5
 63
     7
421
 16777215
 74
     1
 91
        4
 64
     7
 65
   257
 75
     1
175
     1
 42
1.0
 92
       12
 66
     7
 43
1.0
 76
     1
 77
     6
 78
     2
 67
     7
 79
     5
170
     0
171
     0
290
     0
174
     0
 93
        1
 44
0.0
173
     0
291
     1
 45
0.0
1001
ACAD
1000
AcDbSavedByObjectVersion
1070
     0
  0
VISUALSTYLE
  5
30
102
{ACAD_XDICTIONARY
360
311
102
}
102
{ACAD_REACTORS
330
29
102
}
330
29
100
AcDbVisualStyle
  2
Wireframe
 70
     5
 71
     0
 72
     2
 73
     0
 90
        0
 40
-0.6
 41
-30.0
 62
     5
 63
     7
421
 16777215
 74
     1
 91
        4
 64
     7
 65
   257
 75
     1
175
     1
 42
1.0
 92
        0
 66
   257
 43
1.0
 76
     1
 77
     6
 78
     2
 67
     7
 79
     3
170
     0
171
     0
290
     0
174
     0
 93
        1
 44
0.0
173
     0
291
     0
 45
0.0
1001
ACAD
1000
AcDbSavedByObjectVersion
1070
     0
  0
VISUALSTYLE
  5
3C
102
{ACAD_XDICTIONARY
360
329
102
}
102
{ACAD_REACTORS
330
29
102
}
330
29
100
AcDbVisualStyle
  2
X-Ray
 70
    25
 71
     2
 72
     2
 73
     1
 90
        1
 40
0.5
 41
-30.0
 62
     5
 63
     7
421
 16777215
 74
     1
 91
        0
 64
     7
 65
   257
 75
     1
175
     1
 42
1.0
 92
        8
 66
     7
 43
1.0
 76
     1
 77
     6
 78
     2
 67
     7
 79
     3
170
     0
171
     0
290
     0
174
     0
 93
       13
 44
0.0
173
     0
291
     0
 45
0.0
1001
ACAD
1000
AcDbSavedByObjectVersion
1070
     0
  0
DICTIONARYVAR
  5
2F2
102
{ACAD_REACTORS
330
2EE
102
}
330
2EE
100
DictionaryVariables
280
     0
  1
1:1
  0
DICTIONARYVAR
  5
2F0
102
{ACAD_REACTORS
330
2EE
102
}
330
2EE
100
DictionaryVariables
280
     0
  1
STANDARD
  0
DICTIONARYVAR
  5
2EF
102
{ACAD_REACTORS
330
2EE
102
}
330
2EE
100
DictionaryVariables
280
     0
  1
STANDARD
  0
DICTIONARYVAR
  5
2F4
102
{ACAD_REACTORS
330
2EE
102
}
330
2EE
100
DictionaryVariables
280
     0
  1
0
  0
DICTIONARYVAR
  5
2F5
102
{ACAD_REACTORS
330
2EE
102
}
330
2EE
100
DictionaryVariables
280
     0
  1
0
  0
DICTIONARYVAR
  5
2F3
102
{ACAD_REACTORS
330
2EE
102
}
330
2EE
100
DictionaryVariables
280
     0
  1
2
  0
DICTIONARYVAR
  5
2F1
102
{ACAD_REACTORS
330
2EE
102
}
330
2EE
100
DictionaryVariables
280
     0
  1
1
  0
DICTIONARYVAR
  5
2F6
102
{ACAD_REACTORS
330
2EE
102
}
330
2EE
100
DictionaryVariables
280
     0
  1
2
  0
DICTIONARY
  5
1A
330
19
100
AcDbDictionary
280
     1
281
     1
  3
ACAD_XREC_ROUNDTRIP
360
303
  3
BUMPTILE
360
1C
  3
DIFFUSETILE
360
1B
  3
OPACITYTILE
360
1F
  3
REFLECTIONTILE
360
1E
  3
REFRACTIONTILE
360
20
  3
SPECULARTILE
360
1D
  0
DICTIONARY
  5
12
330
11
100
AcDbDictionary
280
     1
281
     1
  3
ACAD_XREC_ROUNDTRIP
360
302
  3
BUMPTILE
360
14
  3
DIFFUSETILE
360
13
  3
FBXASSET
360
AC
  3
OPACITYTILE
360
17
  3
REFLECTIONTILE
360
16
  3
REFRACTIONTILE
360
18
  3
SPECULARTILE
360
15
  0
DICTIONARY
  5
22
330
21
100
AcDbDictionary
280
     1
281
     1
  3
ACAD_XREC_ROUNDTRIP
360
304
  3
BUMPTILE
360
24
  3
DIFFUSETILE
360
23
  3
OPACITYTILE
360
27
  3
REFLECTIONTILE
360
26
  3
REFRACTIONTILE
360
28
  3
SPECULARTILE
360
25
  0
DICTIONARY
  5
2F9
330
67
100
AcDbDictionary
280
     1
281
     1
  3
ACAD_XREC_ROUNDTRIP
360
2FA
  0
DICTIONARY
  5
2F7
330
65
100
AcDbDictionary
280
     1
281
     1
  3
ACAD_ROUNDTRIP_2008_TABLESTYLE_CELLSTYLEMAP
360
2F8
  3
ACAD_XREC_ROUNDTRIP
360
335
  0
DICTIONARY
  5
30F
330
2F
100
AcDbDictionary
280
     1
281
     1
  3
ACAD_XREC_ROUNDTRIP
360
310
  0
DICTIONARY
  5
30D
330
2E
100
AcDbDictionary
280
     1
281
     1
  3
ACAD_XREC_ROUNDTRIP
360
30E
  0
DICTIONARY
  5
31B
330
35
100
AcDbDictionary
280
     1
281
     1
  3
ACAD_XREC_ROUNDTRIP
360
31C
  0
DICTIONARY
  5
323
330
39
100
AcDbDictionary
280
     1
281
     1
  3
ACAD_XREC_ROUNDTRIP
360
324
  0
DICTIONARY
  5
315
330
32
100
AcDbDictionary
280
     1
281
     1
  3
ACAD_XREC_ROUNDTRIP
360
316
  0
DICTIONARY
  5
319
330
34
100
AcDbDictionary
280
     1
281
     1
  3
ACAD_XREC_ROUNDTRIP
360
31A
  0
DICTIONARY
  5
333
330
41
100
AcDbDictionary
280
     1
281
     1
  3
ACAD_XREC_ROUNDTRIP
360
334
  0
DICTIONARY
  5
321
330
38
100
AcDbDictionary
280
     1
281
     1
  3
ACAD_XREC_ROUNDTRIP
360
322
  0
DICTIONARY
  5
305
330
2A
100
AcDbDictionary
280
     1
281
     1
  3
ACAD_XREC_ROUNDTRIP
360
306
  0
DICTIONARY
  5
307
330
2B
100
AcDbDictionary
280
     1
281
     1
  3
ACAD_XREC_ROUNDTRIP
360
308
  0
DICTIONARY
  5
309
330
2C
100
AcDbDictionary
280
     1
281
     1
  3
ACAD_XREC_ROUNDTRIP
360
30A
  0
DICTIONARY
  5
30B
330
2D
100
AcDbDictionary
280
     1
281
     1
  3
ACAD_XREC_ROUNDTRIP
360
30C
  0
DICTIONARY
  5
313
330
31
100
AcDbDictionary
280
     1
281
     1
  3
ACAD_XREC_ROUNDTRIP
360
314
  0
DICTIONARY
  5
32F
330
3F
100
AcDbDictionary
280
     1
281
     1
  3
ACAD_XREC_ROUNDTRIP
360
330
  0
DICTIONARY
  5
31F
330
37
100
AcDbDictionary
280
     1
281
     1
  3
ACAD_XREC_ROUNDTRIP
360
320
  0
DICTIONARY
  5
331
330
40
100
AcDbDictionary
280
     1
281
     1
  3
ACAD_XREC_ROUNDTRIP
360
332
  0
DICTIONARY
  5
317
330
33
100
AcDbDictionary
280
     1
281
     1
  3
ACAD_XREC_ROUNDTRIP
360
318
  0
DICTIONARY
  5
32D
330
3E
100
AcDbDictionary
280
     1
281
     1
  3
ACAD_XREC_ROUNDTRIP
360
32E
  0
DICTIONARY
  5
32B
330
3D
100
AcDbDictionary
280
     1
281
     1
  3
ACAD_XREC_ROUNDTRIP
360
32C
  0
DICTIONARY
  5
325
330
3A
100
AcDbDictionary
280
     1
281
     1
  3
ACAD_XREC_ROUNDTRIP
360
326
  0
DICTIONARY
  5
327
330
3B
100
AcDbDictionary
280
     1
281
     1
  3
ACAD_XREC_ROUNDTRIP
360
328
  0
DICTIONARY
  5
31D
330
36
100
AcDbDictionary
280
     1
281
     1
  3
ACAD_XREC_ROUNDTRIP
360
31E
  0
DICTIONARY
  5
311
330
30
100
AcDbDictionary
280
     1
281
     1
  3
ACAD_XREC_ROUNDTRIP
360
312
  0
DICTIONARY
  5
329
330
3C
100
AcDbDictionary
280
     1
281
     1
  3
ACAD_XREC_ROUNDTRIP
360
32A
  0
XRECORD
  5
303
102
{ACAD_REACTORS
330
1A
102
}
330
1A
100
AcDbXrecord
280
     1
102
MATERIAL
148
0.0
149
0.0
149
0.0
 93
        0
 94
      127
282
     0
 72
     0
 77
     0
171
     0
175
     0
179
     0
273
     0
  0
XRECORD
  5
1C
102
{ACAD_REACTORS
330
1A
102
}
330
1A
100
AcDbXrecord
280
     1
270
     1
271
     1
  0
XRECORD
  5
1B
102
{ACAD_REACTORS
330
1A
102
}
330
1A
100
AcDbXrecord
280
     1
270
     1
271
     1
  0
XRECORD
  5
1F
102
{ACAD_REACTORS
330
1A
102
}
330
1A
100
AcDbXrecord
280
     1
270
     1
271
     1
  0
XRECORD
  5
1E
102
{ACAD_REACTORS
330
1A
102
}
330
1A
100
AcDbXrecord
280
     1
270
     1
271
     1
  0
XRECORD
  5
20
102
{ACAD_REACTORS
330
1A
102
}
330
1A
100
AcDbXrecord
280
     1
270
     1
271
     1
  0
XRECORD
  5
1D
102
{ACAD_REACTORS
330
1A
102
}
330
1A
100
AcDbXrecord
280
     1
270
     1
271
     1
  0
XRECORD
  5
302
102
{ACAD_REACTORS
330
12
102
}
330
12
100
AcDbXrecord
280
     1
102
MATERIAL
148
0.0
149
0.0
149
0.0
 93
        0
 94
      127
282
     0
 72
     0
 77
     0
171
     0
175
     0
179
     0
273
     0
  0
XRECORD
  5
14
102
{ACAD_REACTORS
330
12
102
}
330
12
100
AcDbXrecord
280
     1
270
     1
271
     1
  0
XRECORD
  5
13
102
{ACAD_REACTORS
330
12
102
}
330
12
100
AcDbXrecord
280
     1
270
     1
271
     1
  0
XRECORD
  5
AC
102
{ACAD_REACTORS
330
12
102
}
330
12
100
AcDbXrecord
280
     1
 70
     1
 90
1959938040
 71
     1
  1
F6C10BBD-5290-4240-B42F-A355E0FBA0CB
311
504B03040A0000080000F8B336483DEE336E79000000790000001B0000006175746F6465736B2D64657369676E2D7061636B6167652E786D6C3C3F786D6C2076657273696F6E3D22312E302220656E636F64696E673D227574662D3822203F3E3C666F726D6174733E3C666F726D61743E687474703A2F2F736368656D612E
311
6175746F6465736B2E636F6D2F64657369676E2D7061636B6167652F323030393C2F666F726D61743E3C2F666F726D6174733E504B0304140006080800F8B33648D486FD9CA0000000F4000000130000005B436F6E74656E745F54797065735D2E786D6C7D8EC10E82300C865F65E91D8A1E8C310C0EEA1BF002731658846E
311
D98AC1B77784ABF1D8FE5FBFBF75BBCE937A534CCEB38643598122B6FEE978D0B0485F9C41B54DDD7D022595594E1A469170414C76A4D9A4D207E29CF43ECE46F218070CC6BECC4078ACAA135ACF422C856C0E68EA1BF5669944DDD7BCDE7B1F8E415D77AECB980613C2E4AC91FC167A2B244592486606FC29C8FD7F045B9A
311
EF7053A7E60B504B0304140006080800F8B33648458FAA85EB0000007C01000008000000636F72652E786D6C8D90416EC3201045AF82665B61037652DBC244ADE59CA01740405C94182C03558F5F9C3852BBEB6A467FFE9B197D7EFA9E6FE8CBACC17AD7032D0820E394D7D64D3DA478C10DA093E0ABF7F1970D9093B3E961
311
9341F069F569D925E55D342E66D5796D76518660222075CB4D0F417D9A591632C5EC08D76291EA2A2753D06797E194AC468F2356E77DF662CD0A6218DAB7F1300C989DEB0AD7D581E0F7E378C484B56D3DD60D7D3D37BCDC60C1A39D9FF7D56A64341A0423349B2966EC83B1AEA25DDDBE90B62384979BFD0F9416FD4F2859
311
172BB6BFFBC002089A1FB90F042FB72C72B90795EB969BF801504B0304140006080800F8B3364855019EA25F0000007C00000007000000636E782E786D6C4DCB3B0E80201045D1AD90E915ED2CF8AC45050C11660C8261F98AB1B07AC9C97D42D718D865D3E909258CFD00CCE24AC6E326A164D74DC0B4128928FF32603847
311
2BA13128B1252AC747C6BAB984FC68F0B87FE8960A5C09FE86CFB69FBA01504B0304140006080800F8B3364872C29F0567010000020300000C0000006662782F636F72652E786D6C8D525B6E833010BC8AE5DF0A0C86A421328E5A949CA01770C0A156C046C646397E9747445345518564AC999DDDD90176B8B50D1AA4ED95
311
D1398EC30823A94B53295DE7D8BB4BB0C3E8C09935C6FD2AC3488B56E678843167B535BE5BA0D26827B503549B4A2EA0E87BE9302A1BB8E4B82FBF652B42E11D54F4D7B013E555D4328C43A0A18EB3DE593080E621E389F9E57C6364C639F35E550BAB2A98A62E4A5ACC8B22FB386E8A22A0A73409D26413059FDBE3368868
311
96A5C77417BF9F768C8C62CE9C6AEFEE4A2B859315E6348AA1380E28FDA2749FC4FB347B8BB27D143132963F887C57FD53E49576095DECCEB21EF3188C4CC49F6D2122877A31801FC219194384D794F063D0100884ECC4B9B9EF71056890A5333605A6327EA506D178095323343D8CCC2C749E1AC0664FFBD0177D5EF7800F
311
28740DD68483EBD9BB713A9BA72E5174D20683BB216D6C2B9AD5DC6C713DD7414FE5A5698CFD8F9A2CAB92254C32FEBDFC07504B0304140006080800F8B33648D3D226CF7C0000009D0000000B0000006662782F636E782E786D6C4DCCD10A83201805E05791FFDE4AE786811AC8DC7BC4B2909986D3D8E3CF4617BB39073E
311
0E470C9FD5A3DDA6B78B4102693A40363CE3E4C222A1E4197340831229C6FC370314C6D54A38189458522CDB49939DC7E27355EFC2EB44DEF55773233D368C50CC2EF48EB9E6A486215473FAA09A41AB44FB7BAA7D1CAB2F504B0304140006080800F8B33648B7FE71932B01000015020000310000006662782F3830393545
311
3631392D453431322D343332442D384238312D3842453132423832463242342F636F72652E786D6C8D515B6EC32010BC0AE22B55651BB043EC0813296A7A825E8000495162B07854397EA176A5F62F3F2C9A9D991DEDB2C363BA832FED83717684B84610682B9D32F63AC2142F550FC18133EF5CFC4383C08A498FB0C090B3
311
AB77695E21E96CD43666D43AA5575084A02304F29E3F230CF2534FA216296646B8D5B3903771D535AE733BF3380BD1E7006019525EC87B346C4F140FD5A9C3A4EA5AF256F5C71EE7E784C9B127EFE4D8B1661172969251ABDCA81CC75C8CF6CF9A143167D14CBFF1A5D7226A05394198560857847C10B26FF1BE1B5ED1B047
311
883585FE4F9466F5A428191B5BB2C65D640172CC9AA5C19972E97CFF0DA31FB3F31194799BA0E50BE4A846688729A5ED8E350B376F209BD26E350DD1F9BCE1CDED9CE978BB38D38EB3A61C29979F0BE65A0ECABF01504B0304140006080800F8B33648F1C96B984E01000033030000300000006662782F3830393545363139
311
2D453431322D343332442D384238312D3842453132423832463242342F636E782E786D6CD593BD6E032110845F05D146F7EB93155B1C9652E40952A4E560ED107370E2278ADF3E8B8D1D372E52A641A7D96166F58963BBEFD9902FF0413B3BD2AE6E29012B9DD2F630D214F7D533253BCEBC73F1CE468915338C34CB94B383
311
7769299282BD4826A26AB43D16D14370C94B0828E79BC438290C0680AD128A304FA014287233E2D71E3CAE82E27422F103C8EBCB3B71D327C818589353386B720767F92C4D77264AA411218C34C80F98452D52740AC2B156228ABAABAF5D0F76FA4D22F9C2B532794D72F948F34979D9A8468EACC12167217AA4574CF1B400
311
E562598C962222E4E66CBC78384BDAC6F550BC1AC17B7477EBD53060D879C659D4331487F4202228CAFBB65B576D57F5FD5BDF6F57DD76D83CB59B6DDBB226DB399B9C33E512C680770B91CE46B091F28E3579FC085FF111A53DB276FEF4079008A0B45EE8DC32FE339FE6FCBE1197C7BF80FF00504B0304140006080800F8
311
B33648E74C7C79A405000081100000340000006662782F38303935453631392D453431322D343332442D384238312D3842453132423832463242342F6F626A656374732E786D6CAD575B6FDB3614FE2B82F6B23DD8966C274B0645852F4D6174698B1A2DF660C0A0254AE1425D4052A9B35FBF8F22254BAE9D7A435F74E1E5
311
F09CEF7CE7C2E0CD3EE3CE33159215F99DEB0F3DD7A17954C42C4FEFDC4A25831BD7791306A228546799EBE424A377AE1E76C320154555DAA19826A4E2EA68F47EFE9723239A53D7893891F2CE95D123CDC89054AA88A97C1AC64491619AEC87FED02CEC8B4D05291F8F849644D05C41538CE790E218A5FCFEAFE78EC260A4
311
E7C3403FEDAAC9F955A3DA9EFEF92C978AE4D177871D8999F8D3E5DBF1D5EDE06A3A9D0CA6D7637F30BF9F2F07FEEF136F71BD58DCCEDEDEE260A90424594D044DDCF01DB0112C0A46662A0C2A96ABC9D82EB10E1A09FACCB4A7DC70ECF8C1C8AC69ADB3469E523F2AF29C46355640A3B6CF8A8E6949F3183E675442B30E42
311
5EFFD7D73876A627FADF1ED91DBE0C81EE8E8EA046F7E6DDD5B4D8FD0D13E4250C12926A061A2CADA186ABDE01E15D51703BC7A49311450523DCE16C27887871432CD54BC2A027463359E868D016B821BC60A6FB744118FD98E7A7B44C2ACE358DDDB08E822D62852A596BC6FEA1E2A07D1719E8045F6936DC5883D44B49DD
311
F0D650E4E6884D064827E12485CB61A6DE39191F19BAD071BA5ABAE1FBFBDD7EAD63F7F4E1A5284A2A94A60FA8D538AE796B94AC4EFE459ED31BDC23550EA07C06F21F10EA0755E037C1F6D3FDD49EA204C96552880CBE713C67E0E1E1397EFDD4DF9DAF60D46EEE7BEF1C9E70B686EA27E0D9B7A1EBCB0E9C61F00CC21762
311
624D5B4784236D3CB01C00699238BCC010F270B2DBBBE10A590E5919BB080F7D980C759FF1198CAC18248AFAA4CE3B07964769F182040DD86A46420D437EABE0C14FDFA5B3FA60BBEC1CBC573F85AEB3E5FAFDBA120989E8838DE9254D58CE144ADC81375D857A98F72C7AA22FDF0A11C3D0EFF15E77F1CEEC5112686BCC35
311
F06993D3F5CFE1E4DE0111F6A5854E37C10F4E8011BAB076E43F301951CE494E8BAA39F7D5FA81B26120D6C1AE99DC169843610169CCCC510CA2484782951AC4B65AB5497378C6BA2FAB0F60A41BCE5FFE242FDDECB53BE4DEA8E085D8EE5EB6262D9D84FA6B9FDB1683919602BAD741D2C4BF057D1BB324A92492E0095CBF
311
AE165DDFE9B48014D14835D13285FD082E222C691BB9A8D682A09216F996A16E22EE4E1ED0950F482D036A81E7349694275BC679956D13C6518DB61929CFC0F1FFF5DF5559B9255951E5EA8CEC9EEAA80E7DDD7BEC95DF888A1EDD705DBF0773E4DE98C667C8A06BC909AC7AAEBDBF5EF8DE1C0DD3D5F8D61B4CC7536F309F
311
8EEF07B3C9D5D55BEF7E3EF316F3C64F469330684A4D37A2E12594B6A012CCBAEFCB0AF16393801B3E102537EF4C7836EF2FAB217AE160843DA897EDC659FC8CBE8FC63F1670587952D02A2B39CD68AE888EA107FDC13F13F4193D65CCF82A2329BD40CAC777EB23633072C1BE4F3ADEE9B7A3BD7674A103F2A410F55865BB
311
9C307EB43135480ECB3CB5F8353E69DFA6D034BFFACF3A069DA92C388B91076327A5454615B2E10545486454827ADD9E3EB6778F0B763F9B0E51911DA78D268F044D3297080B50AB8A547FDCF9054D9DEEABEE5C94DBE1131E3653B80E3873E7A249572CA272B84381D6AD502D1C5CEA76F268FC499E72F4DA6653FBDFEED2
311
D8F44A72BBE492FEC9DA6552B8350069A444DF808608DEA99509835A373B1FFD27C31B751CA2F0B9AB546BCB61A035A63E06216A8CB2B70534314FF6E83D02F575B3FC61BDA687C845B7AC574960A40E1411697D53D0FA599566CB4F237428CEEAA353F22A852F2F9734101464AE74808345608595591205AA2EFED87C1205
311
6EB29973CF4001E7D7FDCDF56F9B459165456E8636337B1F76D68FB8DDC61B2407AAAF257233F6FCF1A6BE0ED81BCA7647241D92583E61009E15AC05BAE77EF0D2DC195187CC44BB6EA45D71C4D0D5D2B1856D0AA1962EDDDCAAC141E391530731A4AF943A62BA0BCA576F04A37A295410E8E5C37F01504B03041400060800
311
00F8B33648000000000000000000000000350000006662782F38303935453631392D453431322D343332442D384238312D3842453132423832463242342F76657274696365732E62696E504B0304140006080800F8B33648F270F1330600000004000000360000006662782F38303935453631392D453431322D343332442D
311
384238312D3842453132423832463242342F747269616E676C65732E62696E636660600000504B0304140006080000F8B33648000000000000000000000000370000006662782F38303935453631392D453431322D343332442D384238312D3842453132423832463242342F617474726962757465732E62696E504B030414
311
0006080800F8B33648D5987DFC8F00000041010000360000006662782F38303935453631392D453431322D343332442D384238312D3842453132423832463242342F6469726563746F72792E786D6C858F410EC2201045AF4266AF15DDB800BA74E7C21B903225242D6328188F2FA5C4183471359997F9FF81E89FF3C41E18
311
16475E02DF1F80A11FC8386F25A438EECEC07A250251FC3803E6F58C12560C4AD840E95E91C151A72936F496F35732D860FE635F62C8F2DA16B505C545B74125BAA2FA9E05D7CC053D063734D5C7665FD55B6B8D15D5E9BFEAFD8490FFA45E504B0304140006080800F8B336485624841DFF000000A00100003B0000006662
311
782F38303935453631392D453431322D343332442D384238312D3842453132423832463242342F7265736F75726365732F636F72652E786D6C8D905D6E83301084AF82F6B5026C43D2808CA3069113F40296D9502BC146FEA97AFC9A40A5F6AD2F5E6BE61BED68F9F96B7E649FE8BCB6A6035A10C8D0283B6A337510C32D3F
311
417616DC591B7E619019396307AB0C824FCEC665979435014D48AAB123EEA2F41E0364EA913E1D78F581B32C640C89F0F76291EA2E272C6891ECC409EE834B05B26DC9FA8270E86D740A3D2F3757F018F5B8337A4C3BF54DA303D1F7CDDB70E82F39BBD6555E5707925F8EC33127AC69EAA13ED1D7EB89976B58F0A0E79F8E
311
CAA10C388260842698E68CBD33D656B4AD9B17D2B484F072C5FF84E232FE3314B50915DBEB6E310F82A6224F43F072BD571ACF63A6B9DE567C03504B010214000A0000080000F8B336483DEE336E79000000790000001B00000000000000000000000000000000006175746F6465736B2D64657369676E2D7061636B616765
311
2E786D6C504B01021400140006080800F8B33648D486FD9CA0000000F40000001300000000000000000000000000B20000005B436F6E74656E745F54797065735D2E786D6C504B01021400140006080800F8B33648458FAA85EB0000007C010000080000000000000000000000000083010000636F72652E786D6C504B0102
311
1400140006080800F8B3364855019EA25F0000007C000000070000000000000000000000000094020000636E782E786D6C504B01021400140006080800F8B3364872C29F0567010000020300000C00000000000000000000000000180300006662782F636F72652E786D6C504B01021400140006080800F8B33648D3D226CF
311
7C0000009D0000000B00000000000000000000000000A90400006662782F636E782E786D6C504B01021400140006080800F8B33648B7FE71932B0100001502000031000000000000000000000000004E0500006662782F38303935453631392D453431322D343332442D384238312D3842453132423832463242342F636F72
311
652E786D6C504B01021400140006080800F8B33648F1C96B984E010000330300003000000000000000000000000000C80600006662782F38303935453631392D453431322D343332442D384238312D3842453132423832463242342F636E782E786D6C504B01021400140006080800F8B33648E74C7C79A405000081100000
311
3400000000000000000000000000640800006662782F38303935453631392D453431322D343332442D384238312D3842453132423832463242342F6F626A656374732E786D6C504B01021400140006080000F8B3364800000000000000000000000035000000000000000000000000005A0E00006662782F38303935453631
311
392D453431322D343332442D384238312D3842453132423832463242342F76657274696365732E62696E504B01021400140006080800F8B33648F270F13306000000040000003600000000000000000000000000AD0E00006662782F38303935453631392D453431322D343332442D384238312D3842453132423832463242
311
342F747269616E676C65732E62696E504B01021400140006080000F8B336480000000000000000000000003700000000000000000000000000070F00006662782F38303935453631392D453431322D343332442D384238312D3842453132423832463242342F617474726962757465732E62696E504B010214001400060808
311
00F8B33648D5987DFC8F0000004101000036000000000000000000000000005C0F00006662782F38303935453631392D453431322D343332442D384238312D3842453132423832463242342F6469726563746F72792E786D6C504B01021400140006080800F8B336485624841DFF000000A00100003B000000000000000000
311
000000003F1000006662782F38303935453631392D453431322D343332442D384238312D3842453132423832463242342F7265736F75726365732F636F72652E786D6C504B0506000000000E000E0080040000971100000000
310
504B03040A0000080000F8B336483DEE336E79000000790000001B0000006175746F6465736B2D64657369676E2D7061636B6167652E786D6C3C3F786D6C2076657273696F6E3D22312E302220656E636F64696E673D227574662D3822203F3E3C666F726D6174733E3C666F726D61743E687474703A2F2F736368656D612E
310
6175746F6465736B2E636F6D2F64657369676E2D7061636B6167652F323030393C2F666F726D61743E3C2F666F726D6174733E504B0304140006080800F8B33648D486FD9CA0000000F4000000130000005B436F6E74656E745F54797065735D2E786D6C7D8EC10E82300C865F65E91D8A1E8C310C0EEA1BF002731658846E
310
D98AC1B77784ABF1D8FE5FBFBF75BBCE937A534CCEB38643598122B6FEE978D0B0485F9C41B54DDD7D022595594E1A469170414C76A4D9A4D207E29CF43ECE46F218070CC6BECC4078ACAA135ACF422C856C0E68EA1BF5669944DDD7BCDE7B1F8E415D77AECB980613C2E4AC91FC167A2B244592486606FC29C8FD7F045B9A
310
EF7053A7E60B504B0304140006080800F8B336481C4CF2BAE90000007C01000008000000636F72652E786D6C8D90416EC3201045AF82665B61037113DBC244B573845E0001715062B00C54397E70E248EDAEAB19FDF96F66F4F9F13EDDD08F5982F5AE035A1040C629AFAD1B3B48F18C6B4047C117EFE32F1B202727D3C12A
310
83E0E3E2D3BC49CABB685CCCAAF3DA6CA20CC14440EA969B0E82BA98491632C5EC08D76296EA2A4753D07797E194AC46AF2356E77DF66CCD02A2AE493FF45585E9D0F4B862FD17AE077AC084D2136D3E4FFB435FF37285058F767ADF578B91D168108CD07D3663C6BE196B77B4AD9A0FD2B484F072B5FF81D2ACFF0925EBE2
310
8E6DEFBEB00082E6479E03C1CB358B5C9E41E5BAE6261E504B0304140006080800F8B3364855019EA25F0000007C00000007000000636E782E786D6C4DCB3B0E80201045D1AD90E915ED2CF8AC45050C11660C8261F98AB1B07AC9C97D42D718D865D3E909258CFD00CCE24AC6E326A164D74DC0B4128928FF326038472BA1
310
3128B1252AC747C6BAB984FC68F0B87FE8960A5C09FE86CFB69FBA01504B0304140006080800F8B33648556EB3AA65010000020300000C0000006662782F636F72652E786D6C8D52ED8E8320107C15C2DF8B22D66BB5419AB37D847B01AAD423553008A68F7FEB47E3F5D2348D0992999DDDD95176B8B50D1AA4ED95D139A6
310
618491D4A5A994AE73ECDD2548313A70668D717FCA30D2A295391E61CC596D8DEF16A834DA49ED00D5A6920B28FA5E3A8CCA062E39EECB1FD98A50780715FD35EC447915B50C690834D471D63B0B06D03C643C31BF9C6F8CCC3867DEAB6A615505D3D445498B799A46C5B14892801EB32248E2E22B488F741744949E68F679
310
DAEE8A949151CC9953EDDD5D69A570B2C23C8EE8168A8338FE8EE3FD86EE93EC23CAF651C4C858FE20F25DF5A6C82BED36F1627796F59853303211FFB685881CEAC5007E0867640C115E53C28F41432010B213E7E6BEC715A04196CED80498CAF8951A44E3254C8DD0F43032B3D0796A009B3DED13BFE8F3BA077C40A16BB0
310
261C5CCFDE8DD3D93C7589A2933618DC0D69635BD1ACE6668BEBB90E7A2A2F4D63EC3B6AB2AC4A9630C9F8F7F25F504B0304140006080800F8B33648BDF6D61B7E0000009D0000000B0000006662782F636E782E786D6C4DCCD10E82201886E15B61FF39A949081BE0CAF03E5CA263223482D6E5A7CD838EBEEDD9B757B49F
310
D5A1B7892F1BBC84EA540232FE1146EB6709394D98016A958821A4BF1B203FAC46C2CEA0C41C437E1E349A69C82E6DEAAC5F0E244D4FBAFAD663466B8A09A30C737DB9637EEEAA6BC91BCD98864289E257DA760FAB2F504B0304140006080800F8B33648196B3A462D01000015020000310000006662782F34374634433342
310
462D383633362D343836382D394535442D3932433141303937453838452F636F72652E786D6C8D515B6EC32010BC0AE2AB55850DD8B5718489DA3439412FE000495162B07854397E71ED48ED5F7E58343B333BDAE5DBDB7805DFDA07E36C0F498121D0563A65ECB987299E1083602BB8772EFEA141608751F77086A1E067EF
310
D2B442D2D9A86DCCA8754AAFE010828E10C86BFEF430C82F3D0EC5906266844B310DF2329C75418ADCCE3CC143F439005886CC2F14757BA877D5FB01B1A66A50CD1A86BAFDEB07EAE88EBCE1AEDD33B6E7E522143C25A356B951398E3919ED1F3599C5824733DEE34BAF87A81514149306618228FDA47453914DDDBDE06E83
310
312F67FA3F519AD483A2646CACE81A77910528082F9786E0CAA5E3F51E46DF26E72398E73D052D9FA1C005C62D6B19C11D2F176EDE40366DEAD53444E7F3869F2EC74CAF56E7A616BC9C8F94CBEF05739D0F2A7E00504B0304140006080800F8B33648976EA48F5501000033030000300000006662782F3437463443334246
310
2D383633362D343836382D394535442D3932433141303937453838452F636E782E786D6CBD93CD6EC32010845F0571ADFC1BCB4A224CA41EFA043DF48A6193D260B00057CDDB7749489A4B0E95AA5E90353BCCAC3E61B6FB9A0CF9041FB4B3036DCA9A12B0D2296D0F035DE2BE5853B2E3CC3B17EF6C945831C140934C393B
310
78B7CC5952B0178B89A81A6D8F59F410DCE2250494D34D629C140603C0160B8A308DA014287233E2D71E3CAE82E27822F11DC8CBF31B71E307C81858955238AB520767E9CC4D77264AA411210C34C87798442996E8148463A9441465535EBB1EECF49344D2856BE5E23549E5034D27E579A31239B20A879C85E8915E36C5D3
310
0C948B79365A8A8890ABB3F1E2E16CD136F65DF66A04EFD1BD6AFBF51AC3CE33CEA29E203BA407114151DED64D5FD44DD1B6AF6DBB5D35DB6EF3546FB675CDAA64E76C74CEE44B1803DECD443A1BC146CA1B56A5F1237CD94794F6C8DAF9D32F402280DC7AA173CBF84B3E4DBFEABA7FE4539DDF37E2F2F817F06F504B0304
310
140006080800F8B33648FA5DD1B6640700009A1B0000340000006662782F34374634433342462D383633362D343836382D394535442D3932433141303937453838452F6F626A656374732E786D6CED595B73A33816FE2B14FB32FB600CBE643B5B84A9D8E974B96632D3359E9EDA07575132C8441B212849A4E3FDF57B7401
310
033109DEC9BECD830D08E9E89CEF5C75087F7CC9A9F38CB92005BB7103CF771DCC9222252CBB712B79987C729D1FA39017856C4D731D86727CE3AA61370A335E54A51D4AF1015554F646EF57FF72448219769D8422216E5C913CE21C79A892458AC593972289BCECF0E2059E99D8259B71543EF688968863268153186740C5
310
314C05DD47DF9D46E154BD8F42F56F67CD47CD5A0CCF9A6AA9BB5C12262462C92B967A64E6A3589A078BBBCFB3E5F564B958CC278BAB593059DDAFEE26C13FE6FEFA6ABDBEBEFD7C0DECED8B825A99525C629682FE8E6E148453F5A611DD22708EEBA4600C271A48804A8BD52748B080AD5AF0F9DDC74049D47AAD256C3D2F
310
D47BCB426B78DEA532346B1C101DBA2088DDAE96B8BEB6E52BF6FF06C1C518A3E4024BE056480EDAB5F070F00A37F2C3A9198DC2FD4917443839929813441D4AF61C71500A4C5553A2D02CB06494737020E52809B4E6CCEBAE6D8167BEEF3AE7B83C54942ACF7023ED5831B81F96427346FE83F989FB3632C013485B11263F
310
592EE5B1C46E741D4EF56014AACB7C665F1A209D034599D08898B73D41D7CAF537776EF4D3FDFE65ABC2C1F9CD4B5E94984B65744A8F9A2F30647B5528D96D83519A530B401803AA5D7902E53740FE17881E2756406F9CBC2C5E1676AEE4888943C173D08DE33B131FFE7C27D0FFEABE75174E9BC55DED0DE1096EAAA0FAF4
310
E7F1ECCAA0B1B2FCB7E08CC26730F882CFEDAB6D8228D8F303610090321287163004A1FDB07F71A30D044E08F4B00AD128009181DD67B80DA796CC492BB57B59AF6380A8DD633E4649009BB6486063404F5F207B70929CD4D4167108DEE58798EBEDDDF6A76DC50F28C10FD6A7EFF0813022216B9E67A8837947A2277CFC5E
310
F014047D8DF7B68D776EB71280B6C25C019FD520A887D3CE9D0D125897152ADC84EFEC0042A85CDDA2FF40448229450C1755BD6F13DD94A1361E6F6B06379A1988E7B39E0973FC4C5455014E739AD16114F27EC249A94074A32F46B226687A03D27DDBFC0216D9CC1F98B561107A19A2BFEBA07506878E65D7485B201A81F7
310
A7709E14B4E0F1FE189B48E7422D016C74BDE58F0E5188F546498A0A7890F6BB3AA46446DA382587432520AE9E61F18FCDBA6D0EBE370F964EFBBFE78C0B88B6E0BB885BBFEBED11931C65383EA07468BBF66E0D6DA1490E90E6F840412EF24CE4314632F6539C5D02CD45C4AF3F947A460B2108C302F2D559F0DB68F81E04
310
12A3CD9A65A5D51ED044C43996885E8280223300AE4E3BBAC64DA074789FC7C67ADFD2589BE8FFC92238825AB2603181521472C8BB8C07DE126248175D83720F5FB0B69AB6168356504224C7F83B26D9A3BC0475437E00F7048E24958C8B122560D623C8BEF215A5D41EEF7B943CA9FC112715FD280311981E62426995C7F0
310
230C4E1E635CBB094C6FA2D0226E629FC439146548567CCC26574BFFD53EA666E887C0D6460742216CC7392A0750EF04445D8F380DF896FA8052F7555EC6282F2A36CA50BC79DF9B2CF9BE5A15D991FCAA5211CAC69AB025188584C926ABD6311B4C5D075670231DA88EB1407949CD29EC9DC41334DEA4290F6EC0AD9F7EEC
310
0639147E03DA6B47D4450D83E5B1531888EF48268F6EB4D5D7C90AEAEF14A7A7545FD79AED0A10105391BCE2C4AAE8DB06CA1B5BA3B9D1039262F7C564DDFAFA6DE341F7239CC21AA85D9A851B05748E9944AA32795037F4370421B843C38C6F544EBD84CA6D9AEAAA11D17B32A4CE4E19D1D934275EF9885991C38FED084B
310
6895E21D4AC553FC2069BC258A752BA597931AE33705FCF5CBB6070F8C8C10E9AB2AF0F0F7DE5A3BBA56E5D25922F2B1CAF70C1108821DD132A31BAF6499D548ADE5E6AACE145077818159152FFE3A59B4DB117F9D2C326B187FEA64B13AFE8C8EEDBE482B9D27CAAE2F3A0634F94951F98863806E3B34549B2C6292B995DF
310
3A530C41B18EF2A3ABB13A681882431CFFCF597B280B9AED7AFC5F96B5835715C74559A5335975A9CE54AE9B760EBBBF5A07FE0A3AB2CBD9B53F59CC16FE64B598DD4F6EE7CBE567FF7E75EBAF570D9ADA51A3B009663A77C1B3096AF5B07AB2184057561494A4709A4F9D0C43CC9770A61FD13EE73916903CDBCDEED436E5
310
47AC7E367D4E89F614D79C3C2268105301691D30AA12D91D77FE06AD490907ED1B179A46DE13FC59AB741DC83C372EB40A2449B0F0F6D066520D3D4D1C52AECEFD9618E08358A652A259D43C37AB14369DF0DF4C199306AC5C9D1E06146E2574BF3A1D0ACD9BE529B948F09A1D0749B8DD5712AA3523CB69A011466F7352BF
310
918D12F664B77E01D77D5BACC0D3733A888CFA64F0A61118AA138978A6FBDD8A31CBD2EDDDD729F4D99CCDAF4E49AB0C74399ED2846330E64A1554604560159666892498EAFA9FBBAFBC804F3CB9A3AB22E787974F577FDFAD8B3C2F9819DADDC2A92C850F45CEF6113EFBA43B281EB06AAE8BDDCC0F663BDDD4B67DF6788F
310
04F6545504037531A104E9991CD8E5AB06956D5F4E952A7AD337778E0DA2D00C3076F4AAC76B3E7239E043EA738AF218EDE7B5B46FF6B5A77A2AD804878E74F45F504B0304140006080000F8B33648000000000000000000000000350000006662782F34374634433342462D383633362D343836382D394535442D39324331
310
41303937453838452F76657274696365732E62696E504B0304140006080800F8B33648F270F1330600000004000000360000006662782F34374634433342462D383633362D343836382D394535442D3932433141303937453838452F747269616E676C65732E62696E636660600000504B0304140006080000F8B336480000
310
00000000000000000000370000006662782F34374634433342462D383633362D343836382D394535442D3932433141303937453838452F617474726962757465732E62696E504B0304140006080800F8B33648D5987DFC8F00000041010000360000006662782F34374634433342462D383633362D343836382D394535442D
310
3932433141303937453838452F6469726563746F72792E786D6C858F410EC2201045AF4266AF15DDB800BA74E7C21B903225242D6328188F2FA5C4183471359997F9FF81E89FF3C41E1816475E02DF1F80A11FC8386F25A438EECEC07A250251FC3803E6F58C12560C4AD840E95E91C151A72936F496F35732D860FE635F62
310
C8F2DA16B505C545B74125BAA2FA9E05D7CC053D063734D5C7665FD55B6B8D15D5E9BFEAFD8490FFA45E504B0304140006080800F8B33648C3223802FD000000A00100003B0000006662782F34374634433342462D383633362D343836382D394535442D3932433141303937453838452F7265736F75726365732F636F7265
310
2E786D6C8D905D6E83301084AF82F6B5026C431340C6512147E8052CB3A156828DFC53F5F835814AED5B5FBCD6CC37DAD1F2CBD7F2C83ED1796D4D0FB42090A15176D266EE21865BDE407611DC591B7E619019B9600F9B0C82CFCEC6F5909435014D48AAB1131EA2F41E0364EA913E3D78F5818B2C640C89F0F76295EA2E67
310
2C6891ECC409EE834B05B27DC9F68270E86D740A3D2F7757F018F574307A4A3BF54DA303D134641887BACAE9D80E79CD86B7BC19E93927945E69FB7A3D9D8786975B58F0A0979F8ECAA10C388160849E129C33F6CE5857D1AE6E5F48DB11C2CB0DFF138AEBF4CF50D42654ECA8BBC73C089A8A3C0DC1CBED5E693C8F99E676
310
5BF10D504B010214000A0000080000F8B336483DEE336E79000000790000001B00000000000000000000000000000000006175746F6465736B2D64657369676E2D7061636B6167652E786D6C504B01021400140006080800F8B33648D486FD9CA0000000F40000001300000000000000000000000000B20000005B436F6E74
310
656E745F54797065735D2E786D6C504B01021400140006080800F8B336481C4CF2BAE90000007C010000080000000000000000000000000083010000636F72652E786D6C504B01021400140006080800F8B3364855019EA25F0000007C000000070000000000000000000000000092020000636E782E786D6C504B01021400
310
140006080800F8B33648556EB3AA65010000020300000C00000000000000000000000000160300006662782F636F72652E786D6C504B01021400140006080800F8B33648BDF6D61B7E0000009D0000000B00000000000000000000000000A50400006662782F636E782E786D6C504B01021400140006080800F8B33648196B
310
3A462D0100001502000031000000000000000000000000004C0500006662782F34374634433342462D383633362D343836382D394535442D3932433141303937453838452F636F72652E786D6C504B01021400140006080800F8B33648976EA48F55010000330300003000000000000000000000000000C80600006662782F
310
34374634433342462D383633362D343836382D394535442D3932433141303937453838452F636E782E786D6C504B01021400140006080800F8B33648FA5DD1B6640700009A1B000034000000000000000000000000006B0800006662782F34374634433342462D383633362D343836382D394535442D393243314130393745
310
3838452F6F626A656374732E786D6C504B01021400140006080000F8B336480000000000000000000000003500000000000000000000000000211000006662782F34374634433342462D383633362D343836382D394535442D3932433141303937453838452F76657274696365732E62696E504B01021400140006080800F8
310
B33648F270F13306000000040000003600000000000000000000000000741000006662782F34374634433342462D383633362D343836382D394535442D3932433141303937453838452F747269616E676C65732E62696E504B01021400140006080000F8B33648000000000000000000000000370000000000000000000000
310
0000CE1000006662782F34374634433342462D383633362D343836382D394535442D3932433141303937453838452F617474726962757465732E62696E504B01021400140006080800F8B33648D5987DFC8F000000410100003600000000000000000000000000231100006662782F34374634433342462D383633362D3438
310
36382D394535442D3932433141303937453838452F6469726563746F72792E786D6C504B01021400140006080800F8B33648C3223802FD000000A00100003B00000000000000000000000000061200006662782F34374634433342462D383633362D343836382D394535442D3932433141303937453838452F7265736F7572
310
6365732F636F72652E786D6C504B0506000000000E000E00800400005C1300000000
  0
XRECORD
  5
17
102
{ACAD_REACTORS
330
12
102
}
330
12
100
AcDbXrecord
280
     1
270
     1
271
     1
  0
XRECORD
  5
16
102
{ACAD_REACTORS
330
12
102
}
330
12
100
AcDbXrecord
280
     1
270
     1
271
     1
  0
XRECORD
  5
18
102
{ACAD_REACTORS
330
12
102
}
330
12
100
AcDbXrecord
280
     1
270
     1
271
     1
  0
XRECORD
  5
15
102
{ACAD_REACTORS
330
12
102
}
330
12
100
AcDbXrecord
280
     1
270
     1
271
     1
  0
XRECORD
  5
304
102
{ACAD_REACTORS
330
22
102
}
330
22
100
AcDbXrecord
280
     1
102
MATERIAL
148
0.0
149
0.0
149
0.0
 93
        0
 94
      127
282
     0
 72
     0
 77
     0
171
     0
175
     0
179
     0
273
     0
  0
XRECORD
  5
24
102
{ACAD_REACTORS
330
22
102
}
330
22
100
AcDbXrecord
280
     1
270
     1
271
     1
  0
XRECORD
  5
23
102
{ACAD_REACTORS
330
22
102
}
330
22
100
AcDbXrecord
280
     1
270
     1
271
     1
  0
XRECORD
  5
27
102
{ACAD_REACTORS
330
22
102
}
330
22
100
AcDbXrecord
280
     1
270
     1
271
     1
  0
XRECORD
  5
26
102
{ACAD_REACTORS
330
22
102
}
330
22
100
AcDbXrecord
280
     1
270
     1
271
     1
  0
XRECORD
  5
28
102
{ACAD_REACTORS
330
22
102
}
330
22
100
AcDbXrecord
280
     1
270
     1
271
     1
  0
XRECORD
  5
25
102
{ACAD_REACTORS
330
22
102
}
330
22
100
AcDbXrecord
280
     1
270
     1
271
     1
  0
XRECORD
  5
2FA
102
{ACAD_REACTORS
330
2F9
102
}
330
2F9
100
AcDbXrecord
280
     1
102
ACAD_ROUNDTRIP_2012_MLEADER_STYLE
298
     1
  0
CELLSTYLEMAP
  5
2F8
102
{ACAD_REACTORS
330
2F7
102
}
330
2F7
100
AcDbCellStyleMap
 90
        3
300
CELLSTYLE
  1
TABLEFORMAT_BEGIN
 90
        5
170
     1
 91
        0
 92
    32768
 62
   257
 93
        1
300
CONTENTFORMAT
  1
CONTENTFORMAT_BEGIN
 90
        0
 91
        0
 92
      512
 93
        0
300

 40
0.0
140
1.0
 94
        5
 62
     0
340
55
144
0.25
309
CONTENTFORMAT_END
171
     0
 94
        0
309
TABLEFORMAT_END
  1
CELLSTYLE_BEGIN
 90
        1
 91
        1
300
_TITLE
309
CELLSTYLE_END
300
CELLSTYLE
  1
TABLEFORMAT_BEGIN
 90
        5
170
     1
 91
        0
 92
        0
 62
   257
 93
        1
300
CONTENTFORMAT
  1
CONTENTFORMAT_BEGIN
 90
        0
 91
        0
 92
      512
 93
        0
300

 40
0.0
140
1.0
 94
        5
 62
     0
340
55
144
0.18
309
CONTENTFORMAT_END
171
     0
 94
        0
309
TABLEFORMAT_END
  1
CELLSTYLE_BEGIN
 90
        2
 91
        1
300
_HEADER
309
CELLSTYLE_END
300
CELLSTYLE
  1
TABLEFORMAT_BEGIN
 90
        5
170
     1
 91
        0
 92
        0
 62
   257
 93
        1
300
CONTENTFORMAT
  1
CONTENTFORMAT_BEGIN
 90
        0
 91
        0
 92
      512
 93
        0
300

 40
0.0
140
1.0
 94
        2
 62
     0
340
55
144
0.18
309
CONTENTFORMAT_END
171
     0
 94
        0
309
TABLEFORMAT_END
  1
CELLSTYLE_BEGIN
 90
        3
 91
        2
300
_DATA
309
CELLSTYLE_END
  0
XRECORD
  5
335
102
{ACAD_REACTORS
330
2F7
102
}
330
2F7
100
AcDbXrecord
280
     1
102
ACAD_ROUNDTRIP_PRE2007_TABLESTYLE
 90
      512
 91
        0
  1

 92
      512
 93
        0
  2

 94
      512
 95
        0
  3

  0
XRECORD
  5
310
102
{ACAD_REACTORS
330
30F
102
}
330
30F
100
AcDbXrecord
280
     1
102
RTVSPropertyOp0
 70
     1
102
RTVSPropertyOp1
 70
     1
102
RTVSPropertyOp2
 70
     1
102
RTVSPropertyOp3
 70
     1
102
RTVSPropertyOp4
 70
     1
102
RTVSPropertyOp5
 70
     1
102
RTVSPropertyOp6
 70
     1
102
RTVSPropertyOp7
 70
     1
102
RTVSPropertyOp8
 70
     1
102
RTVSPropertyOp9
 70
     1
102
RTVSPropertyOp10
 70
     1
102
RTVSPropertyOp11
 70
     1
102
RTVSPropertyOp12
 70
     1
102
RTVSPropertyOp13
 70
     1
102
RTVSPropertyOp14
 70
     1
102
RTVSPropertyOp15
 70
     1
102
RTVSPropertyOp16
 70
     1
102
RTVSPropertyOp17
 70
     1
102
RTVSPropertyOp18
 70
     1
102
RTVSPropertyOp19
 70
     1
102
RTVSPropertyOp20
 70
     1
102
RTVSPropertyOp21
 70
     1
102
RTVSPropertyOp22
 70
     1
102
RTVSPropertyOp23
 70
     1
102
RTVSPropertyOp24
 70
     1
102
RTVSPropertyOp25
 70
     1
102
RTVSPropertyOp26
 70
     1
102
RTVSPropertyOp27
 70
     1
102
RTVSPropertyOp28
 70
     1
102
RTVSPropertyOp29
 70
     1
102
RTVSPropertyOp30
 70
     1
102
RTVSPropertyOp31
 70
     1
102
RTVSPropertyOp32
 70
     1
  0
XRECORD
  5
30E
102
{ACAD_REACTORS
330
30D
102
}
330
30D
100
AcDbXrecord
280
     1
102
RTVSPropertyOp0
 70
     1
102
RTVSPropertyOp1
 70
     1
102
RTVSPropertyOp2
 70
     1
102
RTVSPropertyOp3
 70
     1
102
RTVSPropertyOp4
 70
     1
102
RTVSPropertyOp5
 70
     1
102
RTVSPropertyOp6
 70
     1
102
RTVSPropertyOp7
 70
     1
102
RTVSPropertyOp8
 70
     1
102
RTVSPropertyOp9
 70
     1
102
RTVSPropertyOp10
 70
     1
102
RTVSPropertyOp11
 70
     1
102
RTVSPropertyOp12
 70
     1
102
RTVSPropertyOp13
 70
     1
102
RTVSPropertyOp14
 70
     1
102
RTVSPropertyOp15
 70
     1
102
RTVSPropertyOp16
 70
     1
102
RTVSPropertyOp17
 70
     1
102
RTVSPropertyOp18
 70
     1
102
RTVSPropertyOp19
 70
     1
102
RTVSPropertyOp20
 70
     1
102
RTVSPropertyOp21
 70
     1
102
RTVSPropertyOp22
 70
     1
102
RTVSPropertyOp23
 70
     1
102
RTVSPropertyOp24
 70
     1
102
RTVSPropertyOp25
 70
     1
102
RTVSPropertyOp26
 70
     1
102
RTVSPropertyOp27
 70
     1
102
RTVSPropertyOp28
 70
     1
102
RTVSPropertyOp29
 70
     1
102
RTVSPropertyOp30
 70
     1
102
RTVSPropertyOp31
 70
     1
102
RTVSPropertyOp32
 70
     1
  0
XRECORD
  5
31C
102
{ACAD_REACTORS
330
31B
102
}
330
31B
100
AcDbXrecord
280
     1
102
RTVSPropertyOp0
 70
     1
102
RTVSPropertyOp1
 70
     1
102
RTVSPropertyOp2
 70
     1
102
RTVSPropertyOp3
 70
     1
102
RTVSPropertyOp4
 70
     1
102
RTVSPropertyOp5
 70
     1
102
RTVSPropertyOp6
 70
     1
102
RTVSPropertyOp7
 70
     1
102
RTVSPropertyOp8
 70
     1
102
RTVSPropertyOp9
 70
     1
102
RTVSPropertyOp10
 70
     1
102
RTVSPropertyOp11
 70
     1
102
RTVSPropertyOp12
 70
     1
102
RTVSPropertyOp13
 70
     1
102
RTVSPropertyOp14
 70
     1
102
RTVSPropertyOp15
 70
     1
102
RTVSPropertyOp16
 70
     1
102
RTVSPropertyOp17
 70
     1
102
RTVSPropertyOp18
 70
     1
102
RTVSPropertyOp19
 70
     1
102
RTVSPropertyOp20
 70
     1
102
RTVSPropertyOp21
 70
     1
102
RTVSPropertyOp22
 70
     1
102
RTVSPropertyOp23
 70
     1
102
RTVSPropertyOp24
 70
     1
102
RTVSPropertyOp25
 70
     1
102
RTVSPropertyOp26
 70
     1
102
RTVSPropertyOp27
 70
     1
102
RTVSPropertyOp28
 70
     1
102
RTVSPropertyOp29
 70
     1
102
RTVSPropertyOp30
 70
     1
102
RTVSPropertyOp31
 70
     1
102
RTVSPropertyOp32
 70
     1
  0
XRECORD
  5
324
102
{ACAD_REACTORS
330
323
102
}
330
323
100
AcDbXrecord
280
     1
102
RTVSPropertyOp0
 70
     1
102
RTVSPropertyOp1
 70
     1
102
RTVSPropertyOp2
 70
     1
102
RTVSPropertyOp3
 70
     1
102
RTVSPropertyOp4
 70
     1
102
RTVSPropertyOp5
 70
     1
102
RTVSPropertyOp6
 70
     1
102
RTVSPropertyOp7
 70
     1
102
RTVSPropertyOp8
 70
     1
102
RTVSPropertyOp9
 70
     1
102
RTVSPropertyOp10
 70
     1
102
RTVSPropertyOp11
 70
     1
102
RTVSPropertyOp12
 70
     1
102
RTVSPropertyOp13
 70
     1
102
RTVSPropertyOp14
 70
     1
102
RTVSPropertyOp15
 70
     1
102
RTVSPropertyOp16
 70
     1
102
RTVSPropertyOp17
 70
     1
102
RTVSPropertyOp18
 70
     1
102
RTVSPropertyOp19
 70
     1
102
RTVSPropertyOp20
 70
     1
102
RTVSPropertyOp21
 70
     1
102
RTVSPropertyOp22
 70
     1
102
RTVSPropertyOp23
 70
     1
102
RTVSPropertyOp24
 70
     1
102
RTVSPropertyOp25
 70
     1
102
RTVSPropertyOp26
 70
     1
102
RTVSPropertyOp27
 70
     1
102
RTVSPropertyOp28
 70
     1
102
RTVSPropertyOp29
 70
     1
102
RTVSPropertyOp30
 70
     1
102
RTVSPropertyOp31
 70
     1
102
RTVSPropertyOp32
 70
     1
  0
XRECORD
  5
316
102
{ACAD_REACTORS
330
315
102
}
330
315
100
AcDbXrecord
280
     1
102
RTVSPropertyOp0
 70
     1
102
RTVSPropertyOp1
 70
     1
102
RTVSPropertyOp2
 70
     1
102
RTVSPropertyOp3
 70
     1
102
RTVSPropertyOp4
 70
     1
102
RTVSPropertyOp5
 70
     1
102
RTVSPropertyOp6
 70
     1
102
RTVSPropertyOp7
 70
     1
102
RTVSPropertyOp8
 70
     1
102
RTVSPropertyOp9
 70
     1
102
RTVSPropertyOp10
 70
     1
102
RTVSPropertyOp11
 70
     1
102
RTVSPropertyOp12
 70
     1
102
RTVSPropertyOp13
 70
     1
102
RTVSPropertyOp14
 70
     1
102
RTVSPropertyOp15
 70
     1
102
RTVSPropertyOp16
 70
     1
102
RTVSPropertyOp17
 70
     1
102
RTVSPropertyOp18
 70
     1
102
RTVSPropertyOp19
 70
     1
102
RTVSPropertyOp20
 70
     1
102
RTVSPropertyOp21
 70
     1
102
RTVSPropertyOp22
 70
     1
102
RTVSPropertyOp23
 70
     1
102
RTVSPropertyOp24
 70
     1
102
RTVSPropertyOp25
 70
     1
102
RTVSPropertyOp26
 70
     1
102
RTVSPropertyOp27
 70
     1
102
RTVSPropertyOp28
 70
     1
102
RTVSPropertyOp29
 70
     1
102
RTVSPropertyOp30
 70
     1
102
RTVSPropertyOp31
 70
     1
102
RTVSPropertyOp32
 70
     1
  0
XRECORD
  5
31A
102
{ACAD_REACTORS
330
319
102
}
330
319
100
AcDbXrecord
280
     1
102
RTVSPropertyOp0
 70
     1
102
RTVSPropertyOp1
 70
     1
102
RTVSPropertyOp2
 70
     1
102
RTVSPropertyOp3
 70
     1
102
RTVSPropertyOp4
 70
     1
102
RTVSPropertyOp5
 70
     1
102
RTVSPropertyOp6
 70
     1
102
RTVSPropertyOp7
 70
     1
102
RTVSPropertyOp8
 70
     1
102
RTVSPropertyOp9
 70
     1
102
RTVSPropertyOp10
 70
     1
102
RTVSPropertyOp11
 70
     1
102
RTVSPropertyOp12
 70
     1
102
RTVSPropertyOp13
 70
     1
102
RTVSPropertyOp14
 70
     1
102
RTVSPropertyOp15
 70
     1
102
RTVSPropertyOp16
 70
     1
102
RTVSPropertyOp17
 70
     1
102
RTVSPropertyOp18
 70
     1
102
RTVSPropertyOp19
 70
     1
102
RTVSPropertyOp20
 70
     1
102
RTVSPropertyOp21
 70
     1
102
RTVSPropertyOp22
 70
     1
102
RTVSPropertyOp23
 70
     1
102
RTVSPropertyOp24
 70
     1
102
RTVSPropertyOp25
 70
     1
102
RTVSPropertyOp26
 70
     1
102
RTVSPropertyOp27
 70
     1
102
RTVSPropertyOp28
 70
     1
102
RTVSPropertyOp29
 70
     1
102
RTVSPropertyOp30
 70
     1
102
RTVSPropertyOp31
 70
     1
102
RTVSPropertyOp32
 70
     1
  0
XRECORD
  5
334
102
{ACAD_REACTORS
330
333
102
}
330
333
100
AcDbXrecord
280
     1
102
RTVSPropertyOp0
 70
     0
102
RTVSPropertyOp1
 70
     0
102
RTVSPropertyOp2
 70
     0
102
RTVSPropertyOp3
 70
     0
102
RTVSPropertyOp4
 70
     0
102
RTVSPropertyOp5
 70
     0
102
RTVSPropertyOp6
 70
     0
102
RTVSPropertyOp7
 70
     0
102
RTVSPropertyOp8
 70
     0
102
RTVSPropertyOp9
 70
     0
102
RTVSPropertyOp10
 70
     0
102
RTVSPropertyOp11
 70
     0
102
RTVSPropertyOp12
 70
     0
102
RTVSPropertyOp13
 70
     0
102
RTVSPropertyOp14
 70
     2
102
RTVSPropertyOp15
 70
     0
102
RTVSPropertyOp16
 70
     0
102
RTVSPropertyOp17
 70
     0
102
RTVSPropertyOp18
 70
     0
102
RTVSPropertyOp19
 70
     0
102
RTVSPropertyOp20
 70
     0
102
RTVSPropertyOp21
 70
     0
102
RTVSPropertyOp22
 70
     0
102
RTVSPropertyOp23
 70
     0
102
RTVSPropertyOp24
 70
     0
102
RTVSPropertyOp25
 70
     0
102
RTVSPropertyOp26
 70
     0
102
RTVSPropertyOp27
 70
     0
102
RTVSPropertyOp28
 70
     0
102
RTVSPropertyOp29
 70
     0
102
RTVSPropertyOp30
 70
     0
102
RTVSPropertyOp31
 70
     0
102
RTVSPropertyOp32
 70
     0
  0
XRECORD
  5
322
102
{ACAD_REACTORS
330
321
102
}
330
321
100
AcDbXrecord
280
     1
102
RTVSPropertyOp0
 70
     1
102
RTVSPropertyOp1
 70
     1
102
RTVSPropertyOp2
 70
     1
102
RTVSPropertyOp3
 70
     1
102
RTVSPropertyOp4
 70
     1
102
RTVSPropertyOp5
 70
     1
102
RTVSPropertyOp6
 70
     1
102
RTVSPropertyOp7
 70
     1
102
RTVSPropertyOp8
 70
     1
102
RTVSPropertyOp9
 70
     1
102
RTVSPropertyOp10
 70
     1
102
RTVSPropertyOp11
 70
     1
102
RTVSPropertyOp12
 70
     1
102
RTVSPropertyOp13
 70
     1
102
RTVSPropertyOp14
 70
     1
102
RTVSPropertyOp15
 70
     1
102
RTVSPropertyOp16
 70
     1
102
RTVSPropertyOp17
 70
     1
102
RTVSPropertyOp18
 70
     1
102
RTVSPropertyOp19
 70
     1
102
RTVSPropertyOp20
 70
     1
102
RTVSPropertyOp21
 70
     1
102
RTVSPropertyOp22
 70
     1
102
RTVSPropertyOp23
 70
     1
102
RTVSPropertyOp24
 70
     1
102
RTVSPropertyOp25
 70
     1
102
RTVSPropertyOp26
 70
     1
102
RTVSPropertyOp27
 70
     1
102
RTVSPropertyOp28
 70
     1
102
RTVSPropertyOp29
 70
     1
102
RTVSPropertyOp30
 70
     1
102
RTVSPropertyOp31
 70
     1
102
RTVSPropertyOp32
 70
     1
  0
XRECORD
  5
306
102
{ACAD_REACTORS
330
305
102
}
330
305
100
AcDbXrecord
280
     1
102
RTVSPropertyOp0
 70
     1
102
RTVSPropertyOp1
 70
     1
102
RTVSPropertyOp2
 70
     1
102
RTVSPropertyOp3
 70
     1
102
RTVSPropertyOp4
 70
     1
102
RTVSPropertyOp5
 70
     1
102
RTVSPropertyOp6
 70
     1
102
RTVSPropertyOp7
 70
     1
102
RTVSPropertyOp8
 70
     1
102
RTVSPropertyOp9
 70
     1
102
RTVSPropertyOp10
 70
     1
102
RTVSPropertyOp11
 70
     1
102
RTVSPropertyOp12
 70
     1
102
RTVSPropertyOp13
 70
     1
102
RTVSPropertyOp14
 70
     1
102
RTVSPropertyOp15
 70
     1
102
RTVSPropertyOp16
 70
     1
102
RTVSPropertyOp17
 70
     1
102
RTVSPropertyOp18
 70
     1
102
RTVSPropertyOp19
 70
     1
102
RTVSPropertyOp20
 70
     1
102
RTVSPropertyOp21
 70
     1
102
RTVSPropertyOp22
 70
     1
102
RTVSPropertyOp23
 70
     1
102
RTVSPropertyOp24
 70
     1
102
RTVSPropertyOp25
 70
     1
102
RTVSPropertyOp26
 70
     1
102
RTVSPropertyOp27
 70
     1
102
RTVSPropertyOp28
 70
     1
102
RTVSPropertyOp29
 70
     1
102
RTVSPropertyOp30
 70
     1
102
RTVSPropertyOp31
 70
     1
102
RTVSPropertyOp32
 70
     1
  0
XRECORD
  5
308
102
{ACAD_REACTORS
330
307
102
}
330
307
100
AcDbXrecord
280
     1
102
RTVSPropertyOp0
 70
     1
102
RTVSPropertyOp1
 70
     1
102
RTVSPropertyOp2
 70
     1
102
RTVSPropertyOp3
 70
     1
102
RTVSPropertyOp4
 70
     1
102
RTVSPropertyOp5
 70
     1
102
RTVSPropertyOp6
 70
     1
102
RTVSPropertyOp7
 70
     1
102
RTVSPropertyOp8
 70
     1
102
RTVSPropertyOp9
 70
     1
102
RTVSPropertyOp10
 70
     1
102
RTVSPropertyOp11
 70
     1
102
RTVSPropertyOp12
 70
     1
102
RTVSPropertyOp13
 70
     1
102
RTVSPropertyOp14
 70
     1
102
RTVSPropertyOp15
 70
     1
102
RTVSPropertyOp16
 70
     1
102
RTVSPropertyOp17
 70
     1
102
RTVSPropertyOp18
 70
     1
102
RTVSPropertyOp19
 70
     1
102
RTVSPropertyOp20
 70
     1
102
RTVSPropertyOp21
 70
     1
102
RTVSPropertyOp22
 70
     1
102
RTVSPropertyOp23
 70
     1
102
RTVSPropertyOp24
 70
     1
102
RTVSPropertyOp25
 70
     1
102
RTVSPropertyOp26
 70
     1
102
RTVSPropertyOp27
 70
     1
102
RTVSPropertyOp28
 70
     1
102
RTVSPropertyOp29
 70
     1
102
RTVSPropertyOp30
 70
     1
102
RTVSPropertyOp31
 70
     1
102
RTVSPropertyOp32
 70
     1
  0
XRECORD
  5
30A
102
{ACAD_REACTORS
330
309
102
}
330
309
100
AcDbXrecord
280
     1
102
RTVSPropertyOp0
 70
     1
102
RTVSPropertyOp1
 70
     1
102
RTVSPropertyOp2
 70
     1
102
RTVSPropertyOp3
 70
     1
102
RTVSPropertyOp4
 70
     1
102
RTVSPropertyOp5
 70
     1
102
RTVSPropertyOp6
 70
     1
102
RTVSPropertyOp7
 70
     1
102
RTVSPropertyOp8
 70
     1
102
RTVSPropertyOp9
 70
     1
102
RTVSPropertyOp10
 70
     1
102
RTVSPropertyOp11
 70
     1
102
RTVSPropertyOp12
 70
     1
102
RTVSPropertyOp13
 70
     1
102
RTVSPropertyOp14
 70
     1
102
RTVSPropertyOp15
 70
     1
102
RTVSPropertyOp16
 70
     1
102
RTVSPropertyOp17
 70
     1
102
RTVSPropertyOp18
 70
     1
102
RTVSPropertyOp19
 70
     1
102
RTVSPropertyOp20
 70
     1
102
RTVSPropertyOp21
 70
     1
102
RTVSPropertyOp22
 70
     1
102
RTVSPropertyOp23
 70
     1
102
RTVSPropertyOp24
 70
     1
102
RTVSPropertyOp25
 70
     1
102
RTVSPropertyOp26
 70
     1
102
RTVSPropertyOp27
 70
     1
102
RTVSPropertyOp28
 70
     1
102
RTVSPropertyOp29
 70
     1
102
RTVSPropertyOp30
 70
     1
102
RTVSPropertyOp31
 70
     1
102
RTVSPropertyOp32
 70
     1
  0
XRECORD
  5
30C
102
{ACAD_REACTORS
330
30B
102
}
330
30B
100
AcDbXrecord
280
     1
102
RTVSPropertyOp0
 70
     1
102
RTVSPropertyOp1
 70
     1
102
RTVSPropertyOp2
 70
     1
102
RTVSPropertyOp3
 70
     1
102
RTVSPropertyOp4
 70
     1
102
RTVSPropertyOp5
 70
     1
102
RTVSPropertyOp6
 70
     1
102
RTVSPropertyOp7
 70
     1
102
RTVSPropertyOp8
 70
     1
102
RTVSPropertyOp9
 70
     1
102
RTVSPropertyOp10
 70
     1
102
RTVSPropertyOp11
 70
     1
102
RTVSPropertyOp12
 70
     1
102
RTVSPropertyOp13
 70
     1
102
RTVSPropertyOp14
 70
     1
102
RTVSPropertyOp15
 70
     1
102
RTVSPropertyOp16
 70
     1
102
RTVSPropertyOp17
 70
     1
102
RTVSPropertyOp18
 70
     1
102
RTVSPropertyOp19
 70
     1
102
RTVSPropertyOp20
 70
     1
102
RTVSPropertyOp21
 70
     1
102
RTVSPropertyOp22
 70
     1
102
RTVSPropertyOp23
 70
     1
102
RTVSPropertyOp24
 70
     1
102
RTVSPropertyOp25
 70
     1
102
RTVSPropertyOp26
 70
     1
102
RTVSPropertyOp27
 70
     1
102
RTVSPropertyOp28
 70
     1
102
RTVSPropertyOp29
 70
     1
102
RTVSPropertyOp30
 70
     1
102
RTVSPropertyOp31
 70
     1
102
RTVSPropertyOp32
 70
     1
  0
XRECORD
  5
314
102
{ACAD_REACTORS
330
313
102
}
330
313
100
AcDbXrecord
280
     1
102
RTVSPropertyOp0
 70
     1
102
RTVSPropertyOp1
 70
     1
102
RTVSPropertyOp2
 70
     1
102
RTVSPropertyOp3
 70
     1
102
RTVSPropertyOp4
 70
     1
102
RTVSPropertyOp5
 70
     1
102
RTVSPropertyOp6
 70
     1
102
RTVSPropertyOp7
 70
     1
102
RTVSPropertyOp8
 70
     1
102
RTVSPropertyOp9
 70
     1
102
RTVSPropertyOp10
 70
     1
102
RTVSPropertyOp11
 70
     1
102
RTVSPropertyOp12
 70
     1
102
RTVSPropertyOp13
 70
     1
102
RTVSPropertyOp14
 70
     1
102
RTVSPropertyOp15
 70
     1
102
RTVSPropertyOp16
 70
     1
102
RTVSPropertyOp17
 70
     1
102
RTVSPropertyOp18
 70
     1
102
RTVSPropertyOp19
 70
     1
102
RTVSPropertyOp20
 70
     1
102
RTVSPropertyOp21
 70
     1
102
RTVSPropertyOp22
 70
     1
102
RTVSPropertyOp23
 70
     1
102
RTVSPropertyOp24
 70
     1
102
RTVSPropertyOp25
 70
     1
102
RTVSPropertyOp26
 70
     1
102
RTVSPropertyOp27
 70
     1
102
RTVSPropertyOp28
 70
     1
102
RTVSPropertyOp29
 70
     1
102
RTVSPropertyOp30
 70
     1
102
RTVSPropertyOp31
 70
     1
102
RTVSPropertyOp32
 70
     1
  0
XRECORD
  5
330
102
{ACAD_REACTORS
330
32F
102
}
330
32F
100
AcDbXrecord
280
     1
102
RTVSPropertyOp0
 70
     0
102
RTVSPropertyOp1
 70
     0
102
RTVSPropertyOp2
 70
     0
102
RTVSPropertyOp3
 70
     0
102
RTVSPropertyOp4
 70
     0
102
RTVSPropertyOp5
 70
     0
102
RTVSPropertyOp6
 70
     0
102
RTVSPropertyOp7
 70
     0
102
RTVSPropertyOp8
 70
     0
102
RTVSPropertyOp9
 70
     0
102
RTVSPropertyOp10
 70
     0
102
RTVSPropertyOp11
 70
     0
102
RTVSPropertyOp12
 70
     0
102
RTVSPropertyOp13
 70
     0
102
RTVSPropertyOp14
 70
     2
102
RTVSPropertyOp15
 70
     0
102
RTVSPropertyOp16
 70
     0
102
RTVSPropertyOp17
 70
     0
102
RTVSPropertyOp18
 70
     0
102
RTVSPropertyOp19
 70
     0
102
RTVSPropertyOp20
 70
     0
102
RTVSPropertyOp21
 70
     0
102
RTVSPropertyOp22
 70
     0
102
RTVSPropertyOp23
 70
     0
102
RTVSPropertyOp24
 70
     0
102
RTVSPropertyOp25
 70
     0
102
RTVSPropertyOp26
 70
     0
102
RTVSPropertyOp27
 70
     0
102
RTVSPropertyOp28
 70
     0
102
RTVSPropertyOp29
 70
     0
102
RTVSPropertyOp30
 70
     0
102
RTVSPropertyOp31
 70
     0
102
RTVSPropertyOp32
 70
     0
  0
XRECORD
  5
320
102
{ACAD_REACTORS
330
31F
102
}
330
31F
100
AcDbXrecord
280
     1
102
RTVSPropertyOp0
 70
     1
102
RTVSPropertyOp1
 70
     1
102
RTVSPropertyOp2
 70
     1
102
RTVSPropertyOp3
 70
     1
102
RTVSPropertyOp4
 70
     1
102
RTVSPropertyOp5
 70
     1
102
RTVSPropertyOp6
 70
     1
102
RTVSPropertyOp7
 70
     1
102
RTVSPropertyOp8
 70
     1
102
RTVSPropertyOp9
 70
     1
102
RTVSPropertyOp10
 70
     1
102
RTVSPropertyOp11
 70
     1
102
RTVSPropertyOp12
 70
     1
102
RTVSPropertyOp13
 70
     1
102
RTVSPropertyOp14
 70
     1
102
RTVSPropertyOp15
 70
     1
102
RTVSPropertyOp16
 70
     1
102
RTVSPropertyOp17
 70
     1
102
RTVSPropertyOp18
 70
     1
102
RTVSPropertyOp19
 70
     1
102
RTVSPropertyOp20
 70
     1
102
RTVSPropertyOp21
 70
     1
102
RTVSPropertyOp22
 70
     1
102
RTVSPropertyOp23
 70
     1
102
RTVSPropertyOp24
 70
     1
102
RTVSPropertyOp25
 70
     1
102
RTVSPropertyOp26
 70
     1
102
RTVSPropertyOp27
 70
     1
102
RTVSPropertyOp28
 70
     1
102
RTVSPropertyOp29
 70
     1
102
RTVSPropertyOp30
 70
     1
102
RTVSPropertyOp31
 70
     1
102
RTVSPropertyOp32
 70
     1
  0
XRECORD
  5
332
102
{ACAD_REACTORS
330
331
102
}
330
331
100
AcDbXrecord
280
     1
102
RTVSPropertyOp0
 70
     0
102
RTVSPropertyOp1
 70
     0
102
RTVSPropertyOp2
 70
     0
102
RTVSPropertyOp3
 70
     0
102
RTVSPropertyOp4
 70
     0
102
RTVSPropertyOp5
 70
     0
102
RTVSPropertyOp6
 70
     0
102
RTVSPropertyOp7
 70
     0
102
RTVSPropertyOp8
 70
     0
102
RTVSPropertyOp9
 70
     0
102
RTVSPropertyOp10
 70
     0
102
RTVSPropertyOp11
 70
     0
102
RTVSPropertyOp12
 70
     0
102
RTVSPropertyOp13
 70
     0
102
RTVSPropertyOp14
 70
     2
102
RTVSPropertyOp15
 70
     0
102
RTVSPropertyOp16
 70
     0
102
RTVSPropertyOp17
 70
     0
102
RTVSPropertyOp18
 70
     0
102
RTVSPropertyOp19
 70
     0
102
RTVSPropertyOp20
 70
     0
102
RTVSPropertyOp21
 70
     0
102
RTVSPropertyOp22
 70
     0
102
RTVSPropertyOp23
 70
     0
102
RTVSPropertyOp24
 70
     0
102
RTVSPropertyOp25
 70
     0
102
RTVSPropertyOp26
 70
     0
102
RTVSPropertyOp27
 70
     0
102
RTVSPropertyOp28
 70
     0
102
RTVSPropertyOp29
 70
     0
102
RTVSPropertyOp30
 70
     0
102
RTVSPropertyOp31
 70
     0
102
RTVSPropertyOp32
 70
     0
  0
XRECORD
  5
318
102
{ACAD_REACTORS
330
317
102
}
330
317
100
AcDbXrecord
280
     1
102
RTVSPropertyOp0
 70
     1
102
RTVSPropertyOp1
 70
     1
102
RTVSPropertyOp2
 70
     1
102
RTVSPropertyOp3
 70
     1
102
RTVSPropertyOp4
 70
     1
102
RTVSPropertyOp5
 70
     1
102
RTVSPropertyOp6
 70
     1
102
RTVSPropertyOp7
 70
     1
102
RTVSPropertyOp8
 70
     1
102
RTVSPropertyOp9
 70
     1
102
RTVSPropertyOp10
 70
     1
102
RTVSPropertyOp11
 70
     1
102
RTVSPropertyOp12
 70
     1
102
RTVSPropertyOp13
 70
     1
102
RTVSPropertyOp14
 70
     1
102
RTVSPropertyOp15
 70
     1
102
RTVSPropertyOp16
 70
     1
102
RTVSPropertyOp17
 70
     1
102
RTVSPropertyOp18
 70
     1
102
RTVSPropertyOp19
 70
     1
102
RTVSPropertyOp20
 70
     1
102
RTVSPropertyOp21
 70
     1
102
RTVSPropertyOp22
 70
     1
102
RTVSPropertyOp23
 70
     1
102
RTVSPropertyOp24
 70
     1
102
RTVSPropertyOp25
 70
     1
102
RTVSPropertyOp26
 70
     1
102
RTVSPropertyOp27
 70
     1
102
RTVSPropertyOp28
 70
     1
102
RTVSPropertyOp29
 70
     1
102
RTVSPropertyOp30
 70
     1
102
RTVSPropertyOp31
 70
     1
102
RTVSPropertyOp32
 70
     1
  0
XRECORD
  5
32E
102
{ACAD_REACTORS
330
32D
102
}
330
32D
100
AcDbXrecord
280
     1
102
RTVSPropertyOp0
 70
     1
102
RTVSPropertyOp1
 70
     1
102
RTVSPropertyOp2
 70
     1
102
RTVSPropertyOp3
 70
     1
102
RTVSPropertyOp4
 70
     1
102
RTVSPropertyOp5
 70
     1
102
RTVSPropertyOp6
 70
     1
102
RTVSPropertyOp7
 70
     1
102
RTVSPropertyOp8
 70
     1
102
RTVSPropertyOp9
 70
     1
102
RTVSPropertyOp10
 70
     1
102
RTVSPropertyOp11
 70
     1
102
RTVSPropertyOp12
 70
     1
102
RTVSPropertyOp13
 70
     1
102
RTVSPropertyOp14
 70
     1
102
RTVSPropertyOp15
 70
     1
102
RTVSPropertyOp16
 70
     1
102
RTVSPropertyOp17
 70
     1
102
RTVSPropertyOp18
 70
     1
102
RTVSPropertyOp19
 70
     1
102
RTVSPropertyOp20
 70
     1
102
RTVSPropertyOp21
 70
     1
102
RTVSPropertyOp22
 70
     1
102
RTVSPropertyOp23
 70
     1
102
RTVSPropertyOp24
 70
     1
102
RTVSPropertyOp25
 70
     1
102
RTVSPropertyOp26
 70
     1
102
RTVSPropertyOp27
 70
     1
102
RTVSPropertyOp28
 70
     1
102
RTVSPropertyOp29
 70
     1
102
RTVSPropertyOp30
 70
     1
102
RTVSPropertyOp31
 70
     1
102
RTVSPropertyOp32
 70
     1
  0
XRECORD
  5
32C
102
{ACAD_REACTORS
330
32B
102
}
330
32B
100
AcDbXrecord
280
     1
102
RTVSPropertyOp0
 70
     1
102
RTVSPropertyOp1
 70
     1
102
RTVSPropertyOp2
 70
     1
102
RTVSPropertyOp3
 70
     1
102
RTVSPropertyOp4
 70
     1
102
RTVSPropertyOp5
 70
     1
102
RTVSPropertyOp6
 70
     1
102
RTVSPropertyOp7
 70
     1
102
RTVSPropertyOp8
 70
     1
102
RTVSPropertyOp9
 70
     1
102
RTVSPropertyOp10
 70
     1
102
RTVSPropertyOp11
 70
     1
102
RTVSPropertyOp12
 70
     1
102
RTVSPropertyOp13
 70
     1
102
RTVSPropertyOp14
 70
     1
102
RTVSPropertyOp15
 70
     1
102
RTVSPropertyOp16
 70
     1
102
RTVSPropertyOp17
 70
     1
102
RTVSPropertyOp18
 70
     1
102
RTVSPropertyOp19
 70
     1
102
RTVSPropertyOp20
 70
     1
102
RTVSPropertyOp21
 70
     1
102
RTVSPropertyOp22
 70
     1
102
RTVSPropertyOp23
 70
     1
102
RTVSPropertyOp24
 70
     1
102
RTVSPropertyOp25
 70
     1
102
RTVSPropertyOp26
 70
     1
102
RTVSPropertyOp27
 70
     1
102
RTVSPropertyOp28
 70
     1
102
RTVSPropertyOp29
 70
     1
102
RTVSPropertyOp30
 70
     1
102
RTVSPropertyOp31
 70
     1
102
RTVSPropertyOp32
 70
     1
  0
XRECORD
  5
326
102
{ACAD_REACTORS
330
325
102
}
330
325
100
AcDbXrecord
280
     1
102
RTVSPropertyOp0
 70
     1
102
RTVSPropertyOp1
 70
     1
102
RTVSPropertyOp2
 70
     1
102
RTVSPropertyOp3
 70
     1
102
RTVSPropertyOp4
 70
     1
102
RTVSPropertyOp5
 70
     1
102
RTVSPropertyOp6
 70
     1
102
RTVSPropertyOp7
 70
     1
102
RTVSPropertyOp8
 70
     1
102
RTVSPropertyOp9
 70
     1
102
RTVSPropertyOp10
 70
     1
102
RTVSPropertyOp11
 70
     1
102
RTVSPropertyOp12
 70
     1
102
RTVSPropertyOp13
 70
     1
102
RTVSPropertyOp14
 70
     1
102
RTVSPropertyOp15
 70
     1
102
RTVSPropertyOp16
 70
     1
102
RTVSPropertyOp17
 70
     1
102
RTVSPropertyOp18
 70
     1
102
RTVSPropertyOp19
 70
     1
102
RTVSPropertyOp20
 70
     1
102
RTVSPropertyOp21
 70
     1
102
RTVSPropertyOp22
 70
     1
102
RTVSPropertyOp23
 70
     1
102
RTVSPropertyOp24
 70
     1
102
RTVSPropertyOp25
 70
     1
102
RTVSPropertyOp26
 70
     1
102
RTVSPropertyOp27
 70
     1
102
RTVSPropertyOp28
 70
     1
102
RTVSPropertyOp29
 70
     1
102
RTVSPropertyOp30
 70
     1
102
RTVSPropertyOp31
 70
     1
102
RTVSPropertyOp32
 70
     1
  0
XRECORD
  5
328
102
{ACAD_REACTORS
330
327
102
}
330
327
100
AcDbXrecord
280
     1
102
RTVSPropertyOp0
 70
     1
102
RTVSPropertyOp1
 70
     1
102
RTVSPropertyOp2
 70
     1
102
RTVSPropertyOp3
 70
     1
102
RTVSPropertyOp4
 70
     1
102
RTVSPropertyOp5
 70
     1
102
RTVSPropertyOp6
 70
     1
102
RTVSPropertyOp7
 70
     1
102
RTVSPropertyOp8
 70
     1
102
RTVSPropertyOp9
 70
     1
102
RTVSPropertyOp10
 70
     1
102
RTVSPropertyOp11
 70
     1
102
RTVSPropertyOp12
 70
     1
102
RTVSPropertyOp13
 70
     1
102
RTVSPropertyOp14
 70
     1
102
RTVSPropertyOp15
 70
     1
102
RTVSPropertyOp16
 70
     1
102
RTVSPropertyOp17
 70
     1
102
RTVSPropertyOp18
 70
     1
102
RTVSPropertyOp19
 70
     1
102
RTVSPropertyOp20
 70
     1
102
RTVSPropertyOp21
 70
     1
102
RTVSPropertyOp22
 70
     1
102
RTVSPropertyOp23
 70
     1
102
RTVSPropertyOp24
 70
     1
102
RTVSPropertyOp25
 70
     1
102
RTVSPropertyOp26
 70
     1
102
RTVSPropertyOp27
 70
     1
102
RTVSPropertyOp28
 70
     1
102
RTVSPropertyOp29
 70
     1
102
RTVSPropertyOp30
 70
     1
102
RTVSPropertyOp31
 70
     1
102
RTVSPropertyOp32
 70
     1
  0
XRECORD
  5
31E
102
{ACAD_REACTORS
330
31D
102
}
330
31D
100
AcDbXrecord
280
     1
102
RTVSPropertyOp0
 70
     1
102
RTVSPropertyOp1
 70
     1
102
RTVSPropertyOp2
 70
     1
102
RTVSPropertyOp3
 70
     1
102
RTVSPropertyOp4
 70
     1
102
RTVSPropertyOp5
 70
     1
102
RTVSPropertyOp6
 70
     1
102
RTVSPropertyOp7
 70
     1
102
RTVSPropertyOp8
 70
     1
102
RTVSPropertyOp9
 70
     1
102
RTVSPropertyOp10
 70
     1
102
RTVSPropertyOp11
 70
     1
102
RTVSPropertyOp12
 70
     1
102
RTVSPropertyOp13
 70
     1
102
RTVSPropertyOp14
 70
     1
102
RTVSPropertyOp15
 70
     1
102
RTVSPropertyOp16
 70
     1
102
RTVSPropertyOp17
 70
     1
102
RTVSPropertyOp18
 70
     1
102
RTVSPropertyOp19
 70
     1
102
RTVSPropertyOp20
 70
     1
102
RTVSPropertyOp21
 70
     1
102
RTVSPropertyOp22
 70
     1
102
RTVSPropertyOp23
 70
     1
102
RTVSPropertyOp24
 70
     1
102
RTVSPropertyOp25
 70
     1
102
RTVSPropertyOp26
 70
     1
102
RTVSPropertyOp27
 70
     1
102
RTVSPropertyOp28
 70
     1
102
RTVSPropertyOp29
 70
     1
102
RTVSPropertyOp30
 70
     1
102
RTVSPropertyOp31
 70
     1
102
RTVSPropertyOp32
 70
     1
  0
XRECORD
  5
312
102
{ACAD_REACTORS
330
311
102
}
330
311
100
AcDbXrecord
280
     1
102
RTVSPropertyOp0
 70
     1
102
RTVSPropertyOp1
 70
     1
102
RTVSPropertyOp2
 70
     1
102
RTVSPropertyOp3
 70
     1
102
RTVSPropertyOp4
 70
     1
102
RTVSPropertyOp5
 70
     1
102
RTVSPropertyOp6
 70
     1
102
RTVSPropertyOp7
 70
     1
102
RTVSPropertyOp8
 70
     1
102
RTVSPropertyOp9
 70
     1
102
RTVSPropertyOp10
 70
     1
102
RTVSPropertyOp11
 70
     1
102
RTVSPropertyOp12
 70
     1
102
RTVSPropertyOp13
 70
     1
102
RTVSPropertyOp14
 70
     1
102
RTVSPropertyOp15
 70
     1
102
RTVSPropertyOp16
 70
     1
102
RTVSPropertyOp17
 70
     1
102
RTVSPropertyOp18
 70
     1
102
RTVSPropertyOp19
 70
     1
102
RTVSPropertyOp20
 70
     1
102
RTVSPropertyOp21
 70
     1
102
RTVSPropertyOp22
 70
     1
102
RTVSPropertyOp23
 70
     1
102
RTVSPropertyOp24
 70
     1
102
RTVSPropertyOp25
 70
     1
102
RTVSPropertyOp26
 70
     1
102
RTVSPropertyOp27
 70
     1
102
RTVSPropertyOp28
 70
     1
102
RTVSPropertyOp29
 70
     1
102
RTVSPropertyOp30
 70
     1
102
RTVSPropertyOp31
 70
     1
102
RTVSPropertyOp32
 70
     1
  0
XRECORD
  5
32A
102
{ACAD_REACTORS
330
329
102
}
330
329
100
AcDbXrecord
280
     1
102
RTVSPropertyOp0
 70
     1
102
RTVSPropertyOp1
 70
     1
102
RTVSPropertyOp2
 70
     1
102
RTVSPropertyOp3
 70
     1
102
RTVSPropertyOp4
 70
     1
102
RTVSPropertyOp5
 70
     1
102
RTVSPropertyOp6
 70
     1
102
RTVSPropertyOp7
 70
     1
102
RTVSPropertyOp8
 70
     1
102
RTVSPropertyOp9
 70
     1
102
RTVSPropertyOp10
 70
     1
102
RTVSPropertyOp11
 70
     1
102
RTVSPropertyOp12
 70
     1
102
RTVSPropertyOp13
 70
     1
102
RTVSPropertyOp14
 70
     1
102
RTVSPropertyOp15
 70
     1
102
RTVSPropertyOp16
 70
     1
102
RTVSPropertyOp17
 70
     1
102
RTVSPropertyOp18
 70
     1
102
RTVSPropertyOp19
 70
     1
102
RTVSPropertyOp20
 70
     1
102
RTVSPropertyOp21
 70
     1
102
RTVSPropertyOp22
 70
     1
102
RTVSPropertyOp23
 70
     1
102
RTVSPropertyOp24
 70
     1
102
RTVSPropertyOp25
 70
     1
102
RTVSPropertyOp26
 70
     1
102
RTVSPropertyOp27
 70
     1
102
RTVSPropertyOp28
 70
     1
102
RTVSPropertyOp29
 70
     1
102
RTVSPropertyOp30
 70
     1
102
RTVSPropertyOp31
 70
     1
102
RTVSPropertyOp32
 70
     1
  0
ENDSEC
  0
EOF
