  0
SECTION
  2
HEADER
  9
$ACADVER
  1
AC1018
  9
$ACADMAINTVER
 70
   104
  9
$DWGCODEPAGE
  3
ANSI_932
  9
$AUTHOR
  1
SHIMPO
  9
$CUSTOMPROPERTYTAG
  1
マネージャ
  9
$CUSTOMPROPERTY
  1

  9
$CUSTOMPROPERTYTAG
  1
会社
  9
$CUSTOMPROPERTY
  1

  9
$CUSTOMPROPERTYTAG
  1
カテゴリ
  9
$CUSTOMPROPERTY
  1

  9
$CUSTOMPROPERTYTAG
  1
部品番号
  9
$CUSTOMPROPERTY
  1
VRXF-□-15~35B-S-8AM6
  9
$CUSTOMPROPERTYTAG
  1
説明
  9
$CUSTOMPROPERTY
  1

  9
$CUSTOMPROPERTYTAG
  1
プロジェクト
  9
$CUSTOMPROPERTY
  1

  9
$CUSTOMPROPERTYTAG
  1
設計者
  9
$CUSTOMPROPERTY
  1
SHIMPO
  9
$CUSTOMPROPERTYTAG
  1
エンジニア
  9
$CUSTOMPROPERTY
  1

  9
$CUSTOMPROPERTYTAG
  1
責任者
  9
$CUSTOMPROPERTY
  1

  9
$CUSTOMPROPERTYTAG
  1
コスト センター
  9
$CUSTOMPROPERTY
  1

  9
$CUSTOMPROPERTYTAG
  1
ベンダー
  9
$CUSTOMPROPERTY
  1

  9
$CUSTOMPROPERTYTAG
  1
ユーザ ステータス
  9
$CUSTOMPROPERTY
  1

  9
$CUSTOMPROPERTYTAG
  1
設計ステータス
  9
$CUSTOMPROPERTY
  1
作業中
  9
$CUSTOMPROPERTYTAG
  1
確認者
  9
$CUSTOMPROPERTY
  1

  9
$CUSTOMPROPERTYTAG
  1
エンジニアリング承認者
  9
$CUSTOMPROPERTY
  1

  9
$CUSTOMPROPERTYTAG
  1
製造承認者
  9
$CUSTOMPROPERTY
  1

  9
$INSBASE
 10
0.0
 20
0.0
 30
0.0
  9
$EXTMIN
 10
0.0
 20
0.0
 30
0.0
  9
$EXTMAX
 10
420.0
 20
297.0
 30
0.0
  9
$LIMMIN
 10
0.0
 20
0.0
  9
$LIMMAX
 10
420.0
 20
297.0
  9
$ORTHOMODE
 70
     0
  9
$REGENMODE
 70
     1
  9
$FILLMODE
 70
     1
  9
$QTEXTMODE
 70
     0
  9
$MIRRTEXT
 70
     0
  9
$LTSCALE
 40
1.0
  9
$ATTMODE
 70
     1
  9
$TEXTSIZE
 40
0.2
  9
$TRACEWID
 40
0.05
  9
$TEXTSTYLE
  7
Standard
  9
$CLAYER
  8
0
  9
$CELTYPE
  6
ByLayer
  9
$CECOLOR
 62
   256
  9
$CELTSCALE
 40
1.0
  9
$DISPSILH
 70
     0
  9
$DIMSCALE
 40
1.0
  9
$DIMASZ
 40
1.799999999999999
  9
$DIMEXO
 40
0.0625
  9
$DIMDLI
 40
0.38
  9
$DIMRND
 40
0.0
  9
$DIMDLE
 40
0.0
  9
$DIMEXE
 40
0.18
  9
$DIMTP
 40
0.0
  9
$DIMTM
 40
0.0
  9
$DIMTXT
 40
0.4499999880790711
  9
$DIMCEN
 40
0.09
  9
$DIMTSZ
 40
0.0
  9
$DIMTOL
 70
     0
  9
$DIMLIM
 70
     0
  9
$DIMTIH
 70
     1
  9
$DIMTOH
 70
     1
  9
$DIMSE1
 70
     0
  9
$DIMSE2
 70
     0
  9
$DIMTAD
 70
     0
  9
$DIMZIN
 70
     0
  9
$DIMBLK
  1

  9
$DIMASO
 70
     1
  9
$DIMSHO
 70
     1
  9
$DIMPOST
  1

  9
$DIMAPOST
  1

  9
$DIMALT
 70
     0
  9
$DIMALTD
 70
     2
  9
$DIMALTF
 40
25.4
  9
$DIMLFAC
 40
1.0
  9
$DIMTOFL
 70
     0
  9
$DIMTVP
 40
0.0
  9
$DIMTIX
 70
     0
  9
$DIMSOXD
 70
     0
  9
$DIMSAH
 70
     0
  9
$DIMBLK1
  1

  9
$DIMBLK2
  1

  9
$DIMSTYLE
  2
Standard
  9
$DIMCLRD
 70
     0
  9
$DIMCLRE
 70
     0
  9
$DIMCLRT
 70
     0
  9
$DIMTFAC
 40
1.0
  9
$DIMGAP
 40
0.09
  9
$DIMJUST
 70
     0
  9
$DIMSD1
 70
     0
  9
$DIMSD2
 70
     0
  9
$DIMTOLJ
 70
     1
  9
$DIMTZIN
 70
     0
  9
$DIMALTZ
 70
     0
  9
$DIMALTTZ
 70
     0
  9
$DIMUPT
 70
     0
  9
$DIMDEC
 70
     4
  9
$DIMTDEC
 70
     4
  9
$DIMALTU
 70
     2
  9
$DIMALTTD
 70
     2
  9
$DIMTXSTY
  7
Standard
  9
$DIMAUNIT
 70
     0
  9
$DIMADEC
 70
     0
  9
$DIMALTRND
 40
0.0
  9
$DIMAZIN
 70
     0
  9
$DIMDSEP
 70
    46
  9
$DIMATFIT
 70
     3
  9
$DIMFRAC
 70
     0
  9
$DIMLDRBLK
  1

  9
$DIMLUNIT
 70
     2
  9
$DIMLWD
 70
    -2
  9
$DIMLWE
 70
    -2
  9
$DIMTMOVE
 70
     0
  9
$LUNITS
 70
     2
  9
$LUPREC
 70
     4
  9
$SKETCHINC
 40
0.1
  9
$FILLETRAD
 40
0.0
  9
$AUNITS
 70
     0
  9
$AUPREC
 70
     0
  9
$MENU
  1
.
  9
$ELEVATION
 40
0.0
  9
$PELEVATION
 40
0.0
  9
$THICKNESS
 40
0.0
  9
$LIMCHECK
 70
     0
  9
$CHAMFERA
 40
0.0
  9
$CHAMFERB
 40
0.0
  9
$CHAMFERC
 40
0.0
  9
$CHAMFERD
 40
0.0
  9
$SKPOLY
 70
     0
  9
$TDCREATE
 40
2457403.627556794
  9
$TDUCREATE
 40
2457403.252556794
  9
$TDUPDATE
 40
2457403.627556794
  9
$TDUUPDATE
 40
2457403.252556794
  9
$TDINDWG
 40
0.0000589352
  9
$TDUSRTIMER
 40
0.0000589352
  9
$USRTIMER
 70
     1
  9
$ANGBASE
 50
0.0
  9
$ANGDIR
 70
     0
  9
$PDMODE
 70
     0
  9
$PDSIZE
 40
0.0
  9
$PLINEWID
 40
0.0
  9
$SPLFRAME
 70
     0
  9
$SPLINETYPE
 70
     6
  9
$SPLINESEGS
 70
     8
  9
$HANDSEED
  5
377
  9
$SURFTAB1
 70
     6
  9
$SURFTAB2
 70
     6
  9
$SURFTYPE
 70
     6
  9
$SURFU
 70
     6
  9
$SURFV
 70
     6
  9
$UCSBASE
  2

  9
$UCSNAME
  2

  9
$UCSORG
 10
0.0
 20
0.0
 30
0.0
  9
$UCSXDIR
 10
1.0
 20
0.0
 30
0.0
  9
$UCSYDIR
 10
0.0
 20
1.0
 30
0.0
  9
$UCSORTHOREF
  2

  9
$UCSORTHOVIEW
 70
     0
  9
$UCSORGTOP
 10
0.0
 20
0.0
 30
0.0
  9
$UCSORGBOTTOM
 10
0.0
 20
0.0
 30
0.0
  9
$UCSORGLEFT
 10
0.0
 20
0.0
 30
0.0
  9
$UCSORGRIGHT
 10
0.0
 20
0.0
 30
0.0
  9
$UCSORGFRONT
 10
0.0
 20
0.0
 30
0.0
  9
$UCSORGBACK
 10
0.0
 20
0.0
 30
0.0
  9
$PUCSBASE
  2

  9
$PUCSNAME
  2

  9
$PUCSORG
 10
0.0
 20
0.0
 30
0.0
  9
$PUCSXDIR
 10
1.0
 20
0.0
 30
0.0
  9
$PUCSYDIR
 10
0.0
 20
1.0
 30
0.0
  9
$PUCSORTHOREF
  2

  9
$PUCSORTHOVIEW
 70
     0
  9
$PUCSORGTOP
 10
0.0
 20
0.0
 30
0.0
  9
$PUCSORGBOTTOM
 10
0.0
 20
0.0
 30
0.0
  9
$PUCSORGLEFT
 10
0.0
 20
0.0
 30
0.0
  9
$PUCSORGRIGHT
 10
0.0
 20
0.0
 30
0.0
  9
$PUCSORGFRONT
 10
0.0
 20
0.0
 30
0.0
  9
$PUCSORGBACK
 10
0.0
 20
0.0
 30
0.0
  9
$USERI1
 70
     0
  9
$USERI2
 70
     0
  9
$USERI3
 70
     0
  9
$USERI4
 70
     0
  9
$USERI5
 70
     0
  9
$USERR1
 40
0.0
  9
$USERR2
 40
0.0
  9
$USERR3
 40
0.0
  9
$USERR4
 40
0.0
  9
$USERR5
 40
0.0
  9
$WORLDVIEW
 70
     1
  9
$SHADEDGE
 70
     3
  9
$SHADEDIF
 70
    70
  9
$TILEMODE
 70
     1
  9
$MAXACTVP
 70
    64
  9
$PINSBASE
 10
0.0
 20
0.0
 30
0.0
  9
$PLIMCHECK
 70
     0
  9
$PEXTMIN
 10
0.0
 20
0.0
 30
0.0
  9
$PEXTMAX
 10
420.0
 20
297.0
 30
0.0
  9
$PLIMMIN
 10
0.0
 20
0.0
  9
$PLIMMAX
 10
420.0
 20
297.0
  9
$UNITMODE
 70
     0
  9
$VISRETAIN
 70
     1
  9
$PLINEGEN
 70
     0
  9
$PSLTSCALE
 70
     1
  9
$TREEDEPTH
 70
  3020
  9
$CMLSTYLE
  2
Standard
  9
$CMLJUST
 70
     0
  9
$CMLSCALE
 40
1.0
  9
$PROXYGRAPHICS
 70
     1
  9
$MEASUREMENT
 70
     1
  9
$CELWEIGHT
370
    -1
  9
$ENDCAPS
280
     0
  9
$JOINSTYLE
280
     0
  9
$LWDISPLAY
290
     0
  9
$INSUNITS
 70
     4
  9
$HYPERLINKBASE
  1

  9
$STYLESHEET
  1

  9
$XEDIT
290
     1
  9
$CEPSNTYPE
380
     0
  9
$PSTYLEMODE
290
     1
  9
$FINGERPRINTGUID
  2
{1693F99B-E6F2-462C-A6FE-DB9123ABFAF6}
  9
$VERSIONGUID
  2
{17FE57D6-CBAB-4995-842C-7182630F383F}
  9
$EXTNAMES
290
     1
  9
$PSVPSCALE
 40
0.0
  9
$OLESTARTUP
290
     0
  9
$SORTENTS
280
   127
  9
$INDEXCTL
280
     0
  9
$HIDETEXT
280
     1
  9
$XCLIPFRAME
290
     0
  9
$HALOGAP
280
     0
  9
$OBSCOLOR
 70
   257
  9
$OBSLTYPE
280
     0
  9
$INTERSECTIONDISPLAY
280
     0
  9
$INTERSECTIONCOLOR
 70
   257
  9
$DIMASSOC
280
     1
  9
$PROJECTNAME
  1

  0
ENDSEC
  0
SECTION
  2
CLASSES
  0
CLASS
  1
ACDBDICTIONARYWDFLT
  2
AcDbDictionaryWithDefault
  3
ObjectDBX Classes
 90
        0
 91
        1
280
     0
281
     0
  0
CLASS
  1
MATERIAL
  2
AcDbMaterial
  3
ObjectDBX Classes
 90
     1153
 91
        3
280
     0
281
     0
  0
CLASS
  1
VISUALSTYLE
  2
AcDbVisualStyle
  3
ObjectDBX Classes
 90
     4095
 91
       24
280
     0
281
     0
  0
CLASS
  1
SCALE
  2
AcDbScale
  3
ObjectDBX Classes
 90
     1153
 91
       17
280
     0
281
     0
  0
CLASS
  1
TABLESTYLE
  2
AcDbTableStyle
  3
ObjectDBX Classes
 90
     4095
 91
        1
280
     0
281
     0
  0
CLASS
  1
MLEADERSTYLE
  2
AcDbMLeaderStyle
  3
ACDB_MLEADERSTYLE_CLASS
 90
     4095
 91
        1
280
     0
281
     0
  0
CLASS
  1
DICTIONARYVAR
  2
AcDbDictionaryVar
  3
ObjectDBX Classes
 90
        0
 91
        8
280
     0
281
     0
  0
CLASS
  1
CELLSTYLEMAP
  2
AcDbCellStyleMap
  3
ObjectDBX Classes
 90
     1152
 91
        1
280
     0
281
     0
  0
ENDSEC
  0
SECTION
  2
TABLES
  0
TABLE
  2
VPORT
  5
8
330
0
100
AcDbSymbolTable
 70
     1
  0
VPORT
  5
57
330
8
100
AcDbSymbolTableRecord
100
AcDbViewportTableRecord
  2
*Active
 70
     0
 10
0.0
 20
0.0
 11
1.0
 21
1.0
 12
210.0
 22
148.5
 13
0.0
 23
0.0
 14
1.0
 24
1.0
 15
0.0
 25
0.0
 16
0.0
 26
0.0
 36
1.0
 17
0.0
 27
0.0
 37
0.0
 40
297.0
 41
1.414141414141414
 42
50.0
 43
0.0
 44
0.0
 50
0.0
 51
0.0
 71
     0
 72
   100
 73
     1
 74
     1
 75
     0
 76
     0
 77
     0
 78
     0
281
     0
 65
     1
110
0.0
120
0.0
130
0.0
111
1.0
121
0.0
131
0.0
112
0.0
122
1.0
132
0.0
 79
     0
146
0.0
  0
ENDTAB
  0
TABLE
  2
LTYPE
  5
5
330
0
100
AcDbSymbolTable
 70
     1
  0
LTYPE
  5
5B
330
5
100
AcDbSymbolTableRecord
100
AcDbLinetypeTableRecord
  2
ByBlock
 70
     0
  3

 72
    65
 73
     0
 40
0.0
  0
LTYPE
  5
5C
330
5
100
AcDbSymbolTableRecord
100
AcDbLinetypeTableRecord
  2
ByLayer
 70
     0
  3

 72
    65
 73
     0
 40
0.0
  0
LTYPE
  5
5D
330
5
100
AcDbSymbolTableRecord
100
AcDbLinetypeTableRecord
  2
Continuous
 70
     0
  3
Solid line
 72
    65
 73
     0
 40
0.0
  0
ENDTAB
  0
TABLE
  2
LAYER
  5
2
330
0
100
AcDbSymbolTable
 70
    26
  0
LAYER
  5
54
330
2
100
AcDbSymbolTableRecord
100
AcDbLayerTableRecord
  2
0
 70
     0
 62
     7
  6
Continuous
370
    -3
390
F
  0
LAYER
  5
77
330
2
100
AcDbSymbolTableRecord
100
AcDbLayerTableRecord
  2
Border (ISO)
 70
     0
 62
     7
  6
Continuous
370
    70
390
F
  0
LAYER
  5
79
330
2
100
AcDbSymbolTableRecord
100
AcDbLayerTableRecord
  2
Center Mark (ISO)
 70
     0
 62
     7
  6
Continuous
370
    25
390
F
  0
LAYER
  5
7A
330
2
100
AcDbSymbolTableRecord
100
AcDbLayerTableRecord
  2
Centerline (ISO)
 70
     0
 62
     7
  6
Continuous
370
    25
390
F
  0
LAYER
  5
85
330
2
100
AcDbSymbolTableRecord
100
AcDbLayerTableRecord
  2
Title (ISO)
 70
     0
 62
     7
  6
Continuous
370
    50
390
F
  0
LAYER
  5
87
330
2
100
AcDbSymbolTableRecord
100
AcDbLayerTableRecord
  2
Visible (ISO)
 70
     0
 62
     7
  6
Continuous
370
    50
390
F
  0
LAYER
  5
88
330
2
100
AcDbSymbolTableRecord
100
AcDbLayerTableRecord
  2
Visible Narrow (ISO)
 70
     0
 62
     7
  6
Continuous
370
    35
390
F
  0
ENDTAB
  0
TABLE
  2
STYLE
  5
3
330
0
100
AcDbSymbolTable
 70
     5
  0
STYLE
  5
55
330
3
100
AcDbSymbolTableRecord
100
AcDbTextStyleTableRecord
  2
Standard
 70
     0
 40
0.0
 41
1.0
 50
0.0
 71
     0
 42
0.2
  3
tahoma.ttf
  4

1001
ACAD
1000
Tahoma
1071
      256
  0
STYLE
  5
5A
330
3
100
AcDbSymbolTableRecord
100
AcDbTextStyleTableRecord
  2
Annotative
 70
     0
 40
0.0
 41
1.0
 50
0.0
 71
     0
 42
0.2
  3
txt
  4

1001
AcadAnnotative
1000
AnnotativeData
1002
{
1070
     1
1070
     1
1002
}
  0
STYLE
  5
8D
330
3
100
AcDbSymbolTableRecord
100
AcDbTextStyleTableRecord
  2
Label Text (JIS)
 70
     0
 40
0.0
 41
1.0
 50
0.0
 71
     0
 42
0.2
  3
tahoma.ttf
  4

1001
ACAD
1000
Tahoma
1071
      256
  0
STYLE
  5
8E
330
3
100
AcDbSymbolTableRecord
100
AcDbTextStyleTableRecord
  2
Note Text (JIS)
 70
     0
 40
0.0
 41
1.0
 50
0.0
 71
     0
 42
0.2
  3
tahoma.ttf
  4

1001
ACAD
1000
Tahoma
1071
      256
  0
STYLE
  5
CC
330
3
100
AcDbSymbolTableRecord
100
AcDbTextStyleTableRecord
  2
文字スタイル12
 70
     0
 40
0.0
 41
1.0
 50
0.0
 71
     0
 42
0.2
  3
tahoma.ttf
  4

1001
ACAD
1000
Tahoma
1071
      256
  0
ENDTAB
  0
TABLE
  2
VIEW
  5
6
330
0
100
AcDbSymbolTable
 70
     0
  0
ENDTAB
  0
TABLE
  2
UCS
  5
7
330
0
100
AcDbSymbolTable
 70
     0
  0
ENDTAB
  0
TABLE
  2
APPID
  5
9
330
0
100
AcDbSymbolTable
 70
     4
  0
APPID
  5
56
330
9
100
AcDbSymbolTableRecord
100
AcDbRegAppTableRecord
  2
ACAD
 70
     0
  0
APPID
  5
5E
330
9
100
AcDbSymbolTableRecord
100
AcDbRegAppTableRecord
  2
AcadAnnotative
 70
     0
  0
APPID
  5
CF
330
9
100
AcDbSymbolTableRecord
100
AcDbRegAppTableRecord
  2
AcadAnnoPO
 70
     0
  0
APPID
  5
376
330
9
100
AcDbSymbolTableRecord
100
AcDbRegAppTableRecord
  2
ACAD_MLEADERVER
 70
     0
  0
ENDTAB
  0
TABLE
  2
DIMSTYLE
  5
A
330
0
100
AcDbSymbolTable
 70
    11
100
AcDbDimStyleTable
 71
     0
  0
DIMSTYLE
105
58
330
A
100
AcDbSymbolTableRecord
100
AcDbDimStyleTableRecord
  2
Standard
 70
     0
340
55
  0
DIMSTYLE
105
59
330
A
100
AcDbSymbolTableRecord
100
AcDbDimStyleTableRecord
  2
Annotative
 70
     0
340
55
1001
AcadAnnotative
1000
AnnotativeData
1002
{
1070
     1
1070
     1
1002
}
  0
DIMSTYLE
105
8F
330
A
100
AcDbSymbolTableRecord
100
AcDbDimStyleTableRecord
  2
Default - Method 1b (JIS)
 70
     0
 41
2.5
 42
0.0
 43
5.999999999999999
 44
3.174999999999999
 45
0.00000001
 46
10.0
 73
     0
 77
     1
 78
     8
 79
     2
140
4.5
143
0.03937
147
0.8
171
     3
172
     1
176
   256
177
   256
178
   256
271
     2
272
     2
274
     3
284
     8
286
     8
340
8E
341
90
342
90
371
    -1
372
    -1
  0
DIMSTYLE
105
96
330
A
100
AcDbSymbolTableRecord
100
AcDbDimStyleTableRecord
  2
Default - Method 1b (JIS)$7
 70
     0
 41
2.5
 42
0.0
 43
5.999999999999999
 44
3.174999999999999
 45
0.00000001
 46
10.0
 73
     0
 77
     1
 78
     8
 79
     2
140
4.5
143
0.03937
147
0.8
171
     3
172
     1
176
   256
177
   256
178
   256
271
     2
272
     2
274
     3
284
     8
286
     8
340
8E
341
90
342
90
371
    -1
372
    -1
  0
DIMSTYLE
105
97
330
A
100
AcDbSymbolTableRecord
100
AcDbDimStyleTableRecord
  2
Default - Method 2 (JIS)
 70
     0
 41
2.5
 42
0.0
 43
5.999999999999999
 44
3.174999999999999
 45
0.00000001
 46
10.0
 77
     1
 78
     8
 79
     2
140
4.5
143
0.03937
147
0.8
171
     3
172
     1
176
   256
177
   256
178
   256
271
     2
272
     2
274
     3
284
     8
286
     8
340
8E
341
90
342
90
371
    -1
372
    -1
  0
DIMSTYLE
105
98
330
A
100
AcDbSymbolTableRecord
100
AcDbDimStyleTableRecord
  2
Default - Method 2 (JIS)$7
 70
     0
 41
2.5
 42
0.0
 43
5.999999999999999
 44
3.174999999999999
 45
0.00000001
 46
10.0
 77
     1
 78
     8
 79
     2
140
4.5
143
0.03937
147
0.8
171
     3
172
     1
176
   256
177
   256
178
   256
271
     2
272
     2
274
     3
284
     8
286
     8
340
8E
341
90
342
90
371
    -1
372
    -1
  0
DIMSTYLE
105
99
330
A
100
AcDbSymbolTableRecord
100
AcDbDimStyleTableRecord
  2
Default (JIS)
 70
     0
 41
2.5
 42
0.0
 43
5.999999999999999
 44
1.0
 45
0.00000001
 46
10.0
 73
     0
 74
     0
 77
     1
 78
     8
 79
     2
140
4.5
143
0.03937
146
0.7777777910232544
147
0.8
171
     3
172
     1
176
   256
177
   256
178
   256
271
     2
272
     2
274
     3
340
8E
341
90
342
90
371
    -1
372
    -1
  0
DIMSTYLE
105
9A
330
A
100
AcDbSymbolTableRecord
100
AcDbDimStyleTableRecord
  2
Default (JIS)$7
 70
     0
 41
2.5
 42
0.0
 43
5.999999999999999
 44
1.0
 45
0.00000001
 46
10.0
 73
     0
 74
     0
 77
     1
 78
     8
 79
     2
140
4.5
143
0.03937
146
0.7777777910232544
147
0.8
171
     3
172
     1
176
   256
177
   256
178
   256
271
     2
272
     2
274
     3
340
8E
341
90
342
90
371
    -1
372
    -1
  0
DIMSTYLE
105
9B
330
A
100
AcDbSymbolTableRecord
100
AcDbDimStyleTableRecord
  2
Alternate (ISO)
 70
     0
 41
2.5
340
55
342
9C
  0
DIMSTYLE
105
AE
330
A
100
AcDbSymbolTableRecord
100
AcDbDimStyleTableRecord
  2
Datum (ISO)
 70
     0
 41
2.5
340
55
342
9C
  0
DIMSTYLE
105
BD
330
A
100
AcDbSymbolTableRecord
100
AcDbDimStyleTableRecord
  2
Large (ISO)
 70
     0
 41
5.0
340
55
342
9C
  0
ENDTAB
  0
TABLE
  2
BLOCK_RECORD
  5
1
330
0
100
AcDbSymbolTable
 70
     7
  0
BLOCK_RECORD
  5
6C
330
1
100
AcDbSymbolTableRecord
100
AcDbBlockTableRecord
  2
*Model_Space
340
6F
  0
BLOCK_RECORD
  5
68
330
1
100
AcDbSymbolTableRecord
100
AcDbBlockTableRecord
  2
*Paper_Space
340
6B
  0
BLOCK_RECORD
  5
70
330
1
100
AcDbSymbolTableRecord
100
AcDbBlockTableRecord
  2
*Paper_Space0
340
73
  0
BLOCK_RECORD
  5
90
330
1
100
AcDbSymbolTableRecord
100
AcDbBlockTableRecord
  2
_Open
340
0
  0
BLOCK_RECORD
  5
9C
330
1
100
AcDbSymbolTableRecord
100
AcDbBlockTableRecord
  2
_Closed
340
0
  0
BLOCK_RECORD
  5
A3
330
1
100
AcDbSymbolTableRecord
100
AcDbBlockTableRecord
  2
DatumFilled45
340
0
  0
BLOCK_RECORD
  5
AF
330
1
100
AcDbSymbolTableRecord
100
AcDbBlockTableRecord
  2
Filled-1
340
0
  0
BLOCK_RECORD
  5
BE
330
1
100
AcDbSymbolTableRecord
100
AcDbBlockTableRecord
  2
図面枠 VR用
340
0
102
{BLKREFS
331
C5
102
}
  0
BLOCK_RECORD
  5
C6
330
1
100
AcDbSymbolTableRecord
100
AcDbBlockTableRecord
  2
表題欄 VR用
340
0
102
{BLKREFS
331
D0
102
}
  0
ENDTAB
  0
ENDSEC
  0
SECTION
  2
BLOCKS
  0
BLOCK
  5
6D
330
6C
100
AcDbEntity
  8
0
100
AcDbBlockBegin
  2
*Model_Space
 70
     0
 10
0.0
 20
0.0
 30
0.0
  3
*Model_Space
  1

  0
ENDBLK
  5
6E
330
6C
100
AcDbEntity
  8
0
100
AcDbBlockEnd
  0
BLOCK
  5
69
330
68
100
AcDbEntity
 67
     1
  8
0
100
AcDbBlockBegin
  2
*Paper_Space
 70
     0
 10
0.0
 20
0.0
 30
0.0
  3
*Paper_Space
  1

  0
ENDBLK
  5
6A
330
68
100
AcDbEntity
 67
     1
  8
0
100
AcDbBlockEnd
  0
BLOCK
  5
71
330
70
100
AcDbEntity
 67
     1
  8
0
100
AcDbBlockBegin
  2
*Paper_Space0
 70
     0
 10
0.0
 20
0.0
 30
0.0
  3
*Paper_Space0
  1

  0
ENDBLK
  5
72
330
70
100
AcDbEntity
 67
     1
  8
0
100
AcDbBlockEnd
  0
BLOCK
  5
94
330
90
100
AcDbEntity
  8
0
100
AcDbBlockBegin
  2
_Open
 70
     0
 10
0.0
 20
0.0
 30
0.0
  3
_Open
  1

  0
LINE
  5
91
330
90
100
AcDbEntity
  8
0
  6
ByBlock
 62
     0
370
    -2
100
AcDbLine
 10
-1.0
 20
0.1666666666666666
 30
0.0
 11
0.0
 21
0.0
 31
0.0
  0
LINE
  5
92
330
90
100
AcDbEntity
  8
0
  6
ByBlock
 62
     0
370
    -2
100
AcDbLine
 10
-1.0
 20
-0.1666666666666666
 30
0.0
 11
0.0
 21
0.0
 31
0.0
  0
LINE
  5
93
330
90
100
AcDbEntity
  8
0
  6
ByBlock
 62
     0
370
    -2
100
AcDbLine
 10
0.0
 20
0.0
 30
0.0
 11
-1.0
 21
0.0
 31
0.0
  0
ENDBLK
  5
95
330
90
100
AcDbEntity
  8
0
100
AcDbBlockEnd
  0
BLOCK
  5
A1
330
9C
100
AcDbEntity
  8
0
100
AcDbBlockBegin
  2
_Closed
 70
     0
 10
0.0
 20
0.0
 30
0.0
  3
_Closed
  1

  0
LINE
  5
9D
330
9C
100
AcDbEntity
  8
0
  6
ByBlock
 62
     0
370
    -2
100
AcDbLine
 10
-1.0
 20
0.1666666666666666
 30
0.0
 11
0.0
 21
0.0
 31
0.0
  0
LINE
  5
9E
330
9C
100
AcDbEntity
  8
0
  6
ByBlock
 62
     0
370
    -2
100
AcDbLine
 10
0.0
 20
0.0
 30
0.0
 11
-1.0
 21
-0.1666666666666666
 31
0.0
  0
LINE
  5
9F
330
9C
100
AcDbEntity
  8
0
  6
ByBlock
 62
     0
370
    -2
100
AcDbLine
 10
-1.0
 20
0.1666666666666666
 30
0.0
 11
-1.0
 21
-0.1666666666666666
 31
0.0
  0
LINE
  5
A0
330
9C
100
AcDbEntity
  8
0
  6
ByBlock
 62
     0
370
    -2
100
AcDbLine
 10
0.0
 20
0.0
 30
0.0
 11
-1.0
 21
0.0
 31
0.0
  0
ENDBLK
  5
A2
330
9C
100
AcDbEntity
  8
0
100
AcDbBlockEnd
  0
BLOCK
  5
A4
330
A3
100
AcDbEntity
  8
0
100
AcDbBlockBegin
  2
DatumFilled45
 70
     0
 10
0.0
 20
0.0
 30
0.0
  3
DatumFilled45
  1

  0
POLYLINE
  5
A6
330
A3
100
AcDbEntity
  8
0
 62
     0
100
AcDb2dPolyline
 66
     1
 10
0.0
 20
0.0
 30
0.0
 70
   128
  0
VERTEX
  5
A7
330
A6
100
AcDbEntity
  8
0
 62
     0
100
AcDbVertex
100
AcDb2dVertex
 10
0.0
 20
1.0
 30
0.0
  0
VERTEX
  5
A8
330
A6
100
AcDbEntity
  8
0
 62
     0
100
AcDbVertex
100
AcDb2dVertex
 10
0.0
 20
-1.0
 30
0.0
  0
VERTEX
  5
AA
330
A6
100
AcDbEntity
  8
0
 62
     0
100
AcDbVertex
100
AcDb2dVertex
 10
-1.0
 20
0.0
 30
0.0
  0
VERTEX
  5
AB
330
A6
100
AcDbEntity
  8
0
 62
     0
100
AcDbVertex
100
AcDb2dVertex
 10
0.0
 20
1.0
 30
0.0
  0
SEQEND
  5
A9
330
A6
100
AcDbEntity
  8
0
 62
     0
  0
SOLID
  5
AD
330
A3
100
AcDbEntity
  8
0
 62
     0
100
AcDbTrace
 10
0.0
 20
1.0
 30
0.0
 11
0.0
 21
-1.0
 31
0.0
 12
-1.0
 22
0.0
 32
0.0
 13
0.0
 23
1.0
 33
0.0
  0
ENDBLK
  5
A5
330
A3
100
AcDbEntity
  8
0
100
AcDbBlockEnd
  0
BLOCK
  5
B0
330
AF
100
AcDbEntity
  8
0
100
AcDbBlockBegin
  2
Filled-1
 70
     0
 10
0.0
 20
0.0
 30
0.0
  3
Filled-1
  1

  0
LINE
  5
B2
330
AF
100
AcDbEntity
  8
0
 62
     0
100
AcDbLine
 10
-1.0
 20
0.0
 30
0.0
 11
0.0
 21
0.0
 31
0.0
  0
POLYLINE
  5
B3
330
AF
100
AcDbEntity
  8
0
 62
     0
100
AcDb2dPolyline
 66
     1
 10
0.0
 20
0.0
 30
0.0
 70
   128
  0
VERTEX
  5
B4
330
B3
100
AcDbEntity
  8
0
 62
     0
100
AcDbVertex
100
AcDb2dVertex
 10
-1.0
 20
-0.1
 30
0.0
  0
VERTEX
  5
B5
330
B3
100
AcDbEntity
  8
0
 62
     0
100
AcDbVertex
100
AcDb2dVertex
 10
0.0
 20
0.0
 30
0.0
  0
VERTEX
  5
B7
330
B3
100
AcDbEntity
  8
0
 62
     0
100
AcDbVertex
100
AcDb2dVertex
 10
-1.0
 20
0.1
 30
0.0
  0
VERTEX
  5
B8
330
B3
100
AcDbEntity
  8
0
 62
     0
100
AcDbVertex
100
AcDb2dVertex
 10
-1.0
 20
-0.1
 30
0.0
  0
SEQEND
  5
B6
330
B3
100
AcDbEntity
  8
0
 62
     0
  0
SOLID
  5
B9
330
AF
100
AcDbEntity
  8
0
 62
     0
100
AcDbTrace
 10
-1.0
 20
-0.1
 30
0.0
 11
0.0
 21
0.0
 31
0.0
 12
-1.0
 22
0.1
 32
0.0
 13
-1.0
 23
-0.1
 33
0.0
  0
LINE
  5
BA
330
AF
100
AcDbEntity
  8
0
 62
     0
100
AcDbLine
 10
-1.0
 20
-0.1
 30
0.0
 11
0.0
 21
0.0
 31
0.0
  0
LINE
  5
BB
330
AF
100
AcDbEntity
  8
0
 62
     0
100
AcDbLine
 10
0.0
 20
0.0
 30
0.0
 11
-1.0
 21
0.1
 31
0.0
  0
LINE
  5
BC
330
AF
100
AcDbEntity
  8
0
 62
     0
100
AcDbLine
 10
-1.0
 20
0.1
 30
0.0
 11
-1.0
 21
-0.1
 31
0.0
  0
ENDBLK
  5
B1
330
AF
100
AcDbEntity
  8
0
100
AcDbBlockEnd
  0
BLOCK
  5
BF
330
BE
100
AcDbEntity
  8
0
100
AcDbBlockBegin
  2
図面枠 VR用
 70
     0
 10
0.0
 20
0.0
 30
0.0
  3
図面枠 VR用
  1

  0
LINE
  5
C1
330
BE
100
AcDbEntity
  8
Border (ISO)
100
AcDbLine
 10
410.0
 20
287.0
 30
0.0
 11
410.0
 21
10.0
 31
0.0
  0
LINE
  5
C2
330
BE
100
AcDbEntity
  8
Border (ISO)
100
AcDbLine
 10
10.0
 20
287.0
 30
0.0
 11
10.0
 21
10.0
 31
0.0
  0
LINE
  5
C3
330
BE
100
AcDbEntity
  8
Border (ISO)
100
AcDbLine
 10
10.0
 20
10.0
 30
0.0
 11
410.0
 21
10.0
 31
0.0
  0
LINE
  5
C4
330
BE
100
AcDbEntity
  8
Border (ISO)
100
AcDbLine
 10
10.0
 20
287.0
 30
0.0
 11
410.0
 21
287.0
 31
0.0
  0
ENDBLK
  5
C0
330
BE
100
AcDbEntity
  8
0
100
AcDbBlockEnd
  0
BLOCK
  5
C7
330
C6
100
AcDbEntity
  8
0
100
AcDbBlockBegin
  2
表題欄 VR用
 70
     2
 10
0.0
 20
0.0
 30
0.0
  3
表題欄 VR用
  1

  0
LINE
  5
C9
330
C6
100
AcDbEntity
  8
Title (ISO)
100
AcDbLine
 10
181.6756649546459
 20
100.0
 30
0.0
 11
239.9999999999999
 21
100.0
 31
0.0
  0
LINE
  5
CA
330
C6
100
AcDbEntity
  8
Title (ISO)
100
AcDbLine
 10
239.9999999999999
 20
100.0
 30
0.0
 11
-160.0
 21
100.0
 31
0.0
  0
LINE
  5
CB
330
C6
100
AcDbEntity
  8
Title (ISO)
100
AcDbLine
 10
239.9999999999999
 20
109.0000000000001
 30
0.0
 11
239.9999999999999
 21
100.0
 31
0.0
  0
ATTDEF
  5
CD
102
{ACAD_XDICTIONARY
360
33B
102
}
330
C6
100
AcDbEntity
  8
Title (ISO)
100
AcDbText
 10
16.8405641085215
 20
102.9499999980937
 30
0.0
 40
3.100000023841857
  1
VRXF-□-15~35B-S-8AM6
  7
文字スタイル12
100
AcDbAttributeDefinition
  3
部品番号
  2
部品番号_001
 70
     0
  0
ENDBLK
  5
C8
330
C6
100
AcDbEntity
  8
0
100
AcDbBlockEnd
  0
ENDSEC
  0
SECTION
  2
ENTITIES
  0
INSERT
  5
C5
330
6C
100
AcDbEntity
  8
0
100
AcDbBlockReference
  2
図面枠 VR用
 10
0.0
 20
0.0
 30
0.0
  0
INSERT
  5
D0
330
6C
100
AcDbEntity
  8
0
100
AcDbBlockReference
 66
     1
  2
表題欄 VR用
 10
170.0
 20
-90.00000000000003
 30
0.0
  0
ATTRIB
  5
D3
102
{ACAD_XDICTIONARY
360
33E
102
}
330
D0
100
AcDbEntity
  8
Title (ISO)
100
AcDbText
 10
186.8405641085216
 20
12.94999999809369
 30
0.0
 40
3.100000023841857
  1
VRXF-□-15~35B-S-8AM6
  7
文字スタイル12
100
AcDbAttribute
  2
部品番号_001
 70
     0
  0
SEQEND
  5
D2
330
D0
100
AcDbEntity
  8
0
  0
LINE
  5
D4
330
6C
100
AcDbEntity
  8
Visible (ISO)
100
AcDbLine
 10
244.25
 20
84.71116893749616
 30
0.0
 11
244.25
 21
112.296955375123
 31
0.0
  0
LINE
  5
D5
330
6C
100
AcDbEntity
  8
Visible Narrow (ISO)
100
AcDbLine
 10
244.3964466094067
 20
112.6505087657163
 30
0.0
 11
244.3964466094067
 21
84.35761554690289
 31
0.0
  0
ARC
  5
D6
330
6C
100
AcDbEntity
  8
Visible (ISO)
100
AcDbCircle
 10
244.75
 20
84.71116893749616
 30
0.0
 40
0.5000000000000001
100
AcDbArc
 50
180.0
 51
224.9999999999985
  0
ARC
  5
D7
330
6C
100
AcDbEntity
  8
Visible (ISO)
100
AcDbCircle
 10
244.75
 20
112.296955375123
 30
0.0
 40
0.5
100
AcDbArc
 50
135.0000000000014
 51
180.0
  0
LINE
  5
D8
330
6C
100
AcDbEntity
  8
Visible Narrow (ISO)
100
AcDbLine
 10
245.1035533905933
 20
83.65050876571633
 30
0.0
 11
245.1035533905933
 21
113.3576155469029
 31
0.0
  0
ARC
  5
D9
330
6C
100
AcDbEntity
  8
Visible (ISO)
100
AcDbCircle
 10
244.75
 20
83.29695537512307
 30
0.0
 40
0.5000000000000001
100
AcDbArc
 50
0.0
 51
44.99999999999856
  0
ARC
  5
DA
330
6C
100
AcDbEntity
  8
Visible (ISO)
100
AcDbCircle
 10
244.75
 20
113.7111689374961
 30
0.0
 40
0.5
100
AcDbArc
 50
315.0000000000014
 51
0.0
  0
LINE
  5
DB
330
6C
100
AcDbEntity
  8
Visible (ISO)
100
AcDbLine
 10
245.25
 20
78.00406215630961
 30
0.0
 11
245.25
 21
119.0040621563096
 31
0.0
  0
LINE
  5
DC
330
6C
100
AcDbEntity
  8
Visible Narrow (ISO)
100
AcDbLine
 10
247.25
 20
121.0040621563096
 30
0.0
 11
247.25
 21
76.00406215630961
 31
0.0
  0
ARC
  5
DD
330
6C
100
AcDbEntity
  8
Visible (ISO)
100
AcDbCircle
 10
247.25
 20
78.00406215630961
 30
0.0
 40
2.0
100
AcDbArc
 50
180.0
 51
270.0
  0
ARC
  5
DE
330
6C
100
AcDbEntity
  8
Visible (ISO)
100
AcDbCircle
 10
247.25
 20
119.0040621563096
 30
0.0
 40
2.0
100
AcDbArc
 50
90.0
 51
180.0
  0
LINE
  5
DF
330
6C
100
AcDbEntity
  8
Visible Narrow (ISO)
100
AcDbLine
 10
249.25
 20
76.00406215630961
 30
0.0
 11
249.25
 21
121.0040621563096
 31
0.0
  0
ARC
  5
E0
330
6C
100
AcDbEntity
  8
Visible (ISO)
100
AcDbCircle
 10
249.25
 20
74.00406215630962
 30
0.0
 40
2.0
100
AcDbArc
 50
0.0
 51
90.0
  0
ARC
  5
E1
330
6C
100
AcDbEntity
  8
Visible (ISO)
100
AcDbCircle
 10
249.25
 20
123.0040621563096
 30
0.0
 40
2.0
100
AcDbArc
 50
270.0
 51
0.0
  0
LINE
  5
E2
330
6C
100
AcDbEntity
  8
Visible (ISO)
100
AcDbLine
 10
251.25
 20
73.80406215630961
 30
0.0
 11
251.25
 21
123.2040621563096
 31
0.0
  0
LINE
  5
E3
330
6C
100
AcDbEntity
  8
Visible (ISO)
100
AcDbLine
 10
251.55
 20
123.5040621563096
 30
0.0
 11
251.55
 21
73.50406215630961
 31
0.0
  0
LINE
  5
E4
330
6C
100
AcDbEntity
  8
Visible (ISO)
100
AcDbLine
 10
251.25
 20
123.2040621563096
 30
0.0
 11
251.55
 21
123.5040621563096
 31
0.0
  0
LINE
  5
E5
330
6C
100
AcDbEntity
  8
Visible (ISO)
100
AcDbLine
 10
251.25
 20
73.80406215630961
 30
0.0
 11
251.55
 21
73.50406215630961
 31
0.0
  0
LINE
  5
E6
330
6C
100
AcDbEntity
  8
Visible Narrow (ISO)
100
AcDbLine
 10
253.8499999999999
 20
73.50406215630961
 30
0.0
 11
253.8499999999999
 21
123.5040621563096
 31
0.0
  0
ARC
  5
E7
330
6C
100
AcDbEntity
  8
Visible (ISO)
100
AcDbCircle
 10
253.8499999999999
 20
73.10406215630961
 30
0.0
 40
0.4000000000000001
100
AcDbArc
 50
0.0
 51
90.0
  0
ARC
  5
E8
330
6C
100
AcDbEntity
  8
Visible (ISO)
100
AcDbCircle
 10
253.8499999999999
 20
123.9040621563096
 30
0.0
 40
0.4000000000000001
100
AcDbArc
 50
270.0
 51
0.0
  0
LINE
  5
E9
330
6C
100
AcDbEntity
  8
Visible (ISO)
100
AcDbLine
 10
254.25
 20
72.80406215630961
 30
0.0
 11
254.25
 21
76.50406215630962
 31
0.0
  0
LINE
  5
EA
330
6C
100
AcDbEntity
  8
Visible (ISO)
100
AcDbLine
 10
254.25
 20
120.5040621563096
 30
0.0
 11
254.25
 21
76.50406215630962
 31
0.0
  0
LINE
  5
EB
330
6C
100
AcDbEntity
  8
Visible (ISO)
100
AcDbLine
 10
254.25
 20
120.5040621563096
 30
0.0
 11
254.25
 21
124.2040621563096
 31
0.0
  0
LINE
  5
EC
330
6C
100
AcDbEntity
  8
Visible (ISO)
100
AcDbLine
 10
254.25
 20
124.2040621563096
 30
0.0
 11
254.55
 21
124.5040621563096
 31
0.0
  0
LINE
  5
ED
330
6C
100
AcDbEntity
  8
Visible Narrow (ISO)
100
AcDbLine
 10
254.25
 20
120.5040621563096
 30
0.0
 11
254.55
 21
120.5040621563096
 31
0.0
  0
LINE
  5
EE
330
6C
100
AcDbEntity
  8
Visible (ISO)
100
AcDbLine
 10
254.55
 20
124.5040621563096
 30
0.0
 11
254.55
 21
120.5040621563096
 31
0.0
  0
LINE
  5
EF
330
6C
100
AcDbEntity
  8
Visible Narrow (ISO)
100
AcDbLine
 10
254.25
 20
76.50406215630962
 30
0.0
 11
254.55
 21
76.50406215630962
 31
0.0
  0
LINE
  5
F0
330
6C
100
AcDbEntity
  8
Visible (ISO)
100
AcDbLine
 10
254.55
 20
76.50406215630962
 30
0.0
 11
254.55
 21
120.5040621563096
 31
0.0
  0
LINE
  5
F1
330
6C
100
AcDbEntity
  8
Visible (ISO)
100
AcDbLine
 10
254.25
 20
72.80406215630961
 30
0.0
 11
254.55
 21
72.50406215630961
 31
0.0
  0
LINE
  5
F2
330
6C
100
AcDbEntity
  8
Visible (ISO)
100
AcDbLine
 10
254.55
 20
76.50406215630963
 30
0.0
 11
254.55
 21
72.50406215630961
 31
0.0
  0
LINE
  5
F3
330
6C
100
AcDbEntity
  8
Visible (ISO)
100
AcDbLine
 10
279.95
 20
124.5040621563096
 30
0.0
 11
254.55
 21
124.5040621563096
 31
0.0
  0
LINE
  5
F4
330
6C
100
AcDbEntity
  8
Visible (ISO)
100
AcDbLine
 10
279.95
 20
72.50406215630961
 30
0.0
 11
254.55
 21
72.50406215630961
 31
0.0
  0
LINE
  5
F5
330
6C
100
AcDbEntity
  8
Visible Narrow (ISO)
100
AcDbLine
 10
279.95
 20
76.50406215630962
 30
0.0
 11
254.55
 21
76.50406215630962
 31
0.0
  0
LINE
  5
F6
330
6C
100
AcDbEntity
  8
Visible Narrow (ISO)
100
AcDbLine
 10
279.95
 20
120.5040621563096
 30
0.0
 11
254.55
 21
120.5040621563096
 31
0.0
  0
LINE
  5
F7
330
6C
100
AcDbEntity
  8
Visible (ISO)
100
AcDbLine
 10
279.95
 20
124.5040621563096
 30
0.0
 11
280.25
 21
124.2040621563096
 31
0.0
  0
LINE
  5
F8
330
6C
100
AcDbEntity
  8
Visible (ISO)
100
AcDbLine
 10
280.25
 20
72.80406215630961
 30
0.0
 11
279.95
 21
72.50406215630961
 31
0.0
  0
LINE
  5
F9
330
6C
100
AcDbEntity
  8
Visible Narrow (ISO)
100
AcDbLine
 10
280.25
 20
76.50406215630962
 30
0.0
 11
279.95
 21
76.50406215630962
 31
0.0
  0
LINE
  5
FA
330
6C
100
AcDbEntity
  8
Visible (ISO)
100
AcDbLine
 10
279.95
 20
72.50406215630961
 30
0.0
 11
279.95
 21
76.50406215630963
 31
0.0
  0
LINE
  5
FB
330
6C
100
AcDbEntity
  8
Visible (ISO)
100
AcDbLine
 10
280.25
 20
76.50406215630962
 30
0.0
 11
280.25
 21
72.80406215630961
 31
0.0
  0
LINE
  5
FC
330
6C
100
AcDbEntity
  8
Visible Narrow (ISO)
100
AcDbLine
 10
280.25
 20
120.5040621563096
 30
0.0
 11
279.95
 21
120.5040621563096
 31
0.0
  0
LINE
  5
FD
330
6C
100
AcDbEntity
  8
Visible (ISO)
100
AcDbLine
 10
279.95
 20
120.5040621563096
 30
0.0
 11
279.95
 21
76.50406215630962
 31
0.0
  0
LINE
  5
FE
330
6C
100
AcDbEntity
  8
Visible (ISO)
100
AcDbLine
 10
280.25
 20
76.50406215630962
 30
0.0
 11
280.25
 21
120.5040621563096
 31
0.0
  0
LINE
  5
FF
330
6C
100
AcDbEntity
  8
Visible (ISO)
100
AcDbLine
 10
279.95
 20
120.5040621563096
 30
0.0
 11
279.95
 21
124.5040621563096
 31
0.0
  0
LINE
  5
100
330
6C
100
AcDbEntity
  8
Visible (ISO)
100
AcDbLine
 10
280.25
 20
124.2040621563096
 30
0.0
 11
280.25
 21
120.5040621563096
 31
0.0
  0
LINE
  5
101
330
6C
100
AcDbEntity
  8
Visible (ISO)
100
AcDbLine
 10
244.3964466094067
 20
112.6505087657163
 30
0.0
 11
245.1035533905932
 21
113.3576155469029
 31
0.0
  0
LINE
  5
102
330
6C
100
AcDbEntity
  8
Visible (ISO)
100
AcDbLine
 10
244.3964466094067
 20
84.35761554690289
 30
0.0
 11
245.1035533905932
 21
83.65050876571633
 31
0.0
  0
LINE
  5
103
330
6C
100
AcDbEntity
  8
Visible (ISO)
100
AcDbLine
 10
249.25
 20
76.00406215630961
 30
0.0
 11
247.25
 21
76.00406215630961
 31
0.0
  0
LINE
  5
104
330
6C
100
AcDbEntity
  8
Visible (ISO)
100
AcDbLine
 10
249.25
 20
121.0040621563096
 30
0.0
 11
247.25
 21
121.0040621563096
 31
0.0
  0
LINE
  5
105
330
6C
100
AcDbEntity
  8
Visible (ISO)
100
AcDbLine
 10
253.8499999999999
 20
73.50406215630961
 30
0.0
 11
251.55
 21
73.50406215630961
 31
0.0
  0
LINE
  5
106
330
6C
100
AcDbEntity
  8
Visible (ISO)
100
AcDbLine
 10
253.8499999999999
 20
123.5040621563096
 30
0.0
 11
251.55
 21
123.5040621563096
 31
0.0
  0
LINE
  5
107
330
6C
100
AcDbEntity
  8
Visible Narrow (ISO)
100
AcDbLine
 10
241.85
 20
92.50406215630961
 30
0.0
 11
241.85
 21
104.5040621563096
 31
0.0
  0
ARC
  5
108
330
6C
100
AcDbEntity
  8
Visible (ISO)
100
AcDbCircle
 10
241.85
 20
92.1040621563096
 30
0.0
 40
0.4000000000000001
100
AcDbArc
 50
0.0
 51
90.0
  0
ARC
  5
109
330
6C
100
AcDbEntity
  8
Visible (ISO)
100
AcDbCircle
 10
241.85
 20
104.9040621563096
 30
0.0
 40
0.4000000000000001
100
AcDbArc
 50
270.0
 51
0.0
  0
LINE
  5
10A
330
6C
100
AcDbEntity
  8
Visible (ISO)
100
AcDbLine
 10
242.25
 20
91.86803239057582
 30
0.0
 11
242.25
 21
105.1400919220434
 31
0.0
  0
LINE
  5
10B
330
6C
100
AcDbEntity
  8
Visible (ISO)
100
AcDbLine
 10
243.25
 20
105.5040621563096
 30
0.0
 11
243.25
 21
91.50406215630964
 31
0.0
  0
LINE
  5
10C
330
6C
100
AcDbEntity
  8
Visible (ISO)
100
AcDbLine
 10
242.25
 20
105.1400919220434
 30
0.0
 11
243.25
 21
105.5040621563096
 31
0.0
  0
LINE
  5
10D
330
6C
100
AcDbEntity
  8
Visible (ISO)
100
AcDbLine
 10
242.25
 20
91.86803239057582
 30
0.0
 11
243.25
 21
91.5040621563096
 31
0.0
  0
LINE
  5
10E
330
6C
100
AcDbEntity
  8
Visible Narrow (ISO)
100
AcDbLine
 10
222.75
 20
104.5040621563096
 30
0.0
 11
222.75
 21
92.50406215630961
 31
0.0
  0
LINE
  5
10F
330
6C
100
AcDbEntity
  8
Visible (ISO)
100
AcDbLine
 10
222.25
 20
93.0040621563096
 30
0.0
 11
222.25
 21
104.0040621563096
 31
0.0
  0
ARC
  5
110
330
6C
100
AcDbEntity
  8
Visible (ISO)
100
AcDbCircle
 10
222.75
 20
93.0040621563096
 30
0.0
 40
0.5
100
AcDbArc
 50
180.0
 51
270.0
  0
ARC
  5
111
330
6C
100
AcDbEntity
  8
Visible (ISO)
100
AcDbCircle
 10
222.75
 20
104.0040621563096
 30
0.0
 40
0.5
100
AcDbArc
 50
90.0
 51
180.0
  0
LINE
  5
112
330
6C
100
AcDbEntity
  8
Visible (ISO)
100
AcDbLine
 10
241.85
 20
92.50406215630961
 30
0.0
 11
222.75
 21
92.50406215630961
 31
0.0
  0
LINE
  5
113
330
6C
100
AcDbEntity
  8
Visible (ISO)
100
AcDbLine
 10
241.85
 20
104.5040621563096
 30
0.0
 11
222.75
 21
104.5040621563096
 31
0.0
  0
LINE
  5
114
330
6C
100
AcDbEntity
  8
Visible (ISO)
100
AcDbLine
 10
244.25
 20
91.50406215630964
 30
0.0
 11
243.25
 21
91.50406215630964
 31
0.0
  0
LINE
  5
115
330
6C
100
AcDbEntity
  8
Visible (ISO)
100
AcDbLine
 10
244.25
 20
105.5040621563096
 30
0.0
 11
243.25
 21
105.5040621563096
 31
0.0
  0
SPLINE
  5
116
330
6C
100
AcDbEntity
  8
Visible (ISO)
100
AcDbSpline
210
0.0
220
0.0
230
1.0
 70
    24
 71
     3
 72
    10
 73
     6
 74
     0
 42
0.0000000001
 43
0.0000000001
 40
0.0
 40
0.0
 40
0.0
 40
0.0
 40
0.5589499308258724
 40
0.5589499308258724
 40
1.022931300902397
 40
1.022931300902397
 40
1.022931300902397
 40
1.022931300902397
 10
303.25
 20
72.5040621563096
 30
0.0
 10
303.2499999999997
 20
72.5040621563096
 30
0.0
 10
303.4889152220819
 20
72.5040621563096
 30
0.0
 10
303.8694661698077
 20
72.5040621563096
 30
0.0
 10
304.0130468730664
 20
72.5040621563096
 30
0.0
 10
304.0138968544889
 20
72.5040621563096
 30
0.0
  0
SPLINE
  5
117
330
6C
100
AcDbEntity
  8
Visible Narrow (ISO)
100
AcDbSpline
210
0.0
220
0.0
230
1.0
 70
     8
 71
     3
 72
    10
 73
     6
 74
     0
 42
0.0000000001
 43
0.0000000001
 40
-1.022931300902398
 40
-1.022931300902398
 40
-1.022931300902398
 40
-1.022931300902398
 40
-0.5589499308258724
 40
-0.5589499308258724
 40
-0.4804356691079095
 40
-0.4804356691079095
 40
-0.4804356691079095
 40
-0.4804356691079095
 10
304.7592645696592
 20
72.83739831141122
 30
0.0
 10
304.7586979153777
 20
72.83746667289929
 30
0.0
 10
304.6629774465384
 20
72.89036879026145
 30
0.0
 10
304.5284312806103
 20
73.00422437735218
 30
0.0
 10
304.5085512520104
 20
73.02197507896202
 30
0.0
 10
304.4887624612312
 20
73.04091773260423
 30
0.0
  0
ARC
  5
118
330
6C
100
AcDbEntity
  8
Visible (ISO)
100
AcDbCircle
 10
303.25
 20
73.5040621563096
 30
0.0
 40
1.0
100
AcDbArc
 50
270.0
 51
0.0
  0
LINE
  5
119
330
6C
100
AcDbEntity
  8
Visible Narrow (ISO)
100
AcDbLine
 10
303.25
 20
76.50406215630962
 30
0.0
 11
304.25
 21
76.50406215630962
 31
0.0
  0
LINE
  5
11A
330
6C
100
AcDbEntity
  8
Visible Narrow (ISO)
100
AcDbLine
 10
303.25
 20
72.5040621563096
 30
0.0
 11
303.25
 21
76.5040621563096
 31
0.0
  0
LINE
  5
11B
330
6C
100
AcDbEntity
  8
Visible Narrow (ISO)
100
AcDbLine
 10
303.25
 20
88.30602312912406
 30
0.0
 11
304.25
 21
88.30602312912406
 31
0.0
  0
LINE
  5
11C
330
6C
100
AcDbEntity
  8
Visible Narrow (ISO)
100
AcDbLine
 10
303.25
 20
88.30602312912406
 30
0.0
 11
303.25
 21
76.50406215630962
 31
0.0
  0
LINE
  5
11D
330
6C
100
AcDbEntity
  8
Visible (ISO)
100
AcDbLine
 10
304.25
 20
79.22028137524515
 30
0.0
 11
304.25
 21
88.30602312912406
 31
0.0
  0
LINE
  5
11E
330
6C
100
AcDbEntity
  8
Visible Narrow (ISO)
100
AcDbLine
 10
303.25
 20
108.7021011834987
 30
0.0
 11
304.25
 21
108.7021011834983
 31
0.0
  0
SPLINE
  5
11F
330
6C
100
AcDbEntity
  8
Visible Narrow (ISO)
100
AcDbSpline
210
0.0
220
0.0
230
1.0
 70
     8
 71
     3
 72
    14
 73
    10
 74
     0
 42
0.0000000001
 43
0.0000000001
 40
0.0
 40
0.0
 40
0.0
 40
0.0
 40
0.5589499308259733
 40
0.5589499308259733
 40
1.035319117816857
 40
1.035319117816857
 40
1.393741628867341
 40
1.393741628867341
 40
2.045689886171933
 40
2.045689886171933
 40
2.045689886171933
 40
2.045689886171933
 10
303.25
 20
108.7021011834987
 30
0.0
 10
303.2499999999997
 20
106.8389347474121
 30
0.0
 10
303.488915222082
 20
104.9834909859366
 30
0.0
 10
303.8740746860032
 20
101.5539379041146
 30
0.0
 10
304.0206930887015
 20
99.96806418731067
 30
0.0
 10
304.0083639611327
 20
97.1854525075034
 30
0.0
 10
303.9198597695375
 20
95.99093079518793
 30
0.0
 10
303.574275785698
 20
92.6408055181661
 30
0.0
 10
303.25
 20
90.47918398680605
 30
0.0
 10
303.25
 20
88.30602312912406
 30
0.0
  0
SPLINE
  5
120
330
6C
100
AcDbEntity
  8
Visible Narrow (ISO)
100
AcDbSpline
210
0.0
220
0.0
230
1.0
 70
     8
 71
     3
 72
    14
 73
    10
 74
     0
 42
0.0000000001
 43
0.0000000001
 40
-2.045689886171933
 40
-2.045689886171933
 40
-2.045689886171933
 40
-2.045689886171933
 40
-1.393741628867341
 40
-1.393741628867341
 40
-1.035319117816857
 40
-1.035319117816857
 40
-0.5589499308259733
 40
-0.5589499308259733
 40
0.0
 40
0.0
 40
0.0
 40
0.0
 10
304.25
 20
88.30602312912406
 30
0.0
 10
304.25
 20
90.37584208959573
 30
0.0
 10
304.466183857132
 20
92.52372947054261
 30
0.0
 10
304.6965731796916
 20
95.92459170614231
 30
0.0
 10
304.7555759740884
 20
97.15030597158643
 30
0.0
 10
304.7637953924677
 20
100.0070837357452
 30
0.0
 10
304.6660497906688
 20
101.6354331885979
 30
0.0
 10
304.4092768147213
 20
105.095592618735
 30
0.0
 10
304.2499999999998
 20
106.9275352546608
 30
0.0
 10
304.25
 20
108.7021011834985
 30
0.0
  0
LINE
  5
121
330
6C
100
AcDbEntity
  8
Visible Narrow (ISO)
100
AcDbLine
 10
303.25
 20
120.5040621563096
 30
0.0
 11
304.25
 21
120.5040621563096
 31
0.0
  0
LINE
  5
122
330
6C
100
AcDbEntity
  8
Visible Narrow (ISO)
100
AcDbLine
 10
303.25
 20
120.5040621563096
 30
0.0
 11
303.25
 21
108.7021011834987
 31
0.0
  0
LINE
  5
123
330
6C
100
AcDbEntity
  8
Visible (ISO)
100
AcDbLine
 10
304.25
 20
108.7021011834983
 30
0.0
 11
304.25
 21
117.787842937374
 31
0.0
  0
ARC
  5
124
330
6C
100
AcDbEntity
  8
Visible (ISO)
100
AcDbCircle
 10
303.25
 20
123.5040621563096
 30
0.0
 40
1.0
100
AcDbArc
 50
0.0
 51
90.0
  0
LINE
  5
125
330
6C
100
AcDbEntity
  8
Visible Narrow (ISO)
100
AcDbLine
 10
303.25
 20
120.5040621563096
 30
0.0
 11
303.25
 21
124.5040621563096
 31
0.0
  0
SPLINE
  5
126
330
6C
100
AcDbEntity
  8
Visible (ISO)
100
AcDbSpline
210
0.0
220
0.0
230
1.0
 70
    24
 71
     3
 72
    12
 73
     8
 74
     0
 42
0.0000000001
 43
0.0000000001
 40
1.022931300902482
 40
1.022931300902482
 40
1.022931300902482
 40
1.022931300902482
 40
1.035319117816857
 40
1.035319117816857
 40
1.393741628867342
 40
1.393741628867342
 40
2.045689886171933
 40
2.045689886171933
 40
2.045689886171933
 40
2.045689886171933
 10
304.0138968544889
 20
124.5040621563096
 30
0.0
 10
304.0139195481032
 20
124.5040621563096
 30
0.0
 10
304.0138404983911
 20
124.5040621563096
 30
0.0
 10
304.0083639611327
 20
124.5040621563096
 30
0.0
 10
303.9198597695375
 20
124.5040621563096
 30
0.0
 10
303.574275785698
 20
124.5040621563096
 30
0.0
 10
303.25
 20
124.5040621563096
 30
0.0
 10
303.25
 20
124.5040621563096
 30
0.0
  0
SPLINE
  5
127
330
6C
100
AcDbEntity
  8
Visible Narrow (ISO)
100
AcDbSpline
210
0.0
220
0.0
230
1.0
 70
     8
 71
     3
 72
    12
 73
     8
 74
     0
 42
0.0000000001
 43
0.0000000001
 40
-1.565269925874907
 40
-1.565269925874907
 40
-1.565269925874907
 40
-1.565269925874907
 40
-1.393741628867342
 40
-1.393741628867342
 40
-1.035319117816857
 40
-1.035319117816857
 40
-1.022931300902398
 40
-1.022931300902398
 40
-1.022931300902398
 40
-1.022931300902398
 10
304.4886506728202
 20
123.9670925963987
 30
0.0
 10
304.531944599187
 20
124.0085284465847
 30
0.0
 10
304.5757313941982
 20
124.0443250719024
 30
0.0
 10
304.6965731796916
 20
124.1349895002566
 30
0.0
 10
304.7555759740884
 20
124.1684871713371
 30
0.0
 10
304.7592269989274
 20
124.1706919898652
 30
0.0
 10
304.7592796987355
 20
124.1707278263882
 30
0.0
 10
304.7592645696593
 20
124.170726001208
 30
0.0
  0
ARC
  5
128
330
6C
100
AcDbEntity
  8
Visible (ISO)
100
AcDbCircle
 10
304.0139320225002
 20
73.5040621563096
 30
0.0
 40
1.0
100
AcDbArc
 50
270.0
 51
318.1896851042221
  0
ARC
  5
129
330
6C
100
AcDbEntity
  8
Visible (ISO)
100
AcDbCircle
 10
304.0139320225002
 20
123.5040621563096
 30
0.0
 40
1.0
100
AcDbArc
 50
41.81031489577791
 51
90.0
  0
LINE
  5
12A
330
6C
100
AcDbEntity
  8
Visible Narrow (ISO)
100
AcDbLine
 10
306.25
 20
115.467265591906
 30
0.0
 11
306.25
 21
81.54085872071318
 31
0.0
  0
ARC
  5
12B
330
6C
100
AcDbEntity
  8
Visible (ISO)
100
AcDbCircle
 10
306.25
 20
71.50406215630962
 30
0.0
 40
2.0
100
AcDbArc
 50
129.7897269303583
 51
138.1896851042214
  0
ARC
  5
12C
330
6C
100
AcDbEntity
  8
Visible (ISO)
100
AcDbCircle
 10
306.25
 20
125.5040621563096
 30
0.0
 40
2.0
100
AcDbArc
 50
221.8103148957783
 51
230.2102730696428
  0
LINE
  5
12D
330
6C
100
AcDbEntity
  8
Visible Narrow (ISO)
100
AcDbLine
 10
303.25
 20
120.5040621563096
 30
0.0
 11
280.55
 21
120.5040621563096
 31
0.0
  0
LINE
  5
12E
330
6C
100
AcDbEntity
  8
Visible Narrow (ISO)
100
AcDbLine
 10
303.25
 20
76.50406215630962
 30
0.0
 11
280.55
 21
76.50406215630962
 31
0.0
  0
LINE
  5
12F
330
6C
100
AcDbEntity
  8
Visible (ISO)
100
AcDbLine
 10
303.25
 20
124.5040621563096
 30
0.0
 11
280.55
 21
124.5040621563096
 31
0.0
  0
LINE
  5
130
330
6C
100
AcDbEntity
  8
Visible (ISO)
100
AcDbLine
 10
303.25
 20
72.5040621563096
 30
0.0
 11
280.55
 21
72.5040621563096
 31
0.0
  0
LINE
  5
131
330
6C
100
AcDbEntity
  8
Visible (ISO)
100
AcDbLine
 10
280.55
 20
76.50406215630962
 30
0.0
 11
280.55
 21
120.5040621563096
 31
0.0
  0
LINE
  5
132
330
6C
100
AcDbEntity
  8
Visible (ISO)
100
AcDbLine
 10
280.55
 20
124.5040621563096
 30
0.0
 11
280.55
 21
120.5040621563096
 31
0.0
  0
LINE
  5
133
330
6C
100
AcDbEntity
  8
Visible (ISO)
100
AcDbLine
 10
321.95
 20
73.50406215630961
 30
0.0
 11
321.95
 21
123.5040621563096
 31
0.0
  0
LINE
  5
134
330
6C
100
AcDbEntity
  8
Visible Narrow (ISO)
100
AcDbLine
 10
280.55
 20
120.5040621563096
 30
0.0
 11
280.25
 21
120.5040621563096
 31
0.0
  0
LINE
  5
135
330
6C
100
AcDbEntity
  8
Visible (ISO)
100
AcDbLine
 10
280.25
 20
120.5040621563096
 30
0.0
 11
280.25
 21
76.50406215630962
 31
0.0
  0
LINE
  5
136
330
6C
100
AcDbEntity
  8
Visible Narrow (ISO)
100
AcDbLine
 10
280.25
 20
76.50406215630962
 30
0.0
 11
280.55
 21
76.50406215630962
 31
0.0
  0
LINE
  5
137
330
6C
100
AcDbEntity
  8
Visible (ISO)
100
AcDbLine
 10
280.25
 20
72.80406215630961
 30
0.0
 11
280.55
 21
72.5040621563096
 31
0.0
  0
LINE
  5
138
330
6C
100
AcDbEntity
  8
Visible (ISO)
100
AcDbLine
 10
280.55
 20
76.50406215630963
 30
0.0
 11
280.55
 21
72.50406215630961
 31
0.0
  0
LINE
  5
139
330
6C
100
AcDbEntity
  8
Visible (ISO)
100
AcDbLine
 10
280.25
 20
72.80406215630961
 30
0.0
 11
280.25
 21
76.50406215630962
 31
0.0
  0
LINE
  5
13A
330
6C
100
AcDbEntity
  8
Visible (ISO)
100
AcDbLine
 10
280.25
 20
124.2040621563096
 30
0.0
 11
280.55
 21
124.5040621563096
 31
0.0
  0
LINE
  5
13B
330
6C
100
AcDbEntity
  8
Visible (ISO)
100
AcDbLine
 10
280.25
 20
120.5040621563096
 30
0.0
 11
280.25
 21
124.2040621563096
 31
0.0
  0
LINE
  5
13C
330
6C
100
AcDbEntity
  8
Visible (ISO)
100
AcDbLine
 10
322.25
 20
92.23667751522549
 30
0.0
 11
322.25
 21
74.61243412972461
 31
0.0
  0
LINE
  5
13D
330
6C
100
AcDbEntity
  8
Visible (ISO)
100
AcDbLine
 10
322.25
 20
73.80406215630961
 30
0.0
 11
321.95
 21
73.50406215630961
 31
0.0
  0
LINE
  5
13E
330
6C
100
AcDbEntity
  8
Visible (ISO)
100
AcDbLine
 10
322.25
 20
123.2040621563096
 30
0.0
 11
321.95
 21
123.5040621563096
 31
0.0
  0
LINE
  5
13F
330
6C
100
AcDbEntity
  8
Visible (ISO)
100
AcDbLine
 10
321.95
 20
73.50406215630961
 30
0.0
 11
309.2486441745855
 21
73.50406215630961
 31
0.0
  0
LINE
  5
140
330
6C
100
AcDbEntity
  8
Visible (ISO)
100
AcDbLine
 10
321.95
 20
123.5040621563096
 30
0.0
 11
309.2486441745855
 21
123.5040621563096
 31
0.0
  0
LINE
  5
141
330
6C
100
AcDbEntity
  8
Visible (ISO)
100
AcDbLine
 10
304.25
 20
79.22028137524515
 30
0.0
 11
304.25
 21
73.04085872071317
 31
0.0
  0
LINE
  5
142
330
6C
100
AcDbEntity
  8
Visible (ISO)
100
AcDbLine
 10
308.75
 20
73.04085872071317
 30
0.0
 11
304.25
 21
73.04085872071317
 31
0.0
  0
LINE
  5
143
330
6C
100
AcDbEntity
  8
Visible (ISO)
100
AcDbLine
 10
308.75
 20
81.54085872071318
 30
0.0
 11
304.25
 21
81.54085872071318
 31
0.0
  0
LINE
  5
144
330
6C
100
AcDbEntity
  8
Visible (ISO)
100
AcDbLine
 10
309.25
 20
81.04085872071317
 30
0.0
 11
309.25
 21
73.54085872071317
 31
0.0
  0
LINE
  5
145
330
6C
100
AcDbEntity
  8
Visible Narrow (ISO)
100
AcDbLine
 10
308.75
 20
73.04085872071317
 30
0.0
 11
308.75
 21
81.54085872071318
 31
0.0
  0
ARC
  5
146
330
6C
100
AcDbEntity
  8
Visible (ISO)
100
AcDbCircle
 10
308.75
 20
81.04085872071317
 30
0.0
 40
0.5
100
AcDbArc
 50
0.0
 51
90.0
  0
ARC
  5
147
330
6C
100
AcDbEntity
  8
Visible (ISO)
100
AcDbCircle
 10
308.75
 20
73.54085872071317
 30
0.0
 40
0.5
100
AcDbArc
 50
270.0
 51
0.0
  0
LINE
  5
148
330
6C
100
AcDbEntity
  8
Visible (ISO)
100
AcDbLine
 10
304.25
 20
123.967265591906
 30
0.0
 11
304.25
 21
117.787842937374
 31
0.0
  0
LINE
  5
149
330
6C
100
AcDbEntity
  8
Visible (ISO)
100
AcDbLine
 10
308.75
 20
115.467265591906
 30
0.0
 11
304.25
 21
115.467265591906
 31
0.0
  0
LINE
  5
14A
330
6C
100
AcDbEntity
  8
Visible (ISO)
100
AcDbLine
 10
308.75
 20
123.967265591906
 30
0.0
 11
304.25
 21
123.967265591906
 31
0.0
  0
LINE
  5
14B
330
6C
100
AcDbEntity
  8
Visible (ISO)
100
AcDbLine
 10
309.25
 20
123.467265591906
 30
0.0
 11
309.25
 21
115.967265591906
 31
0.0
  0
LINE
  5
14C
330
6C
100
AcDbEntity
  8
Visible Narrow (ISO)
100
AcDbLine
 10
308.75
 20
115.467265591906
 30
0.0
 11
308.75
 21
123.967265591906
 31
0.0
  0
ARC
  5
14D
330
6C
100
AcDbEntity
  8
Visible (ISO)
100
AcDbCircle
 10
308.75
 20
123.467265591906
 30
0.0
 40
0.5
100
AcDbArc
 50
0.0
 51
90.0
  0
ARC
  5
14E
330
6C
100
AcDbEntity
  8
Visible (ISO)
100
AcDbCircle
 10
308.75
 20
115.967265591906
 30
0.0
 40
0.5
100
AcDbArc
 50
270.0
 51
0.0
  0
LINE
  5
14F
330
6C
100
AcDbEntity
  8
Visible Narrow (ISO)
100
AcDbLine
 10
333.75
 20
88.33114871277848
 30
0.0
 11
322.25
 21
88.33114871277848
 31
0.0
  0
LINE
  5
150
330
6C
100
AcDbEntity
  8
Visible Narrow (ISO)
100
AcDbLine
 10
322.25
 20
85.3427863254773
 30
0.0
 11
333.75
 21
85.3427863254773
 31
0.0
  0
LINE
  5
151
330
6C
100
AcDbEntity
  8
Visible (ISO)
100
AcDbLine
 10
322.55
 20
93.00406215630964
 30
0.0
 11
333.75
 21
93.00406215630964
 31
0.0
  0
LINE
  5
152
330
6C
100
AcDbEntity
  8
Visible (ISO)
100
AcDbLine
 10
322.25
 20
92.89487108602978
 30
0.0
 11
322.55
 21
93.00406215630964
 31
0.0
  0
LINE
  5
153
330
6C
100
AcDbEntity
  8
Visible (ISO)
100
AcDbLine
 10
322.25
 20
92.23667751522549
 30
0.0
 11
322.25
 21
92.89487108602978
 31
0.0
  0
LINE
  5
154
330
6C
100
AcDbEntity
  8
Visible (ISO)
100
AcDbLine
 10
333.75
 20
72.50406215630959
 30
0.0
 11
333.75
 21
77.379431982032
 31
0.0
  0
LINE
  5
155
330
6C
100
AcDbEntity
  8
Visible (ISO)
100
AcDbLine
 10
333.75
 20
93.00406215630964
 30
0.0
 11
333.75
 21
77.379431982032
 31
0.0
  0
LINE
  5
156
330
6C
100
AcDbEntity
  8
Visible (ISO)
100
AcDbLine
 10
322.25
 20
72.80406215630961
 30
0.0
 11
322.25
 21
74.61243412972459
 31
0.0
  0
LINE
  5
157
330
6C
100
AcDbEntity
  8
Visible (ISO)
100
AcDbLine
 10
322.55
 20
72.50406215630961
 30
0.0
 11
322.25
 21
72.80406215630961
 31
0.0
  0
LINE
  5
158
330
6C
100
AcDbEntity
  8
Visible (ISO)
100
AcDbLine
 10
333.75
 20
72.50406215630961
 30
0.0
 11
322.55
 21
72.50406215630961
 31
0.0
  0
LINE
  5
159
330
6C
100
AcDbEntity
  8
Visible (ISO)
100
AcDbLine
 10
337.45
 20
124.5040621563096
 30
0.0
 11
322.55
 21
124.5040621563096
 31
0.0
  0
LINE
  5
15A
330
6C
100
AcDbEntity
  8
Visible (ISO)
100
AcDbLine
 10
337.45
 20
77.379431982032
 30
0.0
 11
333.75
 21
77.379431982032
 31
0.0
  0
LINE
  5
15B
330
6C
100
AcDbEntity
  8
Visible (ISO)
100
AcDbLine
 10
337.45
 20
119.6286923305872
 30
0.0
 11
322.55
 21
119.6286923305872
 31
0.0
  0
LINE
  5
15C
330
6C
100
AcDbEntity
  8
Visible (ISO)
100
AcDbLine
 10
337.45
 20
72.50406215630961
 30
0.0
 11
333.75
 21
72.50406215630961
 31
0.0
  0
SPLINE
  5
15D
330
6C
100
AcDbEntity
  8
Visible (ISO)
100
AcDbSpline
210
0.0
220
0.0
230
1.0
 70
    24
 71
     3
 72
     8
 73
     4
 74
     0
 42
0.0000000001
 43
0.0000000001
 40
-0.0437492227970593
 40
-0.0437492227970593
 40
-0.0437492227970593
 40
-0.0437492227970593
 40
0.0
 40
0.0
 40
0.0
 40
0.0
 10
322.25
 20
124.2040621563096
 30
0.0
 10
322.3499841603398
 20
124.3040463166494
 30
0.0
 10
322.4499856521171
 20
124.4040478084267
 30
0.0
 10
322.55
 20
124.5040621563096
 30
0.0
  0
LINE
  5
15E
330
6C
100
AcDbEntity
  8
Visible (ISO)
100
AcDbLine
 10
322.25
 20
119.5219117132933
 30
0.0
 11
322.25
 21
92.89487108602978
 31
0.0
  0
LINE
  5
15F
330
6C
100
AcDbEntity
  8
Visible (ISO)
100
AcDbLine
 10
322.25
 20
119.5219117132933
 30
0.0
 11
322.25
 21
124.2040621563096
 31
0.0
  0
LINE
  5
160
330
6C
100
AcDbEntity
  8
Visible (ISO)
100
AcDbLine
 10
337.45
 20
119.6286923305872
 30
0.0
 11
337.45
 21
77.379431982032
 31
0.0
  0
LINE
  5
161
330
6C
100
AcDbEntity
  8
Visible (ISO)
100
AcDbLine
 10
322.55
 20
93.00406215630964
 30
0.0
 11
322.55
 21
119.6286923305872
 31
0.0
  0
LINE
  5
162
330
6C
100
AcDbEntity
  8
Visible (ISO)
100
AcDbLine
 10
337.45
 20
72.50406215630963
 30
0.0
 11
337.45
 21
77.379431982032
 31
0.0
  0
LINE
  5
163
330
6C
100
AcDbEntity
  8
Visible (ISO)
100
AcDbLine
 10
337.75
 20
124.2040621563096
 30
0.0
 11
337.75
 21
119.5219117132933
 31
0.0
  0
LINE
  5
164
330
6C
100
AcDbEntity
  8
Visible (ISO)
100
AcDbLine
 10
337.75
 20
77.4862125993259
 30
0.0
 11
337.75
 21
119.5219117132933
 31
0.0
  0
LINE
  5
165
330
6C
100
AcDbEntity
  8
Visible (ISO)
100
AcDbLine
 10
337.75
 20
77.48621259932592
 30
0.0
 11
337.75
 21
72.80406215630961
 31
0.0
  0
SPLINE
  5
166
330
6C
100
AcDbEntity
  8
Visible (ISO)
100
AcDbSpline
210
0.0
220
0.0
230
1.0
 70
     8
 71
     3
 72
     8
 73
     4
 74
     0
 42
0.0000000001
 43
0.0000000001
 40
-0.0437492227974344
 40
-0.0437492227974344
 40
-0.0437492227974344
 40
-0.0437492227974344
 40
0.0
 40
0.0
 40
0.0
 40
0.0
 10
322.25
 20
119.5219117132933
 30
0.0
 10
322.3499841603394
 20
119.5575900161812
 30
0.0
 10
322.4499856521163
 20
119.5931836564499
 30
0.0
 10
322.55
 20
119.6286923305872
 30
0.0
  0
LINE
  5
167
330
6C
100
AcDbEntity
  8
Visible (ISO)
100
AcDbLine
 10
322.55
 20
124.5040621563096
 30
0.0
 11
322.55
 21
119.6286923305872
 31
0.0
  0
SPLINE
  5
168
330
6C
100
AcDbEntity
  8
Visible (ISO)
100
AcDbSpline
210
0.0
220
0.0
230
1.0
 70
    24
 71
     3
 72
     8
 73
     4
 74
     0
 42
0.0000000001
 43
0.0000000001
 40
-0.0437492227970619
 40
-0.0437492227970619
 40
-0.0437492227970619
 40
-0.0437492227970619
 40
0.0
 40
0.0
 40
0.0
 40
0.0
 10
337.75
 20
72.80406215630961
 30
0.0
 10
337.6500158396602
 20
72.70407799596978
 30
0.0
 10
337.5500143478829
 20
72.60407650419253
 30
0.0
 10
337.45
 20
72.50406215630961
 30
0.0
  0
SPLINE
  5
169
330
6C
100
AcDbEntity
  8
Visible (ISO)
100
AcDbSpline
210
0.0
220
0.0
230
1.0
 70
     8
 71
     3
 72
     8
 73
     4
 74
     0
 42
0.0000000001
 43
0.0000000001
 40
-0.0437492227976224
 40
-0.0437492227976224
 40
-0.0437492227976224
 40
-0.0437492227976224
 40
0.0
 40
0.0
 40
0.0
 40
0.0
 10
337.75
 20
77.4862125993259
 30
0.0
 10
337.6500158396608
 20
77.45053429643812
 30
0.0
 10
337.5500143478842
 20
77.41494065616939
 30
0.0
 10
337.45
 20
77.37943198203199
 30
0.0
  0
SPLINE
  5
16A
330
6C
100
AcDbEntity
  8
Visible (ISO)
100
AcDbSpline
210
0.0
220
0.0
230
1.0
 70
     8
 71
     3
 72
     8
 73
     4
 74
     0
 42
0.0000000001
 43
0.0000000001
 40
-0.0437492227974404
 40
-0.0437492227974404
 40
-0.0437492227974404
 40
-0.0437492227974404
 40
0.0
 40
0.0
 40
0.0
 40
0.0
 10
337.75
 20
119.5219117132933
 30
0.0
 10
337.6500158396606
 20
119.5575900161812
 30
0.0
 10
337.5500143478837
 20
119.5931836564499
 30
0.0
 10
337.45
 20
119.6286923305872
 30
0.0
  0
SPLINE
  5
16B
330
6C
100
AcDbEntity
  8
Visible (ISO)
100
AcDbSpline
210
0.0
220
0.0
230
1.0
 70
    24
 71
     3
 72
     8
 73
     4
 74
     0
 42
0.0000000001
 43
0.0000000001
 40
-0.0437492227972456
 40
-0.0437492227972456
 40
-0.0437492227972456
 40
-0.0437492227972456
 40
0.0
 40
0.0
 40
0.0
 40
0.0
 10
337.75
 20
124.2040621563096
 30
0.0
 10
337.6500158396604
 20
124.3040463166492
 30
0.0
 10
337.5500143478833
 20
124.4040478084262
 30
0.0
 10
337.45
 20
124.5040621563096
 30
0.0
  0
LINE
  5
16C
330
6C
100
AcDbEntity
  8
Visible (ISO)
100
AcDbLine
 10
337.45
 20
119.6286923305872
 30
0.0
 11
337.45
 21
124.5040621563096
 31
0.0
  0
LINE
  5
16D
330
6C
100
AcDbEntity
  8
Visible (ISO)
100
AcDbLine
 10
324.386
 20
125.5040621563096
 30
0.0
 11
332.114
 21
125.5040621563096
 31
0.0
  0
LINE
  5
16E
330
6C
100
AcDbEntity
  8
Visible (ISO)
100
AcDbLine
 10
333.0827652476223
 20
124.5045500802225
 30
0.0
 11
323.4172347523778
 21
124.5045500802225
 31
0.0
  0
LINE
  5
16F
330
6C
100
AcDbEntity
  8
Visible (ISO)
100
AcDbLine
 10
332.114
 20
125.5040621563096
 30
0.0
 11
333.0827652476223
 21
124.5045500802225
 31
0.0
  0
LINE
  5
170
330
6C
100
AcDbEntity
  8
Visible (ISO)
100
AcDbLine
 10
324.386
 20
125.5040621563096
 30
0.0
 11
323.4172347523778
 21
124.5045500802225
 31
0.0
  0
LINE
  5
171
330
6C
100
AcDbEntity
  8
Visible (ISO)
100
AcDbLine
 10
323.41725
 20
124.5040621563096
 30
0.0
 11
323.4172347523778
 21
124.5045500802225
 31
0.0
  0
LINE
  5
172
330
6C
100
AcDbEntity
  8
Visible (ISO)
100
AcDbLine
 10
333.08275
 20
124.5040621563096
 30
0.0
 11
333.0827652476223
 21
124.5045500802225
 31
0.0
  0
LINE
  5
173
330
6C
100
AcDbEntity
  8
Visible Narrow (ISO)
100
AcDbLine
 10
332.5014663778206
 20
124.5040621563096
 30
0.0
 11
332.5014816254429
 21
124.5045500802225
 31
0.0
  0
LINE
  5
174
330
6C
100
AcDbEntity
  8
Visible Narrow (ISO)
100
AcDbLine
 10
323.9985183745572
 20
124.5045500802225
 30
0.0
 11
323.9985336221795
 21
124.5040621563096
 31
0.0
  0
ELLIPSE
  5
175
330
6C
100
AcDbEntity
  8
Visible Narrow (ISO)
100
AcDbEllipse
 10
114.7209325725772
 20
183.0373006737165
 30
0.0
 11
-6.883098007128952
 21
11.9526927999446
 31
0.0
210
0.0
220
0.0
230
1.0
 40
0.5780931159156394
 41
2.020841966960126
 42
7.403935993809253
  0
ELLIPSE
  5
176
330
6C
100
AcDbEntity
  8
Visible Narrow (ISO)
100
AcDbEllipse
 10
114.8244859631705
 20
183.0969331053663
 30
0.0
 11
7.059532537549801
 21
-12.25907631202574
 31
0.0
210
0.0
220
0.0
230
1.0
 40
0.5780931159156394
 41
5.4958534353594
 42
10.21210983258956
  0
SPLINE
  5
177
330
6C
100
AcDbEntity
  8
Visible (ISO)
100
AcDbSpline
210
0.0
220
0.0
230
1.0
 70
     8
 71
     3
 72
    10
 73
     6
 74
     0
 42
0.0000000001
 43
0.0000000001
 40
1.574663743640666
 40
1.574663743640666
 40
1.574663743640666
 40
1.574663743640666
 40
1.88804952563055
 40
1.88804952563055
 40
1.918615725628044
 40
1.918615725628044
 40
1.918615725628044
 40
1.918615725628044
 10
114.7858001019978
 20
171.5539105500606
 30
0.0
 10
113.7279131751602
 20
172.16783743163
 30
0.0
 10
112.6797920037397
 20
172.9688179265568
 30
0.0
 10
111.5896498409867
 20
174.0104358852464
 30
0.0
 10
111.493292863385
 20
174.10440036103
 30
0.0
 10
111.3974984359261
 20
174.1997203925453
 30
0.0
  0
SPLINE
  5
178
330
6C
100
AcDbEntity
  8
Visible (ISO)
100
AcDbSpline
210
0.0
220
0.0
230
1.0
 70
     8
 71
     3
 72
    10
 73
     6
 74
     0
 42
0.0000000001
 43
0.0000000001
 40
2.797640671602712
 40
2.797640671602712
 40
2.797640671602712
 40
2.797640671602712
 40
2.828206871600205
 40
2.828206871600205
 40
3.141592653590089
 40
3.141592653590089
 40
3.141592653590089
 40
3.141592653590089
 10
105.4091118969159
 20
184.5987216262889
 30
0.0
 10
105.3747514722202
 20
184.7294191471337
 30
0.0
 10
105.3418458388188
 20
184.8599228219183
 30
0.0
 10
104.9881232084705
 20
186.3256165851772
 30
0.0
 10
104.8214376359667
 20
187.6341820834048
 30
0.0
 10
104.821437635967
 20
188.8573055301131
 30
0.0
  0
ELLIPSE
  5
179
330
6C
100
AcDbEntity
  8
Visible Narrow (ISO)
100
AcDbEllipse
 10
115.3244859631705
 20
183.3848639558589
 30
0.0
 11
-7.412401598391492
 21
12.87184333618803
 31
0.0
210
0.0
220
0.0
230
1.0
 40
0.5780931159156394
 41
2.354260781769609
 42
7.070517178999772
  0
ELLIPSE
  5
17A
330
6C
100
AcDbEntity
  8
Visible Narrow (ISO)
100
AcDbEllipse
 10
115.4280393537638
 20
183.4444963875088
 30
0.0
 11
7.588836128812341
 21
-13.17822684826916
 31
0.0
210
0.0
220
0.0
230
1.0
 40
0.5780931159156394
 41
5.194049349025343
 42
10.51391391892362
  0
ELLIPSE
  5
17B
330
6C
100
AcDbEntity
  8
Visible (ISO)
100
AcDbEllipse
 10
114.7209325725772
 20
183.0373006737165
 30
0.0
 11
6.276502920702613
 21
-10.89932341387739
 31
0.0
210
0.0
220
0.0
230
1.0
 40
0.5780931159156394
 41
5.209681807058255
 42
10.49828146089071
  0
ELLIPSE
  5
17C
330
6C
100
AcDbEntity
  8
Visible (ISO)
100
AcDbEllipse
 10
115.4280393537638
 20
183.4444963875088
 30
0.0
 11
5.988386539010192
 21
-10.39900123374363
 31
0.0
210
0.0
220
0.0
230
1.0
 40
0.5780931159156394
 41
5.861786860782732
 42
6.651522776226413
  0
ELLIPSE
  5
17D
330
6C
100
AcDbEntity
  8
Visible (ISO)
100
AcDbEllipse
 10
115.4280393537638
 20
183.4444963875088
 30
0.0
 11
-5.988386539010197
 21
10.39900123374364
 31
0.0
210
0.0
220
0.0
230
1.0
 40
0.5780931159156394
 41
5.914847838132759
 42
6.70458375357644
  0
ELLIPSE
  5
17E
330
6C
100
AcDbEntity
  8
Visible Narrow (ISO)
100
AcDbEllipse
 10
115.4280393537638
 20
183.4444963875088
 30
0.0
 11
-10.23016033747573
 21
17.7649604409787
 31
0.0
210
0.0
220
0.0
230
1.0
 40
0.5780931159156396
 41
1.867827758222913
 42
7.556950202546463
  0
ELLIPSE
  5
17F
330
6C
100
AcDbEntity
  8
Visible Narrow (ISO)
100
AcDbEllipse
 10
116.8422529161371
 20
184.2588878150934
 30
0.0
 11
11.2282247606441
 21
-19.49812731326931
 31
0.0
210
0.0
220
0.0
230
1.0
 40
0.5780931159156393
 41
0.0000000000000009
 42
3.141592653589794
  0
SPLINE
  5
180
330
6C
100
AcDbEntity
  8
Visible (ISO)
100
AcDbSpline
210
0.0
220
0.0
230
1.0
 70
     8
 71
     3
 72
    16
 73
    12
 74
     0
 42
0.0000000001
 43
0.0000000001
 40
0.7873318718204815
 40
0.7873318718204815
 40
0.7873318718204815
 40
0.7873318718204815
 40
1.061319441690369
 40
1.061319441690369
 40
1.357565277769879
 40
1.357565277769879
 40
1.685646541211931
 40
1.685646541211931
 40
2.020784772215793
 40
2.020784772215793
 40
2.077805585656352
 40
2.077805585656352
 40
2.077805585656352
 40
2.077805585656352
 10
128.0704776767812
 20
164.760760501824
 30
0.0
 10
126.8587332227272
 20
164.0629632793531
 30
0.0
 10
125.4827114977651
 20
163.6615509406749
 30
0.0
 10
122.5048341580317
 20
163.4528990507694
 30
0.0
 10
120.8952860795733
 20
163.6881617125923
 30
0.0
 10
117.513776670825
 20
164.7889148162062
 30
0.0
 10
115.7379360208615
 20
165.7192962846757
 30
0.0
 10
112.2733218866673
 20
168.1765284230341
 30
0.0
 10
110.5872989041062
 20
169.7172227178817
 30
0.0
 10
108.7732493756344
 20
171.7749840692661
 30
0.0
 10
108.5134160892596
 20
172.0804501752498
 30
0.0
 10
108.257864465467
 20
172.3917254338459
 30
0.0
  0
SPLINE
  5
181
330
6C
100
AcDbEntity
  8
Visible (ISO)
100
AcDbSpline
210
0.0
220
0.0
230
1.0
 70
     8
 71
     3
 72
    16
 73
    12
 74
     0
 42
0.0000000001
 43
0.0000000001
 40
2.638450811574403
 40
2.638450811574403
 40
2.638450811574403
 40
2.638450811574403
 40
2.685352414643102
 40
2.685352414643102
 40
3.018171189504268
 40
3.018171189504268
 40
3.35327406790881
 40
3.35327406790881
 40
3.681683012290103
 40
3.681683012290103
 40
3.928924525410274
 40
3.928924525410274
 40
3.928924525410274
 40
3.928924525410274
 10
102.2694779264567
 20
182.7907266675896
 30
0.0
 10
102.153538442475
 20
183.1010424785127
 30
0.0
 10
102.0424519920056
 20
183.4118911031814
 30
0.0
 10
101.1833623875833
 20
185.9304844374598
 30
0.0
 10
100.6821406080772
 20
188.1491575560797
 30
0.0
 10
100.2503084116695
 20
192.4225846239074
 30
0.0
 10
100.3223766289577
 20
194.4766554086023
 30
0.0
 10
101.0940171797414
 20
198.1837934045475
 30
0.0
 10
101.784533839029
 20
199.8495921405002
 30
0.0
 10
103.5673972940815
 20
202.2610108290343
 30
0.0
 10
104.5205714980338
 20
203.1273353176446
 30
0.0
 10
105.614028155493
 20
203.7570151283627
 30
0.0
  0
ELLIPSE
  5
182
330
6C
100
AcDbEntity
  8
Visible (ISO)
100
AcDbEllipse
 10
106.7920003844459
 20
213.089976803892
 30
0.0
 11
-1.031499581344505
 21
1.791227962512341
 31
0.0
210
0.0
220
0.0
230
1.0
 40
0.5780931159156392
 41
0.0
 42
6.283185307179586
  0
ELLIPSE
  5
183
330
6C
100
AcDbEntity
  8
Visible (ISO)
100
AcDbEllipse
 10
136.7920003844415
 20
161.1285388193865
 30
0.0
 11
-1.031499581344505
 21
1.791227962512341
 31
0.0
210
0.0
220
0.0
230
1.0
 40
0.5780931159156392
 41
0.0
 42
6.283185307179586
  0
ELLIPSE
  5
184
330
6C
100
AcDbEntity
  8
Visible (ISO)
100
AcDbEllipse
 10
136.7920003844415
 20
195.8141257743301
 30
0.0
 11
-1.031499581344505
 21
1.791227962512341
 31
0.0
210
0.0
220
0.0
230
1.0
 40
0.5780931159156392
 41
0.0
 42
6.283185307179586
  0
ELLIPSE
  5
185
330
6C
100
AcDbEntity
  8
Visible Narrow (ISO)
100
AcDbEllipse
 10
118.2564664785104
 20
185.0732792426779
 30
0.0
 11
-11.2282247606441
 21
19.49812731326931
 31
0.0
210
0.0
220
0.0
230
1.0
 40
0.5780931159156394
 41
3.141592653589793
 42
6.283185307179588
  0
ELLIPSE
  5
186
330
6C
100
AcDbEntity
  8
Visible Narrow (ISO)
100
AcDbEllipse
 10
119.6706800408837
 20
185.8876706702625
 30
0.0
 11
12.22628918381247
 21
-21.23129418555991
 31
0.0
210
0.0
220
0.0
230
1.0
 40
0.5780931159156394
 41
5.826731219321816
 42
9.881232048627147
  0
ELLIPSE
  5
187
330
6C
100
AcDbEntity
  8
Visible (ISO)
100
AcDbEllipse
 10
119.6706800408837
 20
185.8876706702625
 30
0.0
 11
-12.32609562612931
 21
21.40461087278898
 31
0.0
210
0.0
220
0.0
230
1.0
 40
0.5780931159156394
 41
2.654481983440199
 42
6.770295977329181
  0
ELLIPSE
  5
188
330
6C
100
AcDbEntity
  8
Visible (ISO)
100
AcDbEllipse
 10
119.8828120752397
 20
186.0098293844001
 30
0.0
 11
12.47580528960456
 21
-21.66458590363257
 31
0.0
210
0.0
220
0.0
230
1.0
 40
0.5780931159156394
 41
5.766950493849884
 42
9.941012774099082
  0
ELLIPSE
  5
189
330
6C
100
AcDbEntity
  8
Visible Narrow (ISO)
100
AcDbEllipse
 10
121.509157671969
 20
186.9463795261223
 30
0.0
 11
-12.47580528960456
 21
21.66458590363257
 31
0.0
210
0.0
220
0.0
230
1.0
 40
0.5780931159156393
 41
3.141592653589793
 42
6.283185307179586
  0
ELLIPSE
  5
18A
330
6C
100
AcDbEntity
  8
Visible Narrow (ISO)
100
AcDbEllipse
 10
121.7920003844437
 20
187.1092578116392
 30
0.0
 11
12.67541817423823
 21
-22.01121927809068
 31
0.0
210
0.0
220
0.0
230
1.0
 40
0.5780931159156394
 41
6.103060409100486
 42
9.604902858848481
  0
LINE
  5
18B
330
6C
100
AcDbEntity
  8
Visible (ISO)
100
AcDbLine
 10
106.2356511983419
 20
217.0785246235252
 30
0.0
 11
137.3483495705455
 21
199.1619132166599
 31
0.0
  0
ELLIPSE
  5
18C
330
6C
100
AcDbEntity
  8
Visible (ISO)
100
AcDbEllipse
 10
106.2356511983419
 20
214.0536002616078
 30
0.0
 11
-1.846419182861475
 21
3.20635871373762
 31
0.0
210
0.0
220
0.0
230
1.0
 40
0.5780931159156394
 41
5.499720852205177
 42
7.070517179000074
  0
LINE
  5
18D
330
6C
100
AcDbEntity
  8
Visible (ISO)
100
AcDbLine
 10
103.6193561079521
 20
203.3856239878011
 30
0.0
 11
103.6193561079521
 21
215.5602244026397
 31
0.0
  0
LINE
  5
18E
330
6C
100
AcDbEntity
  8
Visible (ISO)
100
AcDbLine
 10
137.3483495705455
 20
157.1399909997533
 30
0.0
 11
126.7936906245754
 21
163.2180148537013
 31
0.0
  0
ELLIPSE
  5
18F
330
6C
100
AcDbEntity
  8
Visible (ISO)
100
AcDbEllipse
 10
137.3483495705455
 20
160.1649153616707
 30
0.0
 11
1.846419182861475
 21
-3.20635871373762
 31
0.0
210
0.0
220
0.0
230
1.0
 40
0.5780931159156394
 41
5.499720852205171
 42
7.070517179000067
  0
LINE
  5
190
330
6C
100
AcDbEntity
  8
Visible (ISO)
100
AcDbLine
 10
139.9646446609353
 20
194.6303647137106
 30
0.0
 11
139.9646446609353
 21
158.6582912206388
 31
0.0
  0
ELLIPSE
  5
191
330
6C
100
AcDbEntity
  8
Visible (ISO)
100
AcDbEllipse
 10
137.3483495705455
 20
196.1369888547424
 30
0.0
 11
1.846419182861284
 21
-3.20635871373773
 31
0.0
210
0.0
220
0.0
230
1.0
 40
0.5780931159156396
 41
0.7873318718207179
 42
2.358128198615617
  0
LINE
  5
192
330
6C
100
AcDbEntity
  8
Visible Narrow (ISO)
100
AcDbLine
 10
106.4477832326979
 20
217.4459474751157
 30
0.0
 11
106.2356511983419
 21
217.0785246235252
 31
0.0
  0
LINE
  5
193
330
6C
100
AcDbEntity
  8
Visible Narrow (ISO)
100
AcDbLine
 10
137.3483495705455
 20
199.1619132166599
 30
0.0
 11
137.5604816049014
 21
199.5293360682503
 31
0.0
  0
LINE
  5
194
330
6C
100
AcDbEntity
  8
Visible (ISO)
100
AcDbLine
 10
137.5604816049014
 20
199.5293360682503
 30
0.0
 11
106.4477832326979
 21
217.4459474751157
 31
0.0
  0
LINE
  5
195
330
6C
100
AcDbEntity
  8
Visible Narrow (ISO)
100
AcDbLine
 10
139.9646446609353
 20
194.6303647137106
 30
0.0
 11
140.3889087296472
 21
194.6303647137106
 31
0.0
  0
ELLIPSE
  5
196
330
6C
100
AcDbEntity
  8
Visible (ISO)
100
AcDbEllipse
 10
137.5604816049014
 20
196.2591475688801
 30
0.0
 11
-1.996128846336939
 21
3.466333744581093
 31
0.0
210
0.0
220
0.0
230
1.0
 40
0.5780931159156394
 41
3.928924525410041
 42
5.499720852204928
  0
LINE
  5
197
330
6C
100
AcDbEntity
  8
Visible Narrow (ISO)
100
AcDbLine
 10
139.9646446609353
 20
158.6582912206388
 30
0.0
 11
140.3889087296472
 21
158.6582912206388
 31
0.0
  0
LINE
  5
198
330
6C
100
AcDbEntity
  8
Visible (ISO)
100
AcDbLine
 10
140.3889087296472
 20
158.6582912206388
 30
0.0
 11
140.3889087296472
 21
194.6303647137106
 31
0.0
  0
LINE
  5
199
330
6C
100
AcDbEntity
  8
Visible Narrow (ISO)
100
AcDbLine
 10
137.3483495705455
 20
157.1399909997533
 30
0.0
 11
137.5604816049014
 21
157.0168855764382
 31
0.0
  0
ELLIPSE
  5
19A
330
6C
100
AcDbEntity
  8
Visible (ISO)
100
AcDbEllipse
 10
137.5604816049014
 20
160.2870740758084
 30
0.0
 11
1.996128846336732
 21
-3.466333744581212
 31
0.0
210
0.0
220
0.0
230
0.9999999999999998
 40
0.5780931159156394
 41
5.499720852205171
 42
7.070517179000065
  0
LINE
  5
19B
330
6C
100
AcDbEntity
  8
Visible (ISO)
100
AcDbLine
 10
126.7917624931529
 20
163.2181784815646
 30
0.0
 11
137.5604816049014
 21
157.0168855764382
 31
0.0
  0
LINE
  5
19C
330
6C
100
AcDbEntity
  8
Visible (ISO)
100
AcDbLine
 10
103.6193561079521
 20
215.5602244026397
 30
0.0
 11
103.6193561079522
 21
215.8045418309151
 31
0.0
  0
ELLIPSE
  5
19D
330
6C
100
AcDbEntity
  8
Visible (ISO)
100
AcDbEllipse
 10
106.4477832326979
 20
214.1757589757455
 30
0.0
 11
-1.996128846336732
 21
3.466333744581212
 31
0.0
210
0.0
220
0.0
230
0.9999999999999998
 40
0.5780931159156394
 41
5.49972085220517
 42
7.070517179000059
  0
LINE
  5
19E
330
6C
100
AcDbEntity
  8
Visible Narrow (ISO)
100
AcDbLine
 10
124.4082954748389
 20
227.7887186054394
 30
0.0
 11
106.4477832326979
 21
217.4459474751157
 31
0.0
  0
LINE
  5
19F
330
6C
100
AcDbEntity
  8
Visible Narrow (ISO)
100
AcDbLine
 10
155.5209938470424
 20
209.872107198574
 30
0.0
 11
137.5604816049014
 21
199.5293360682503
 31
0.0
  0
LINE
  5
1A0
330
6C
100
AcDbEntity
  8
Visible Narrow (ISO)
100
AcDbLine
 10
158.3494209717882
 20
169.0010623509625
 30
0.0
 11
140.3889087296472
 21
158.6582912206388
 31
0.0
  0
LINE
  5
1A1
330
6C
100
AcDbEntity
  8
Visible Narrow (ISO)
100
AcDbLine
 10
158.3494209717882
 20
204.9731358440343
 30
0.0
 11
140.3889087296472
 21
194.6303647137106
 31
0.0
  0
LINE
  5
1A2
330
6C
100
AcDbEntity
  8
Visible (ISO)
100
AcDbLine
 10
122.4121666285022
 20
227.9848638506505
 30
0.0
 11
104.4516543863612
 21
217.6420927203267
 31
0.0
  0
LINE
  5
1A3
330
6C
100
AcDbEntity
  8
Visible (ISO)
100
AcDbLine
 10
157.5171226933791
 20
167.1635114615509
 30
0.0
 11
139.5566104512382
 21
156.8207403312272
 31
0.0
  0
ELLIPSE
  5
1A4
330
6C
100
AcDbEntity
  8
Visible (ISO)
100
AcDbEllipse
 10
124.4082954748389
 20
224.5185301060693
 30
0.0
 11
-1.99612884633673
 21
3.466333744581213
 31
0.0
210
0.0
220
0.0
230
1.0
 40
0.5780931159156396
 41
5.499720852205172
 42
6.283185307179585
  0
LINE
  5
1A5
330
6C
100
AcDbEntity
  8
Visible (ISO)
100
AcDbLine
 10
124.4082954748389
 20
227.7887186054394
 30
0.0
 11
155.5209938470424
 21
209.872107198574
 31
0.0
  0
ELLIPSE
  5
1A6
330
6C
100
AcDbEntity
  8
Visible (ISO)
100
AcDbEllipse
 10
155.5209938470424
 20
170.6298452061321
 30
0.0
 11
1.996128846336727
 21
-3.466333744581206
 31
0.0
210
0.0
220
0.0
230
1.0
 40
0.5780931159156394
 41
0.0
 42
0.7873318718204816
  0
LINE
  5
1A7
330
6C
100
AcDbEntity
  8
Visible (ISO)
100
AcDbLine
 10
158.3494209717883
 20
205.2174532723098
 30
0.0
 11
158.3494209717882
 21
204.9731358440343
 31
0.0
  0
LINE
  5
1A8
330
6C
100
AcDbEntity
  8
Visible (ISO)
100
AcDbLine
 10
158.3494209717882
 20
204.9731358440343
 30
0.0
 11
158.3494209717882
 21
169.0010623509625
 31
0.0
  0
ELLIPSE
  5
1A9
330
6C
100
AcDbEntity
  8
Visible (ISO)
100
AcDbEllipse
 10
155.5209938470424
 20
206.6019186992039
 30
0.0
 11
1.996128846336524
 21
-3.466333744581332
 31
0.0
210
0.0
220
0.0
230
1.0
 40
0.5780931159156393
 41
0.7873318718207214
 42
2.35812819861562
  0
ELLIPSE
  5
1AA
330
6C
100
AcDbEntity
  8
Visible (ISO)
100
AcDbEllipse
 10
155.7331258813984
 20
206.7240774133416
 30
0.0
 11
-1.846419182861665
 21
3.206358713737506
 31
0.0
210
0.0
220
0.0
230
1.0
 40
0.5780931159156394
 41
3.928924525410039
 42
5.495853435359174
  0
LINE
  5
1AB
330
6C
100
AcDbEntity
  8
Visible (ISO)
100
AcDbLine
 10
155.7432441598814
 20
209.7431524244636
 30
0.0
 11
155.5319325264835
 21
209.8657835760926
 31
0.0
  0
LINE
  5
1AC
330
6C
100
AcDbEntity
  8
Visible (ISO)
100
AcDbLine
 10
104.821437635967
 20
188.8573055301131
 30
0.0
 11
104.8214376359671
 21
189.4331672310986
 31
0.0
  0
LINE
  5
1AD
330
6C
100
AcDbEntity
  8
Visible (ISO)
100
AcDbLine
 10
114.7858001019978
 20
171.5539105500606
 30
0.0
 11
115.2838663983954
 21
171.2648661537221
 31
0.0
  0
LINE
  5
1AE
330
6C
100
AcDbEntity
  8
Visible (ISO)
100
AcDbLine
 10
129.4846912391545
 20
165.5751519294085
 30
0.0
 11
128.0704776767812
 21
164.760760501824
 31
0.0
  0
LINE
  5
1AF
330
6C
100
AcDbEntity
  8
Visible (ISO)
100
AcDbLine
 10
107.0282417178663
 20
204.5714065559472
 30
0.0
 11
105.614028155493
 21
203.7570151283627
 31
0.0
  0
LINE
  5
1B0
330
6C
100
AcDbEntity
  8
Visible (ISO)
100
AcDbLine
 10
133.9849629615736
 20
165.2817936224898
 30
0.0
 11
132.3586173648443
 21
164.3452434807675
 31
0.0
  0
LINE
  5
1B1
330
6C
100
AcDbEntity
  8
Visible (ISO)
100
AcDbLine
 10
109.0333523823645
 20
208.6109654297549
 30
0.0
 11
107.4070067856352
 21
207.6744152880327
 31
0.0
  0
ELLIPSE
  5
1B2
330
6C
100
AcDbEntity
  8
Visible (ISO)
100
AcDbEllipse
 10
115.4280393537638
 20
183.4444963875088
 30
0.0
 11
3.493225481089276
 21
-6.066084053017116
 31
0.0
210
0.0
220
0.0
230
1.0
 40
0.5780931159156397
 41
0.0
 42
0.3311014755619519
  0
ELLIPSE
  5
1B3
330
6C
100
AcDbEntity
  8
Visible (ISO)
100
AcDbEllipse
 10
115.4280393537638
 20
183.4444963875088
 30
0.0
 11
-3.493225481089291
 21
6.066084053017142
 31
0.0
210
0.0
220
0.0
230
1.0
 40
0.5780931159156394
 41
5.952083831617635
 42
6.283185307179588
  0
ELLIPSE
  5
1B4
330
6C
100
AcDbEntity
  8
Visible (ISO)
100
AcDbEllipse
 10
114.7209325725772
 20
183.0373006737165
 30
0.0
 11
3.7813418627817
 21
-6.566406233150879
 31
0.0
210
0.0
220
0.0
230
1.0
 40
0.5780931159156394
 41
5.78449569501322
 42
9.923467572935743
  0
ELLIPSE
  5
1B5
330
6C
100
AcDbEntity
  8
Visible (ISO)
100
AcDbEllipse
 10
114.7209325725772
 20
183.0373006737165
 30
0.0
 11
-5.700270157317765
 21
9.898679053609868
 31
0.0
210
0.0
220
0.0
230
1.0
 40
0.5780931159156396
 41
2.123831255608389
 42
7.30094670516099
  0
ELLIPSE
  5
1B6
330
6C
100
AcDbEntity
  8
Visible (ISO)
100
AcDbEllipse
 10
115.4280393537638
 20
183.4444963875088
 30
0.0
 11
-5.988386539010183
 21
10.39900123374361
 31
0.0
210
0.0
220
0.0
230
1.0
 40
0.5780931159156394
 41
5.914847838132757
 42
6.704583753576442
  0
ELLIPSE
  5
1B7
330
6C
100
AcDbEntity
  8
Visible (ISO)
100
AcDbEllipse
 10
115.4280393537638
 20
183.4444963875088
 30
0.0
 11
5.988386539010199
 21
-10.39900123374365
 31
0.0
210
0.0
220
0.0
230
1.0
 40
0.5780931159156393
 41
5.861786860782729
 42
6.651522776226409
  0
LINE
  5
1B8
330
6C
100
AcDbEntity
  8
Visible (ISO)
100
AcDbLine
 10
107.1786784864943
 20
190.7221275196384
 30
0.0
 11
107.5045670276476
 21
191.5177477192311
 31
0.0
  0
LINE
  5
1B9
330
6C
100
AcDbEntity
  8
Visible (ISO)
100
AcDbLine
 10
117.5818746415503
 20
172.6566855267797
 30
0.0
 11
118.4335858457547
 21
172.5391999196283
 31
0.0
  0
ELLIPSE
  5
1BA
330
6C
100
AcDbEntity
  8
Visible (ISO)
100
AcDbEllipse
 10
99.16458338647084
 20
174.0789949702865
 30
0.0
 11
-1.621854687648592
 21
2.816396167472232
 31
0.0
210
0.0
220
0.0
230
1.0
 40
0.5780931159156393
 41
0.0
 42
6.283185307179586
  0
ELLIPSE
  5
1BB
330
6C
100
AcDbEntity
  8
Visible (ISO)
100
AcDbEllipse
 10
100.6134565693273
 20
174.913345545878
 30
0.0
 11
-1.031499581344505
 21
1.79122796251234
 31
0.0
210
0.0
220
0.0
230
1.0
 40
0.5780931159156393
 41
0.1743973651009097
 42
2.967195288488877
  0
ELLIPSE
  5
1BC
330
6C
100
AcDbEntity
  8
Visible Narrow (ISO)
100
AcDbEllipse
 10
113.0238762977292
 20
182.0600309606151
 30
0.0
 11
-2.994193269505096
 21
5.199500616871816
 31
0.0
210
0.0
220
0.0
230
0.9999999999999998
 40
0.5780931159156394
 41
3.14159265358979
 42
6.283185307179583
  0
ELLIPSE
  5
1BD
330
6C
100
AcDbEntity
  8
Visible Narrow (ISO)
100
AcDbEllipse
 10
113.3067190102039
 20
182.2229092461319
 30
0.0
 11
3.193806154138769
 21
-5.546133991329938
 31
0.0
210
0.0
220
0.0
230
1.0
 40
0.5780931159156393
 41
5.927764105489362
 42
9.780199162459609
  0
ELLIPSE
  5
1BE
330
6C
100
AcDbEntity
  8
Visible (ISO)
100
AcDbEllipse
 10
113.3067190102039
 20
182.2229092461319
 30
0.0
 11
-3.311592610132603
 21
5.750673476752104
 31
0.0
210
0.0
220
0.0
230
1.0
 40
0.5780931159156393
 41
2.700194092988697
 42
6.724583867780688
  0
ELLIPSE
  5
1BF
330
6C
100
AcDbEntity
  8
Visible (ISO)
100
AcDbEllipse
 10
114.0138257913905
 20
182.6301049599242
 30
0.0
 11
3.493225481089278
 21
-6.066084053017119
 31
0.0
210
0.0
220
0.0
230
1.0
 40
0.5780931159156394
 41
6.022375548938791
 42
9.685587719010175
  0
LINE
  5
1C0
330
6C
100
AcDbEntity
  8
Visible (ISO)
100
AcDbLine
 10
109.2498733622673
 20
187.2854482657367
 30
0.0
 11
109.7344719400572
 21
187.9703120397993
 31
0.0
  0
LINE
  5
1C1
330
6C
100
AcDbEntity
  8
Visible (ISO)
100
AcDbLine
 10
115.649072315185
 20
176.173059749587
 30
0.0
 11
116.4846515281185
 21
176.2484358036931
 31
0.0
  0
ELLIPSE
  5
1C2
330
6C
100
AcDbEntity
  8
Visible Narrow (ISO)
100
AcDbEllipse
 10
99.51813677706418
 20
174.2825928271827
 30
0.0
 11
2.994193269505094
 21
-5.199500616871816
 31
0.0
210
0.0
220
0.0
230
1.0
 40
0.5780931159156394
 41
0.0
 42
3.141592653589791
  0
ELLIPSE
  5
1C3
330
6C
100
AcDbEntity
  8
Visible Narrow (ISO)
100
AcDbEllipse
 10
99.16458338647084
 20
174.0789949702865
 30
0.0
 11
-2.744677163713003
 21
4.766208898799163
 31
0.0
210
0.0
220
0.0
230
1.0
 40
0.5780931159156397
 41
0.0
 42
6.283185307179586
  0
SPLINE
  5
1C4
330
6C
100
AcDbEntity
  8
Visible (ISO)
100
AcDbSpline
210
0.0
220
0.0
230
1.0
 70
     8
 71
     3
 72
    26
 73
    22
 74
     0
 42
0.0000000001
 43
0.0000000001
 40
0.7873318718204815
 40
0.7873318718204815
 40
0.7873318718204815
 40
0.7873318718204815
 40
1.063660571805224
 40
1.063660571805224
 40
1.361682561479294
 40
1.361682561479294
 40
1.689634830002312
 40
1.689634830002312
 40
2.023800512745531
 40
2.023800512745531
 40
2.355817953751278
 40
2.355817953751278
 40
2.686723632284175
 40
2.686723632284175
 40
3.018705143857673
 40
3.018705143857673
 40
3.352847252007308
 40
3.352847252007308
 40
3.680895091651295
 40
3.680895091651295
 40
3.928924525410274
 40
3.928924525410274
 40
3.928924525410274
 40
3.928924525410274
 10
102.5123300465692
 20
169.0830922103108
 30
0.0
 10
102.1895015398973
 20
168.8971876373322
 30
0.0
 10
101.822519356334
 20
168.7908479560351
 30
0.0
 10
101.0277792175039
 20
168.737981567063
 30
0.0
 10
100.5978810901289
 20
168.8024910548467
 30
0.0
 10
99.69616716898469
 20
169.1005078135727
 30
0.0
 10
99.22323380789528
 20
169.3503360986196
 30
0.0
 10
98.30117799438561
 20
170.0086024665272
 30
0.0
 10
97.85271096011102
 20
170.42029967577
 30
0.0
 10
97.03057775357002
 20
171.3564244833231
 30
0.0
 10
96.65667910821774
 20
171.8800310328104
 30
0.0
 10
96.01682267751352
 20
172.9877361323875
 30
0.0
 10
95.75063178712268
 20
173.5714080121764
 30
0.0
 10
95.35098456233605
 20
174.7463272308348
 30
0.0
 10
95.21791844949637
 20
175.337357201268
 30
0.0
 10
95.1034914371923
 20
176.474412279825
 30
0.0
 10
95.12281412363803
 20
177.0202402101782
 30
0.0
 10
95.32721261012708
 20
178.0045068682261
 30
0.0
 10
95.51012203071366
 20
178.4460893323245
 30
0.0
 10
95.9816426129854
 20
179.0854729278237
 30
0.0
 10
96.23417638704097
 20
179.3152276571433
 30
0.0
 10
96.52394350755907
 20
179.4820934440545
 30
0.0
  0
LINE
  5
1C5
330
6C
100
AcDbEntity
  8
Visible (ISO)
100
AcDbLine
 10
116.0180695672343
 20
176.8605303437432
 30
0.0
 11
102.5123300465692
 21
169.0830922103108
 31
0.0
  0
LINE
  5
1C6
330
6C
100
AcDbEntity
  8
Visible (ISO)
100
AcDbLine
 10
110.0296830282241
 20
187.2595315774869
 30
0.0
 11
96.52394350755907
 21
179.4820934440545
 31
0.0
  0
LINE
  5
1C7
330
6C
100
AcDbEntity
  8
Visible (ISO)
100
AcDbLine
 10
118.9212648348531
 20
177.3784123344917
 30
0.0
 11
117.5070512724798
 21
176.5640209069071
 31
0.0
  0
LINE
  5
1C8
330
6C
100
AcDbEntity
  8
Visible (ISO)
100
AcDbLine
 10
111.9348138726745
 20
189.5105804405259
 30
0.0
 11
110.5206003103012
 21
188.6961890129414
 31
0.0
  0
ELLIPSE
  5
1C9
330
6C
100
AcDbEntity
  8
Visible Narrow (ISO)
100
AcDbEllipse
 10
140.8838834764879
 20
236.4588316119569
 30
0.0
 11
0.4990322115844227
 21
0.8665834361452063
 31
0.0
210
0.0
220
0.0
230
1.0
 40
0.5780931159158105
 41
0.0
 42
0.7834644549745633
  0
ELLIPSE
  5
1CA
330
6C
100
AcDbEntity
  8
Visible Narrow (ISO)
100
AcDbEllipse
 10
140.8838834764879
 20
234.0061902374292
 30
0.0
 11
-1.99612884633674
 21
3.466333744581222
 31
0.0
210
0.0
220
0.0
230
1.0
 40
0.5780931159156394
 41
5.499720852205168
 42
6.283185307179588
  0
ELLIPSE
  5
1CB
330
6C
100
AcDbEntity
  8
Visible Narrow (ISO)
100
AcDbEllipse
 10
174.1179021922507
 20
178.8959181961149
 30
0.0
 11
0.9999999999999996
 21
-0.0000000000000049
 31
0.0
210
0.0
220
0.0
230
1.0
 40
0.5758617009853115
 41
5.497787143782039
 42
6.283185307179611
  0
ELLIPSE
  5
1CC
330
6C
100
AcDbEntity
  8
Visible Narrow (ISO)
100
AcDbEllipse
 10
171.9965818486914
 20
180.1175053374921
 30
0.0
 11
1.996128846336738
 21
-3.466333744581226
 31
0.0
210
0.0
220
0.0
230
1.0
 40
0.5780931159156394
 41
0.0
 42
0.7873318718204772
  0
ELLIPSE
  5
1CD
330
6C
100
AcDbEntity
  8
Visible Narrow (ISO)
100
AcDbEllipse
 10
174.1179021922507
 20
188.5445774569433
 30
0.0
 11
0.9999999999999918
 21
0.0000000000000123
 31
0.0
210
0.0
220
0.0
230
1.0
 40
0.575861700985305
 41
5.497787143781986
 42
6.283185307179578
  0
LINE
  5
1CE
330
6C
100
AcDbEntity
  8
Visible Narrow (ISO)
100
AcDbLine
 10
174.8250089734372
 20
188.1373817431509
 30
0.0
 11
174.8250089734372
 21
178.4887224823225
 31
0.0
  0
ELLIPSE
  5
1CF
330
6C
100
AcDbEntity
  8
Visible Narrow (ISO)
100
AcDbEllipse
 10
174.1179021922508
 20
205.2193324283613
 30
0.0
 11
0.9999999999999571
 21
-0.000000000000182
 31
0.0
210
0.0
220
0.0
230
1.0
 40
0.5758617009851183
 41
5.497787143781403
 42
6.283185307178833
  0
SPLINE
  5
1D0
330
6C
100
AcDbEntity
  8
Visible Narrow (ISO)
100
AcDbSpline
210
0.0
220
0.0
230
1.0
 70
     8
 71
     3
 72
    14
 73
    10
 74
     0
 42
0.0000000001
 43
0.0000000001
 40
0.0
 40
0.0
 40
0.0
 40
0.0
 40
0.5589499308259733
 40
0.5589499308259733
 40
1.035319117816857
 40
1.035319117816857
 40
1.393741628867341
 40
1.393741628867341
 40
2.045689886171933
 40
2.045689886171933
 40
2.045689886171933
 40
2.045689886171933
 10
174.8250089734372
 20
204.8121367145689
 30
0.0
 10
174.8250089734369
 20
203.2889103516431
 30
0.0
 10
174.9939475471
 20
201.8692828935334
 30
0.0
 10
175.266296415877
 20
199.2222969148301
 30
0.0
 10
175.3699712826717
 20
197.9854728024355
 30
0.0
 10
175.3612532729616
 20
195.705536256155
 30
0.0
 10
175.2986713589212
 20
194.6929199372193
 30
0.0
 10
175.0543065804789
 20
191.8133143321531
 30
0.0
 10
174.8250089734372
 20
189.9140431541691
 30
0.0
 10
174.8250089734372
 20
188.1373817431509
 30
0.0
  0
ELLIPSE
  5
1D1
330
6C
100
AcDbEntity
  8
Visible Narrow (ISO)
100
AcDbEllipse
 10
174.1179021922507
 20
214.8679916891867
 30
0.0
 11
0.9999999999999918
 21
0.0000000000000014
 31
0.0
210
0.0
220
0.0
230
1.0
 40
0.5758617009853117
 41
5.497787143781996
 42
6.283185307179578
  0
LINE
  5
1D2
330
6C
100
AcDbEntity
  8
Visible Narrow (ISO)
100
AcDbLine
 10
174.8250089734372
 20
214.4607959753943
 30
0.0
 11
174.8250089734372
 21
204.8121367145689
 31
0.0
  0
ELLIPSE
  5
1D3
330
6C
100
AcDbEntity
  8
Visible Narrow (ISO)
100
AcDbEllipse
 10
171.9965818486914
 20
218.5422202050915
 30
0.0
 11
0.4990322115844114
 21
0.8665834361452057
 31
0.0
210
0.0
220
0.0
230
1.0
 40
0.5780931159158106
 41
0.0
 42
0.7834644549744861
  0
ELLIPSE
  5
1D4
330
6C
100
AcDbEntity
  8
Visible Narrow (ISO)
100
AcDbEllipse
 10
171.9965818486914
 20
216.0895788305639
 30
0.0
 11
1.99612884633653
 21
-3.466333744581346
 31
0.0
210
0.0
220
0.0
230
1.0
 40
0.5780931159156394
 41
0.787331871820725
 42
2.358128198615627
  0
ELLIPSE
  5
1D5
330
6C
100
AcDbEntity
  8
Visible Narrow (ISO)
100
AcDbEllipse
 10
163.6513352135165
 20
223.3479281275666
 30
0.0
 11
0.4990322115844022
 21
0.8665834361452114
 31
0.0
210
0.0
220
0.0
230
1.0
 40
0.578093115915817
 41
0.0
 42
0.7834644549744763
  0
LINE
  5
1D6
330
6C
100
AcDbEntity
  8
Visible Narrow (ISO)
100
AcDbLine
 10
163.6513352135165
 20
224.1654752524092
 30
0.0
 11
171.9965818486914
 21
219.3597673299341
 31
0.0
  0
ELLIPSE
  5
1D7
330
6C
100
AcDbEntity
  8
Visible Narrow (ISO)
100
AcDbEllipse
 10
149.2291301116602
 20
231.6531236894832
 30
0.0
 11
0.4990322115846659
 21
0.8665834361450514
 31
0.0
210
0.0
220
0.0
230
0.9999999999999998
 40
0.5780931159160041
 41
0.0
 42
0.7834644549747188
  0
SPLINE
  5
1D8
330
6C
100
AcDbEntity
  8
Visible Narrow (ISO)
100
AcDbSpline
210
0.0
220
0.0
230
1.0
 70
     8
 71
     3
 72
    14
 73
    10
 74
     0
 42
0.0000000001
 43
0.0000000001
 40
0.0
 40
0.0
 40
0.0
 40
0.0
 40
0.5589499308256338
 40
0.5589499308256338
 40
1.035319117816857
 40
1.035319117816857
 40
1.393741628867342
 40
1.393741628867342
 40
2.045689886171933
 40
2.045689886171933
 40
2.045689886171933
 40
2.045689886171933
 10
149.2291301116603
 20
232.4706708143257
 30
0.0
 10
150.546587733095
 20
231.7119974274697
 30
0.0
 10
152.0275231726065
 20
231.0537539350061
 30
0.0
 10
154.7249322819786
 20
229.8140899026999
 30
0.0
 10
155.9499892080318
 20
229.2280313077427
 30
0.0
 10
157.9088747865228
 20
228.0899433906753
 30
0.0
 10
158.6909472755352
 20
227.5675007419183
 30
0.0
 10
160.815478798299
 20
226.0626237714728
 30
0.0
 10
162.1146784344407
 20
225.0503770390387
 30
0.0
 10
163.6513352135165
 20
224.1654752524092
 30
0.0
  0
LINE
  5
1D9
330
6C
100
AcDbEntity
  8
Visible Narrow (ISO)
100
AcDbLine
 10
140.8838834764879
 20
237.2763787367994
 30
0.0
 11
149.2291301116603
 21
232.4706708143257
 31
0.0
  0
SPLINE
  5
1DA
330
6C
100
AcDbEntity
  8
Visible (ISO)
100
AcDbSpline
210
0.0
220
0.0
230
1.0
 70
     8
 71
     3
 72
    16
 73
    12
 74
     0
 42
0.0000000001
 43
0.0000000001
 40
4.712388980384689
 40
4.712388980384689
 40
4.712388980384689
 40
4.712388980384689
 40
4.869081871379572
 40
4.869081871379572
 40
5.025774762374455
 40
5.025774762374455
 40
5.182467653369338
 40
5.182467653369338
 40
5.33916054436422
 40
5.33916054436422
 40
5.495853435359105
 40
5.495853435359105
 40
5.495853435359105
 40
5.495853435359105
 10
141.3829156880723
 20
237.325415048102
 30
0.0
 10
141.2328175860743
 20
237.4118507964333
 30
0.0
 10
141.0781045605746
 20
237.487410185386
 30
0.0
 10
140.7594423450736
 20
237.6127075713575
 30
0.0
 10
140.5954280065089
 20
237.6624714579151
 30
0.0
 10
140.2588736070273
 20
237.7301803056967
 30
0.0
 10
140.0862048704036
 20
237.7480784037692
 30
0.0
 10
139.7367204393269
 20
237.7440397927043
 30
0.0
 10
139.5598386598667
 20
237.7218879002164
 30
0.0
 10
139.213625566024
 20
237.6313784071761
 30
0.0
 10
139.0445486174357
 20
237.5628156342324
 30
0.0
 10
138.8877546301512
 20
237.4725239820104
 30
0.0
  0
SPLINE
  5
1DB
330
6C
100
AcDbEntity
  8
Visible (ISO)
100
AcDbSpline
210
0.0
220
0.0
230
1.0
 70
     8
 71
     3
 72
    16
 73
    12
 74
     0
 42
0.0000000001
 43
0.0000000001
 40
2.354260781769312
 40
2.354260781769312
 40
2.354260781769312
 40
2.354260781769312
 40
2.511727156133408
 40
2.511727156133408
 40
2.669193530497504
 40
2.669193530497504
 40
2.8266599048616
 40
2.8266599048616
 40
2.984126279225696
 40
2.984126279225696
 40
3.141592653589793
 40
3.141592653589793
 40
3.141592653589793
 40
3.141592653589793
 10
173.9927106950281
 20
176.6511715929109
 30
0.0
 10
174.1502786647236
 20
176.7419089519606
 30
0.0
 10
174.2950891036955
 20
176.8543913580761
 30
0.0
 10
174.5480401700475
 20
177.1099544480114
 30
0.0
 10
174.6562335914254
 20
177.2527051922338
 30
0.0
 10
174.8353076382187
 20
177.5547651264121
 30
0.0
 10
174.9064124961489
 20
177.7140246734839
 30
0.0
 10
175.0163760546723
 20
178.0409651075808
 30
0.0
 10
175.055340514427
 20
178.2087363405345
 30
0.0
 10
175.1060988265232
 20
178.5491105907686
 30
0.0
 10
175.1179021922507
 20
178.7217837992157
 30
0.0
 10
175.1179021922507
 20
178.8959181961149
 30
0.0
  0
LINE
  5
1DC
330
6C
100
AcDbEntity
  8
Visible (ISO)
100
AcDbLine
 10
175.1179021922507
 20
178.8959181961149
 30
0.0
 11
175.1179021922507
 21
188.5445774569433
 31
0.0
  0
SPLINE
  5
1DD
330
6C
100
AcDbEntity
  8
Visible (ISO)
100
AcDbSpline
210
0.0
220
0.0
230
1.0
 70
     8
 71
     3
 72
    16
 73
    12
 74
     0
 42
0.0000000001
 43
0.0000000001
 40
-2.045689886171933
 40
-2.045689886171933
 40
-2.045689886171933
 40
-2.045689886171933
 40
-1.636551908937546
 40
-1.636551908937546
 40
-1.227413931703159
 40
-1.227413931703159
 40
-0.8182759544687732
 40
-0.8182759544687732
 40
-0.4091379772343866
 40
-0.4091379772343866
 40
0.0
 40
0.0
 40
0.0
 40
0.0
 10
175.1179021922507
 20
188.5445774569433
 30
0.0
 10
175.1179021922507
 20
189.6034501481933
 30
0.0
 10
175.2057308417377
 20
190.7417025848996
 30
0.0
 10
175.4158709311134
 20
193.0663172406728
 30
0.0
 10
175.5387662092471
 20
194.2548927546696
 30
0.0
 10
175.672540346666
 20
196.6177668630156
 30
0.0
 10
175.6726581892454
 20
197.7859117021469
 30
0.0
 10
175.5379894840235
 20
200.0075737486363
 30
0.0
 10
175.4145033919642
 20
201.0596160392276
 30
0.0
 10
175.2052594101814
 20
203.13317469204
 30
0.0
 10
175.1179021922506
 20
204.1604597371111
 30
0.0
 10
175.1179021922507
 20
205.2193324283611
 30
0.0
  0
LINE
  5
1DE
330
6C
100
AcDbEntity
  8
Visible (ISO)
100
AcDbLine
 10
175.1179021922507
 20
205.2193324283611
 30
0.0
 11
175.1179021922507
 21
214.8679916891867
 31
0.0
  0
SPLINE
  5
1DF
330
6C
100
AcDbEntity
  8
Visible (ISO)
100
AcDbSpline
210
0.0
220
0.0
230
1.0
 70
     8
 71
     3
 72
    16
 73
    12
 74
     0
 42
0.0000000001
 43
0.0000000001
 40
3.141592653589793
 40
3.141592653589793
 40
3.141592653589793
 40
3.141592653589793
 40
3.455751918948772
 40
3.455751918948772
 40
3.769911184307751
 40
3.769911184307751
 40
4.084070449666731
 40
4.084070449666731
 40
4.39822971502571
 40
4.39822971502571
 40
4.712388980384689
 40
4.712388980384689
 40
4.712388980384689
 40
4.712388980384689
 10
175.1179021922507
 20
214.8679916891867
 30
0.0
 10
175.1179021922507
 20
215.2154051253855
 30
0.0
 10
175.0711707178792
 20
215.568873159367
 30
0.0
 10
174.9009250936279
 20
216.2727089237854
 30
0.0
 10
174.777112167909
 20
216.6230549493292
 30
0.0
 10
174.4644194721448
 20
217.3007274148239
 30
0.0
 10
174.2755149580127
 20
217.6279259516179
 30
0.0
 10
173.8450442496981
 20
218.2374208907291
 30
0.0
 10
173.6036025614372
 20
218.5196763902303
 30
0.0
 10
173.0792724228113
 20
219.0185919220682
 30
0.0
 10
172.7965511937736
 20
219.235505471651
 30
0.0
 10
172.4956140602758
 20
219.4088036412367
 30
0.0
  0
LINE
  5
1E0
330
6C
100
AcDbEntity
  8
Visible (ISO)
100
AcDbLine
 10
172.4956140602758
 20
219.4088036412367
 30
0.0
 11
164.1503674251009
 21
224.2145115637119
 31
0.0
  0
SPLINE
  5
1E1
330
6C
100
AcDbEntity
  8
Visible (ISO)
100
AcDbSpline
210
0.0
220
0.0
230
1.0
 70
     8
 71
     3
 72
    16
 73
    12
 74
     0
 42
0.0000000001
 43
0.0000000001
 40
-2.045689886171933
 40
-2.045689886171933
 40
-2.045689886171933
 40
-2.045689886171933
 40
-1.636551908937546
 40
-1.636551908937546
 40
-1.227413931703159
 40
-1.227413931703159
 40
-0.8182759544687732
 40
-0.8182759544687732
 40
-0.4091379772343866
 40
-0.4091379772343866
 40
0.0
 40
0.0
 40
0.0
 40
0.0
 10
164.1503674251009
 20
224.2145115637119
 30
0.0
 10
163.2346284890461
 20
224.7418505450871
 30
0.0
 10
162.3919038826481
 20
225.3274886477583
 30
0.0
 10
160.7010098057237
 20
226.54253517336
 30
0.0
 10
159.8523588854857
 20
227.1735643003932
 30
0.0
 10
157.9982095598956
 20
228.3962774993526
 30
0.0
 10
156.9876482605531
 20
228.9779899256768
 30
0.0
 10
154.8765701464343
 20
230.0394696591434
 30
0.0
 10
153.7876750223838
 20
230.5250717566662
 30
0.0
 10
151.6747609565285
 20
231.5001399943905
 30
0.0
 10
150.6439012592995
 20
231.992368144253
 30
0.0
 10
149.7281623232448
 20
232.5197071256283
 30
0.0
  0
LINE
  5
1E2
330
6C
100
AcDbEntity
  8
Visible (ISO)
100
AcDbLine
 10
149.7281623232448
 20
232.5197071256282
 30
0.0
 11
141.3829156880723
 21
237.325415048102
 31
0.0
  0
ELLIPSE
  5
1E3
330
6C
100
AcDbEntity
  8
Visible Narrow (ISO)
100
AcDbEllipse
 10
158.5615530061496
 20
208.2834349288376
 30
0.0
 11
-12.47580528960588
 21
21.66458590363185
 31
0.0
210
0.0
220
0.0
230
0.9999999999999998
 40
0.5780931159156393
 41
3.607746467153001
 42
4.287012863249968
  0
ELLIPSE
  5
1E4
330
6C
100
AcDbEntity
  8
Visible Narrow (ISO)
100
AcDbEllipse
 10
158.5615530061496
 20
208.2834349288376
 30
0.0
 11
-12.47580528960456
 21
21.66458590363255
 31
0.0
210
0.0
220
0.0
230
1.0
 40
0.5780931159156394
 41
5.142644267607428
 42
5.819332834599288
  0
LINE
  5
1E5
330
6C
100
AcDbEntity
  8
Visible Narrow (ISO)
100
AcDbLine
 10
174.8250089734372
 20
214.4607959753943
 30
0.0
 11
158.7736850405002
 21
205.2174532723097
 31
0.0
  0
LINE
  5
1E6
330
6C
100
AcDbEntity
  8
Visible Narrow (ISO)
100
AcDbLine
 10
174.8250089734372
 20
178.4887224823225
 30
0.0
 11
158.7736850405002
 21
169.2453797792379
 31
0.0
  0
LINE
  5
1E7
330
6C
100
AcDbEntity
  8
Visible Narrow (ISO)
100
AcDbLine
 10
171.9965818486914
 20
219.3597673299341
 30
0.0
 11
155.9452579157544
 21
210.1164246268495
 31
0.0
  0
LINE
  5
1E8
330
6C
100
AcDbEntity
  8
Visible Narrow (ISO)
100
AcDbLine
 10
140.8838834764879
 20
237.2763787367994
 30
0.0
 11
124.8325595435509
 21
228.0330360337148
 31
0.0
  0
LINE
  5
1E9
330
6C
100
AcDbEntity
  8
Visible (ISO)
100
AcDbLine
 10
138.8877546301512
 20
237.4725239820104
 30
0.0
 11
122.8364306972142
 21
228.2291812789259
 31
0.0
  0
LINE
  5
1EA
330
6C
100
AcDbEntity
  8
Visible (ISO)
100
AcDbLine
 10
173.9927106950281
 20
176.6511715929109
 30
0.0
 11
157.9413867620911
 21
167.4078288898263
 31
0.0
  0
LINE
  5
1EB
330
6C
100
AcDbEntity
  8
Visible (ISO)
100
AcDbLine
 10
158.7736850405002
 20
169.2453797792379
 30
0.0
 11
158.7736850405002
 21
205.2174532723097
 31
0.0
  0
ELLIPSE
  5
1EC
330
6C
100
AcDbEntity
  8
Visible (ISO)
100
AcDbEllipse
 10
155.9452579157544
 20
206.8462361274793
 30
0.0
 11
-1.996128846336939
 21
3.466333744581093
 31
0.0
210
0.0
220
0.0
230
1.0
 40
0.5780931159156394
 41
3.928924525410041
 42
5.499720852204928
  0
LINE
  5
1ED
330
6C
100
AcDbEntity
  8
Visible (ISO)
100
AcDbLine
 10
155.9452579157544
 20
210.1164246268495
 30
0.0
 11
124.8325595435509
 21
228.0330360337148
 31
0.0
  0
ELLIPSE
  5
1EE
330
6C
100
AcDbEntity
  8
Visible (ISO)
100
AcDbEllipse
 10
124.8325595435509
 20
224.7628475343447
 30
0.0
 11
-1.996128846336732
 21
3.466333744581212
 31
0.0
210
0.0
220
0.0
230
0.9999999999999998
 40
0.5780931159156394
 41
5.499720852205171
 42
6.389245546589808
  0
ELLIPSE
  5
1EF
330
6C
100
AcDbEntity
  8
Visible (ISO)
100
AcDbEllipse
 10
169.66312947078
 20
214.6764076353762
 30
0.0
 11
-12.47580528960456
 21
21.66458590363257
 31
0.0
210
0.0
220
0.0
230
1.0
 40
0.5780931159156393
 41
3.141592653589793
 42
6.283185307179586
  0
LINE
  5
1F0
330
6C
100
AcDbEntity
  8
Visible Narrow (ISO)
100
AcDbLine
 10
158.7736850405002
 20
205.2174532723097
 30
0.0
 11
158.3494209717882
 21
205.2174532723098
 31
0.0
  0
LINE
  5
1F1
330
6C
100
AcDbEntity
  8
Visible Narrow (ISO)
100
AcDbLine
 10
158.3494209717882
 20
169.2453797792379
 30
0.0
 11
158.7736850405002
 21
169.2453797792379
 31
0.0
  0
ELLIPSE
  5
1F2
330
6C
100
AcDbEntity
  8
Visible (ISO)
100
AcDbEllipse
 10
155.9452579157544
 20
170.8741626344075
 30
0.0
 11
1.996128846336734
 21
-3.466333744581217
 31
0.0
210
0.0
220
0.0
230
1.0
 40
0.5780931159156393
 41
6.177125067769368
 42
7.070517179000059
  0
LINE
  5
1F3
330
6C
100
AcDbEntity
  8
Visible Narrow (ISO)
100
AcDbLine
 10
124.6208377112078
 20
227.6663236716728
 30
0.0
 11
124.8325595435509
 21
228.0330360337148
 31
0.0
  0
LINE
  5
1F4
330
6C
100
AcDbEntity
  8
Visible Narrow (ISO)
100
AcDbLine
 10
155.7331356643473
 20
209.7490187197954
 30
0.0
 11
155.9452579157544
 21
210.1164246268495
 31
0.0
  0
ELLIPSE
  5
1F5
330
6C
100
AcDbEntity
  8
Visible (ISO)
100
AcDbEllipse
 10
155.7331258813984
 20
206.7240774133416
 30
0.0
 11
1.846419182861284
 21
-3.206358713737731
 31
0.0
210
0.0
220
0.0
230
0.9999999999999998
 40
0.5780931159156394
 41
0.7873318718207179
 42
2.354260781769852
  0
ELLIPSE
  5
1F6
330
6C
100
AcDbEntity
  8
Visible (ISO)
100
AcDbEllipse
 10
169.875261505136
 20
214.7985663495139
 30
0.0
 11
-12.32609562613059
 21
21.40461087278824
 31
0.0
210
0.0
220
0.0
230
1.0
 40
0.5780931159156394
 41
3.928924525409732
 42
5.495853435359169
  0
LINE
  5
1F7
330
6C
100
AcDbEntity
  8
Visible (ISO)
100
AcDbLine
 10
187.3407990004412
 20
204.7408322188356
 30
0.0
 11
187.3407990004411
 21
204.4965147905601
 31
0.0
  0
LINE
  5
1F8
330
6C
100
AcDbEntity
  8
Visible (ISO)
100
AcDbLine
 10
169.9428078506846
 20
234.9529319643012
 30
0.0
 11
169.7314962172867
 21
235.0755631159302
 31
0.0
  0
LINE
  5
1F9
330
6C
100
AcDbEntity
  8
Visible (ISO)
100
AcDbLine
 10
182.1389347603846
 20
193.0118217317436
 30
0.0
 11
175.1223993428483
 21
188.9712677111787
 31
0.0
  0
LINE
  5
1FA
330
6C
100
AcDbEntity
  8
Visible (ISO)
100
AcDbLine
 10
157.1873241811755
 20
236.3409935390087
 30
0.0
 11
150.1455029067183
 21
232.2858783618665
 31
0.0
  0
ELLIPSE
  5
1FB
330
6C
100
AcDbEntity
  8
Visible (ISO)
100
AcDbEllipse
 10
142.1473394437785
 20
233.4497624935056
 30
0.0
 11
-2.120886899232788
 21
3.682979603617556
 31
0.0
210
0.0
220
0.0
230
1.0
 40
0.5780931159156394
 41
5.349510390077462
 42
5.649931314332873
  0
LINE
  5
1FC
330
6C
100
AcDbEntity
  8
Visible (ISO)
100
AcDbLine
 10
143.2084330598857
 20
238.9651228091884
 30
0.0
 11
140.8170826351715
 21
237.588035685961
 31
0.0
  0
ELLIPSE
  5
1FD
330
6C
100
AcDbEntity
  8
Visible Narrow (ISO)
100
AcDbEllipse
 10
145.3293199591185
 20
235.2821432055709
 30
0.0
 11
-2.120886899232778
 21
3.682979603617538
 31
0.0
210
0.0
220
0.0
230
1.0
 40
0.5780931159156396
 41
3.862879611505618
 42
6.283185307179574
  0
SPLINE
  5
1FE
330
6C
100
AcDbEntity
  8
Visible (ISO)
100
AcDbSpline
210
0.0
220
0.0
230
1.0
 70
     8
 71
     3
 72
    22
 73
    18
 74
     0
 42
0.0000000001
 43
0.0000000001
 40
4.566229289291056
 40
4.566229289291056
 40
4.566229289291056
 40
4.566229289291056
 40
4.802546288712031
 40
4.802546288712031
 40
5.142694208174125
 40
5.142694208174125
 40
5.480221552450053
 40
5.480221552450053
 40
5.816024212501503
 40
5.816024212501503
 40
6.153261118577676
 40
6.153261118577676
 40
6.493366287016446
 40
6.493366287016446
 40
6.823246433215265
 40
6.823246433215265
 40
7.066649762154001
 40
7.066649762154001
 40
7.066649762154001
 40
7.066649762154001
 10
148.448043905568
 20
233.2568782950944
 30
0.0
 10
148.4838792329978
 20
233.517693548549
 30
0.0
 10
148.4899468544583
 20
233.7921621566615
 30
0.0
 10
148.438379444931
 20
234.4813706648982
 30
0.0
 10
148.3513859673761
 20
234.9049619744553
 30
0.0
 10
148.0797072735502
 20
235.7457635402678
 30
0.0
 10
147.8956860707309
 20
236.162822037621
 30
0.0
 10
147.4504412013187
 20
236.9524178155931
 30
0.0
 10
147.1897061752731
 20
237.3250067974542
 30
0.0
 10
146.6132077018403
 20
237.993192498204
 30
0.0
 10
146.2974040219482
 20
238.2884230456885
 30
0.0
 10
145.6335047207018
 20
238.7710308592947
 30
0.0
 10
145.2851561202452
 20
238.9578689232899
 30
0.0
 10
144.5903249353771
 20
239.186614701033
 30
0.0
 10
144.242366951871
 20
239.2326255083981
 30
0.0
 10
143.6606394656856
 20
239.1643966421758
 30
0.0
 10
143.4216658239848
 20
239.0879153914283
 30
0.0
 10
143.2084330598857
 20
238.9651228091884
 30
0.0
  0
ELLIPSE
  5
1FF
330
6C
100
AcDbEntity
  8
Visible (ISO)
100
AcDbEllipse
 10
172.1473394437741
 20
181.4883245090002
 30
0.0
 11
-2.120886899232995
 21
3.682979603617407
 31
0.0
210
0.0
220
0.0
230
1.0
 40
0.5780931159156394
 41
3.776942666500785
 42
4.080906384319186
  0
LINE
  5
200
330
6C
100
AcDbEntity
  8
Visible (ISO)
100
AcDbLine
 10
177.4502068583468
 20
179.6377256174479
 30
0.0
 11
175.0610122231117
 21
178.2618799308168
 31
0.0
  0
ELLIPSE
  5
201
330
6C
100
AcDbEntity
  8
Visible Narrow (ISO)
100
AcDbEllipse
 10
175.329319959114
 20
183.3207052210655
 30
0.0
 11
2.120886899232556
 21
-3.682979603617666
 31
0.0
210
0.0
220
0.0
230
1.0
 40
0.5780931159156394
 41
0.0
 42
2.428536916487241
  0
SPLINE
  5
202
330
6C
100
AcDbEntity
  8
Visible (ISO)
100
AcDbSpline
210
0.0
220
0.0
230
1.0
 70
     8
 71
     3
 72
    22
 73
    18
 74
     0
 42
0.0000000001
 43
0.0000000001
 40
0.7834644549744152
 40
0.7834644549744152
 40
0.7834644549744152
 40
0.7834644549744152
 40
1.046252243718922
 40
1.046252243718922
 40
1.333179178103496
 40
1.333179178103496
 40
1.660953635122239
 40
1.660953635122239
 40
2.001101554584332
 40
2.001101554584332
 40
2.338628898860261
 40
2.338628898860261
 40
2.67443155891171
 40
2.67443155891171
 40
3.011668464987883
 40
3.011668464987883
 40
3.292013984953324
 40
3.292013984953324
 40
3.292013984953324
 40
3.292013984953324
 10
177.4502068583468
 20
179.6377256174479
 30
0.0
 10
177.6804213209419
 20
179.7702973094693
 30
0.0
 10
177.8787513224557
 20
179.9559489172952
 30
0.0
 10
178.2024399309752
 20
180.4163464174026
 30
0.0
 10
178.3207404137955
 20
180.6963829945519
 30
0.0
 10
178.475233392632
 20
181.3449395227767
 30
0.0
 10
178.4981281401068
 20
181.7213796902052
 30
0.0
 10
178.4383794449265
 20
182.5199326803928
 30
0.0
 10
178.3513859673717
 20
182.9435239899499
 30
0.0
 10
178.0797072735458
 20
183.7843255557623
 30
0.0
 10
177.8956860707264
 20
184.2013840531156
 30
0.0
 10
177.4504412013142
 20
184.9909798310877
 30
0.0
 10
177.1897061752686
 20
185.3635688129488
 30
0.0
 10
176.6132077018358
 20
186.0317545136985
 30
0.0
 10
176.2974040219438
 20
186.3269850611831
 30
0.0
 10
175.6920783577959
 20
186.7670139853673
 30
0.0
 10
175.4071014515425
 20
186.9289924556068
 30
0.0
 10
175.1179021922507
 20
187.0448523149366
 30
0.0
  0
ELLIPSE
  5
203
330
6C
100
AcDbEntity
  8
Visible (ISO)
100
AcDbEllipse
 10
172.1473394437741
 20
216.1739114639437
 30
0.0
 11
-2.120886899232768
 21
3.682979603617522
 31
0.0
210
0.0
220
0.0
230
1.0
 40
0.5780931159156394
 41
5.344275527740441
 42
5.649931314332846
  0
ELLIPSE
  5
204
330
6C
100
AcDbEntity
  8
Visible (ISO)
100
AcDbEllipse
 10
172.1473394437741
 20
216.1739114639437
 30
0.0
 11
-2.12088689923299
 21
3.682979603617399
 31
0.0
210
0.0
220
0.0
230
1.0
 40
0.5780931159156397
 41
3.776942666500765
 42
4.086494379003283
  0
LINE
  5
205
330
6C
100
AcDbEntity
  8
Visible (ISO)
100
AcDbLine
 10
177.4502068583468
 20
214.3233125723914
 30
0.0
 11
175.1179021922507
 21
212.9802276401577
 31
0.0
  0
LINE
  5
206
330
6C
100
AcDbEntity
  8
Visible (ISO)
100
AcDbLine
 10
173.2084330598812
 20
221.6892717796265
 30
0.0
 11
170.8719751087855
 21
220.3437951296282
 31
0.0
  0
ELLIPSE
  5
207
330
6C
100
AcDbEntity
  8
Visible Narrow (ISO)
100
AcDbEllipse
 10
175.329319959114
 20
218.0062921760089
 30
0.0
 11
-2.120886899232774
 21
3.682979603617539
 31
0.0
210
0.0
220
0.0
230
0.9999999999999998
 40
0.5780931159156394
 41
3.141592653589793
 42
6.283185307179586
  0
SPLINE
  5
208
330
6C
100
AcDbEntity
  8
Visible (ISO)
100
AcDbSpline
210
0.0
220
0.0
230
1.0
 70
     8
 71
     3
 72
    26
 73
    22
 74
     0
 42
0.0000000001
 43
0.0000000001
 40
5.495853435359104
 40
5.495853435359104
 40
5.495853435359104
 40
5.495853435359104
 40
5.758641224103612
 40
5.758641224103612
 40
6.045568158488185
 40
6.045568158488185
 40
6.373342615506929
 40
6.373342615506929
 40
6.713490534969023
 40
6.713490534969023
 40
7.051017879244951
 40
7.051017879244951
 40
7.3868205392964
 40
7.3868205392964
 40
7.724057445372573
 40
7.724057445372573
 40
8.064162613811344
 40
8.064162613811344
 40
8.394042760010163
 40
8.394042760010163
 40
8.637446088948898
 40
8.637446088948898
 40
8.637446088948898
 40
8.637446088948898
 10
177.4502068583468
 20
214.3233125723914
 30
0.0
 10
177.6804213209419
 20
214.4558842644128
 30
0.0
 10
177.8787513224557
 20
214.6415358722387
 30
0.0
 10
178.2024399309752
 20
215.1019333723461
 30
0.0
 10
178.3207404137955
 20
215.3819699494954
 30
0.0
 10
178.475233392632
 20
216.0305264777202
 30
0.0
 10
178.4981281401068
 20
216.4069666451487
 30
0.0
 10
178.4383794449265
 20
217.2055196353363
 30
0.0
 10
178.3513859673717
 20
217.6291109448934
 30
0.0
 10
178.0797072735458
 20
218.4699125107058
 30
0.0
 10
177.8956860707264
 20
218.8869710080592
 30
0.0
 10
177.4504412013142
 20
219.6765667860312
 30
0.0
 10
177.1897061752686
 20
220.0491557678923
 30
0.0
 10
176.6132077018358
 20
220.717341468642
 30
0.0
 10
176.2974040219438
 20
221.0125720161266
 30
0.0
 10
175.6335047206974
 20
221.4951798297328
 30
0.0
 10
175.2851561202407
 20
221.682017893728
 30
0.0
 10
174.5903249353726
 20
221.9107636714711
 30
0.0
 10
174.2423669518665
 20
221.9567744788361
 30
0.0
 10
173.6606394656812
 20
221.8885456126139
 30
0.0
 10
173.4216658239804
 20
221.8120643618664
 30
0.0
 10
173.2084330598812
 20
221.6892717796265
 30
0.0
  0
ELLIPSE
  5
209
330
6C
100
AcDbEntity
  8
Visible (ISO)
100
AcDbEllipse
 10
188.9619894887809
 20
200.5067319541164
 30
0.0
 11
0.8733063702723191
 21
-1.516521013254279
 31
0.0
210
0.0
220
0.0
230
1.0
 40
0.5780931159156393
 41
4.859736262823311
 42
7.660879499427108
  0
ELLIPSE
  5
20A
330
6C
100
AcDbEntity
  8
Visible (ISO)
100
AcDbEllipse
 10
167.0519894887841
 20
238.4559021621336
 30
0.0
 11
-0.8733063702723191
 21
1.516521013254279
 31
0.0
210
0.0
220
0.0
230
1.0
 40
0.5780931159156393
 41
4.938243287965974
 42
7.673375569681713
  0
LINE
  5
20B
330
6C
100
AcDbEntity
  8
Visible (ISO)
100
AcDbLine
 10
188.4721698503395
 20
199.8371273184153
 30
0.0
 11
196.3917657996301
 21
204.3977193128888
 31
0.0
  0
LINE
  5
20C
330
6C
100
AcDbEntity
  8
Visible (ISO)
100
AcDbLine
 10
188.0479057816276
 20
199.7478584728496
 30
0.0
 11
188.4721698503395
 21
199.8371273184153
 31
0.0
  0
LINE
  5
20D
330
6C
100
AcDbEntity
  8
Visible (ISO)
100
AcDbLine
 10
186.8355339884464
 20
199.9358298419977
 30
0.0
 11
188.0479057816276
 21
199.7478584728496
 31
0.0
  0
LINE
  5
20E
330
6C
100
AcDbEntity
  8
Visible (ISO)
100
AcDbLine
 10
192.94435873507
 20
189.6232329498036
 30
0.0
 11
184.1900764388472
 21
194.6644888438136
 31
0.0
  0
ELLIPSE
  5
20F
330
6C
100
AcDbEntity
  8
Visible (ISO)
100
AcDbEllipse
 10
178.0069894887826
 20
219.4813170581249
 30
0.0
 11
16.71757908807004
 21
-29.03054511086751
 31
0.0
210
0.0
220
0.0
230
0.9999999999999998
 40
0.5780931159156393
 41
6.182028839112133
 42
6.388209192093103
  0
LINE
  5
210
330
6C
100
AcDbEntity
  8
Visible (ISO)
100
AcDbLine
 10
196.3917657996301
 20
204.3977193128888
 30
0.0
 11
196.3917657996301
 21
191.6238478371801
 31
0.0
  0
LINE
  5
211
330
6C
100
AcDbEntity
  8
Visible (ISO)
100
AcDbLine
 10
163.0696202424951
 20
249.3394011664464
 30
0.0
 11
174.1179021922571
 21
242.9771187298892
 31
0.0
  0
ELLIPSE
  5
212
330
6C
100
AcDbEntity
  8
Visible (ISO)
100
AcDbEllipse
 10
178.0069894887829
 20
219.4813170581244
 30
0.0
 11
-16.71757908807046
 21
29.03054511086823
 31
0.0
210
0.0
220
0.0
230
1.0
 40
0.5780931159156397
 41
6.182028839112135
 42
6.388209192093099
  0
LINE
  5
213
330
6C
100
AcDbEntity
  8
Visible (ISO)
100
AcDbLine
 10
159.622213177935
 20
237.2802024621956
 30
0.0
 11
159.6222131779351
 21
247.3387862790699
 31
0.0
  0
LINE
  5
214
330
6C
100
AcDbEntity
  8
Visible (ISO)
100
AcDbLine
 10
165.9089644623707
 20
238.0935660196276
 30
0.0
 11
165.4681042538186
 21
236.9470059461074
 31
0.0
  0
LINE
  5
215
330
6C
100
AcDbEntity
  8
Visible (ISO)
100
AcDbLine
 10
166.1983062429666
 20
238.4165267354157
 30
0.0
 11
165.9089644623707
 21
238.0935660196276
 31
0.0
  0
LINE
  5
216
330
6C
100
AcDbEntity
  8
Visible (ISO)
100
AcDbLine
 10
174.1179021922571
 20
242.9771187298892
 30
0.0
 11
166.1983062429666
 21
238.4165267354157
 31
0.0
  0
LINE
  5
217
330
6C
100
AcDbEntity
  8
Visible (ISO)
100
AcDbLine
 10
165.6859153328857
 20
250.8460253074777
 30
0.0
 11
163.0696202424951
 21
249.3394011664464
 31
0.0
  0
LINE
  5
218
330
6C
100
AcDbEntity
  8
Visible (ISO)
100
AcDbLine
 10
195.5606538254606
 20
233.6423075826471
 30
0.0
 11
185.0247627857795
 21
227.5750914471422
 31
0.0
  0
LINE
  5
219
330
6C
100
AcDbEntity
  8
Visible (ISO)
100
AcDbLine
 10
199.0080608900206
 20
193.1304719782115
 30
0.0
 11
196.3917657996301
 21
191.6238478371801
 31
0.0
  0
LINE
  5
21A
330
6C
100
AcDbEntity
  8
Visible (ISO)
100
AcDbLine
 10
199.0080608900207
 20
227.6712333028968
 30
0.0
 11
188.4721698503395
 21
221.6040171673919
 31
0.0
  0
LINE
  5
21B
330
6C
100
AcDbEntity
  8
Visible (ISO)
100
AcDbLine
 10
163.9057054911031
 20
250.0184863100241
 30
0.0
 11
161.2894104007124
 21
248.5118621689927
 31
0.0
  0
LINE
  5
21C
330
6C
100
AcDbEntity
  8
Visible (ISO)
100
AcDbLine
 10
197.3408636672433
 20
191.9573960882888
 30
0.0
 11
194.7245685768527
 21
190.4507719472573
 31
0.0
  0
ELLIPSE
  5
21D
330
6C
100
AcDbEntity
  8
Visible (ISO)
100
AcDbEllipse
 10
180.6232845791739
 20
220.9879411991551
 30
0.0
 11
-16.71757908807084
 21
29.03054511086894
 31
0.0
210
0.0
220
0.0
230
1.0
 40
0.5780931159156396
 41
6.182028839112145
 42
6.283185307179591
  0
LINE
  5
21E
330
6C
100
AcDbEntity
  8
Visible (ISO)
100
AcDbLine
 10
185.0247627857795
 20
227.5750914471422
 30
0.0
 11
166.1983062429666
 21
238.4165267354157
 31
0.0
  0
LINE
  5
21F
330
6C
100
AcDbEntity
  8
Visible (ISO)
100
AcDbLine
 10
165.6859153328857
 20
250.8460253074777
 30
0.0
 11
195.5606538254606
 21
233.6423075826471
 31
0.0
  0
LINE
  5
220
330
6C
100
AcDbEntity
  8
Visible (ISO)
100
AcDbLine
 10
165.9089644623707
 20
238.0935660196276
 30
0.0
 11
184.7371254528357
 21
227.25114920523
 31
0.0
  0
SPLINE
  5
221
330
6C
100
AcDbEntity
  8
Visible (ISO)
100
AcDbSpline
210
0.0
220
0.0
230
1.0
 70
     8
 71
     3
 72
     8
 73
     4
 74
     0
 42
0.0000000001
 43
0.0000000001
 40
-0.0437492227970593
 40
-0.0437492227970593
 40
-0.0437492227970593
 40
-0.0437492227970593
 40
0.0
 40
0.0
 40
0.0
 40
0.0
 10
184.7371254528357
 20
227.25114920523
 30
0.0
 10
184.8330533005366
 20
227.3590760375717
 30
0.0
 10
184.9289335379023
 20
227.467058570723
 30
0.0
 10
185.0247627857795
 20
227.5750914471422
 30
0.0
  0
LINE
  5
222
330
6C
100
AcDbEntity
  8
Visible (ISO)
100
AcDbLine
 10
188.0479057816276
 20
221.5167189807344
 30
0.0
 11
188.0479057816276
 21
199.7478584728496
 31
0.0
  0
ELLIPSE
  5
223
330
6C
100
AcDbEntity
  8
Visible (ISO)
100
AcDbEllipse
 10
169.8752615051362
 20
214.798566349514
 30
0.0
 11
16.56786942459464
 21
-28.77057008002366
 31
0.0
210
0.0
220
0.0
230
0.9999999999999998
 40
0.5780931159156394
 41
1.47284171009166
 42
1.672618360344197
  0
LINE
  5
224
330
6C
100
AcDbEntity
  8
Visible (ISO)
100
AcDbLine
 10
199.0080608900207
 20
227.6712333028968
 30
0.0
 11
199.0080608900206
 21
193.1304719782115
 31
0.0
  0
LINE
  5
225
330
6C
100
AcDbEntity
  8
Visible (ISO)
100
AcDbLine
 10
188.4721698503395
 20
199.8371273184153
 30
0.0
 11
188.4721698503395
 21
221.6040171673919
 31
0.0
  0
ELLIPSE
  5
226
330
6C
100
AcDbEntity
  8
Visible (ISO)
100
AcDbEllipse
 10
180.6232845791737
 20
220.9879411991557
 30
0.0
 11
16.71757908806966
 21
-29.03054511086687
 31
0.0
210
0.0
220
0.0
230
1.0
 40
0.5780931159156393
 41
0.0
 42
0.1050238849135177
  0
ELLIPSE
  5
227
330
6C
100
AcDbEntity
  8
Visible (ISO)
100
AcDbEllipse
 10
180.8354166135294
 20
221.1100999132943
 30
0.0
 11
-16.56786942459462
 21
28.77057008002363
 31
0.0
210
0.0
220
0.0
230
1.0
 40
0.5780931159156394
 41
4.614434363681453
 42
4.81421101393399
  0
SPLINE
  5
228
330
6C
100
AcDbEntity
  8
Visible (ISO)
100
AcDbSpline
210
0.0
220
0.0
230
1.0
 70
     8
 71
     3
 72
     8
 73
     4
 74
     0
 42
0.0000000001
 43
0.0000000001
 40
-0.0437492227974344
 40
-0.0437492227974344
 40
-0.0437492227974344
 40
-0.0437492227974344
 40
0.0
 40
0.0
 40
0.0
 40
0.0
 10
188.0479057816276
 20
221.5167189807344
 30
0.0
 10
188.1893047372021
 20
221.5458876746796
 30
0.0
 10
188.3307282031304
 20
221.5749871529441
 30
0.0
 10
188.4721698503396
 20
221.6040171673919
 30
0.0
  0
ELLIPSE
  5
229
330
6C
100
AcDbEntity
  8
Visible (ISO)
100
AcDbEllipse
 10
170.087393539492
 20
214.9207250636516
 30
0.0
 11
-16.71757908807012
 21
29.03054511086766
 31
0.0
210
0.0
220
0.0
230
1.0
 40
0.5780931159156393
 41
4.611232512317238
 42
4.817412865298205
  0
SPLINE
  5
22A
330
6C
100
AcDbEntity
  8
Visible (ISO)
100
AcDbSpline
210
0.0
220
0.0
230
1.0
 70
    24
 71
     3
 72
     8
 73
     4
 74
     0
 42
0.0000000001
 43
0.0000000001
 40
-0.0437492227974404
 40
-0.0437492227974404
 40
-0.0437492227974404
 40
-0.0437492227974404
 40
0.0
 40
0.0
 40
0.0
 40
0.0
 10
199.0080608900207
 20
227.8282525445147
 30
0.0
 10
199.0080608900207
 20
227.7759949953852
 30
0.0
 10
199.0080608900207
 20
227.7236541160009
 30
0.0
 10
199.0080608900207
 20
227.6712333028968
 30
0.0
  0
SPLINE
  5
22B
330
6C
100
AcDbEntity
  8
Visible (ISO)
100
AcDbSpline
210
0.0
220
0.0
230
1.0
 70
     8
 71
     3
 72
     8
 73
     4
 74
     0
 42
0.0000000001
 43
0.0000000001
 40
-0.0437492227972456
 40
-0.0437492227972456
 40
-0.0437492227972456
 40
-0.0437492227972456
 40
0.0
 40
0.0
 40
0.0
 40
0.0
 10
195.6972805612288
 20
233.5626827690102
 30
0.0
 10
195.6518094533547
 20
233.5891833582769
 30
0.0
 10
195.6062662247916
 20
233.615725533779
 30
0.0
 10
195.5606538254606
 20
233.6423075826471
 30
0.0
  0
ELLIPSE
  5
22C
330
6C
100
AcDbEntity
  8
Visible (ISO)
100
AcDbEllipse
 10
180.6232845791732
 20
220.9879411991564
 30
0.0
 11
16.71757908807012
 21
-29.03054511086765
 31
0.0
210
0.0
220
0.0
230
1.0
 40
0.5780931159156394
 41
1.469639858727445
 42
1.675820211708412
  0
ELLIPSE
  5
22D
330
6C
100
AcDbEntity
  8
Visible (ISO)
100
AcDbEllipse
 10
180.1283098323407
 20
235.8543494357807
 30
0.0
 11
-3.863999999999998
 21
0.0000000000002309
 31
0.0
210
0.0
220
0.0
230
1.0
 40
0.5758617009853117
 41
0.0
 42
6.283185307179586
  0
ELLIPSE
  5
22E
330
6C
100
AcDbEntity
  8
Visible (ISO)
100
AcDbEllipse
 10
180.1283098323407
 20
235.0372012117304
 30
0.0
 11
-4.832765247622277
 21
0.0000000000000019
 31
0.0
210
0.0
220
0.0
230
1.0
 40
0.5758617009853115
 41
5.531721013547659
 42
10.1762422544013
  0
LINE
  5
22F
330
6C
100
AcDbEntity
  8
Visible (ISO)
100
AcDbLine
 10
182.9516958590621
 20
237.3734664191246
 30
0.0
 11
183.6595629044321
 21
236.9371845875526
 31
0.0
  0
LINE
  5
230
330
6C
100
AcDbEntity
  8
Visible (ISO)
100
AcDbLine
 10
177.3049238056194
 20
237.3734664191246
 30
0.0
 11
176.5970567602493
 21
236.9371845875526
 31
0.0
  0
LINE
  5
231
330
6C
100
AcDbEntity
  8
Visible (ISO)
100
AcDbLine
 10
177.3399221532146
 20
235.4240965387273
 30
0.0
 11
178.0870683800217
 21
237.0298222106352
 31
0.0
  0
LINE
  5
232
330
6C
100
AcDbEntity
  8
Visible (ISO)
100
AcDbLine
 10
178.0870683800217
 20
237.0298222106352
 30
0.0
 11
180.8754560591479
 21
237.4600751076886
 31
0.0
  0
LINE
  5
233
330
6C
100
AcDbEntity
  8
Visible (ISO)
100
AcDbLine
 10
180.8754560591479
 20
237.4600751076886
 30
0.0
 11
182.9166975114669
 21
236.2846023328342
 31
0.0
  0
LINE
  5
234
330
6C
100
AcDbEntity
  8
Visible (ISO)
100
AcDbLine
 10
182.9166975114669
 20
236.2846023328342
 30
0.0
 11
182.1695512846597
 21
234.6788766609262
 31
0.0
  0
LINE
  5
235
330
6C
100
AcDbEntity
  8
Visible (ISO)
100
AcDbLine
 10
182.1695512846597
 20
234.6788766609262
 30
0.0
 11
179.3811636055336
 21
234.2486237638728
 31
0.0
  0
LINE
  5
236
330
6C
100
AcDbEntity
  8
Visible (ISO)
100
AcDbLine
 10
179.3811636055336
 20
234.2486237638728
 30
0.0
 11
177.3399221532146
 21
235.4240965387273
 31
0.0
  0
LINE
  5
237
330
6C
100
AcDbEntity
  8
Visible (ISO)
100
AcDbLine
 10
178.0870683800217
 20
234.9938436416733
 30
0.0
 11
178.0870683800217
 21
237.0298222106352
 31
0.0
  0
SPLINE
  5
238
330
6C
100
AcDbEntity
  8
Visible (ISO)
100
AcDbSpline
210
0.0
220
0.0
230
1.0
 70
    12
 71
     2
 72
     6
 73
     3
 74
     0
 42
0.0000000001
 43
0.0000000001
 40
0.0
 40
0.0
 40
0.0
 40
0.0581035144460573
 40
0.0581035144460573
 40
0.0581035144460573
 10
180.8754560591479
 20
234.5986601707398
 30
0.0
 41
1.0
 10
180.564794497439
 20
234.4748203516482
 30
0.0
 41
1.0307715404329
 10
180.2813703022957
 20
234.3875271674879
 30
0.0
 41
1.04930152423602
  0
LINE
  5
239
330
6C
100
AcDbEntity
  8
Visible (ISO)
100
AcDbLine
 10
180.8754560591479
 20
234.5986601707398
 30
0.0
 11
180.8754560591479
 21
237.4600751076886
 31
0.0
  0
SPLINE
  5
23A
330
6C
100
AcDbEntity
  8
Visible (ISO)
100
AcDbSpline
210
0.0
220
0.0
230
1.0
 70
    12
 71
     2
 72
     6
 73
     3
 74
     0
 42
0.0000000001
 43
0.0000000001
 40
0.277703140680448
 40
0.277703140680448
 40
0.277703140680448
 40
0.2921090345194801
 40
0.2921090345194801
 40
0.2921090345194801
 10
180.9892778149789
 20
234.4967584843732
 30
0.0
 41
1.014506172702378
 10
180.9331364463639
 20
234.5461927109818
 30
0.0
 41
1.007629341339608
 10
180.8754560591479
 20
234.5986601707398
 30
0.0
 41
1.0
  0
LINE
  5
23B
330
6C
100
AcDbEntity
  8
Visible (ISO)
100
AcDbLine
 10
175.296730753875
 20
234.9755435868323
 30
0.0
 11
175.296715509947
 21
234.9759422943495
 31
0.0
  0
LINE
  5
23C
330
6C
100
AcDbEntity
  8
Visible (ISO)
100
AcDbLine
 10
184.9598889108065
 20
234.9755435868323
 30
0.0
 11
184.9599041547344
 21
234.9759422943494
 31
0.0
  0
CIRCLE
  5
23D
330
6C
100
AcDbEntity
  8
Visible Narrow (ISO)
100
AcDbCircle
 10
139.9999999999894
 20
98.50406215630961
 30
0.0
 40
13.79289321881345
  0
CIRCLE
  5
23E
330
6C
100
AcDbEntity
  8
Visible Narrow (ISO)
100
AcDbCircle
 10
139.9999999999894
 20
98.50406215630961
 30
0.0
 40
14.14644660940673
  0
CIRCLE
  5
23F
330
6C
100
AcDbEntity
  8
Visible Narrow (ISO)
100
AcDbCircle
 10
139.9999999999896
 20
98.50406215630961
 30
0.0
 40
14.85355339059327
  0
CIRCLE
  5
240
330
6C
100
AcDbEntity
  8
Visible Narrow (ISO)
100
AcDbCircle
 10
139.9999999999897
 20
98.50406215630961
 30
0.0
 40
15.20710678118654
  0
CIRCLE
  5
241
330
6C
100
AcDbEntity
  8
Visible (ISO)
100
AcDbCircle
 10
139.9999999999894
 20
98.50406215630961
 30
0.0
 40
12.57735026918963
  0
CIRCLE
  5
242
330
6C
100
AcDbEntity
  8
Visible (ISO)
100
AcDbCircle
 10
139.9999999999897
 20
98.50406215630961
 30
0.0
 40
12.0
  0
CIRCLE
  5
243
330
6C
100
AcDbEntity
  8
Visible Narrow (ISO)
100
AcDbCircle
 10
139.9999999999897
 20
98.50406215630961
 30
0.0
 40
20.5
  0
CIRCLE
  5
244
330
6C
100
AcDbEntity
  8
Visible (ISO)
100
AcDbCircle
 10
139.9999999999903
 20
98.50406215630961
 30
0.0
 40
22.5
  0
CIRCLE
  5
245
330
6C
100
AcDbEntity
  8
Visible (ISO)
100
AcDbCircle
 10
118.7867965643959
 20
119.717265591906
 30
0.0
 40
2.067
  0
CIRCLE
  5
246
330
6C
100
AcDbEntity
  8
Visible (ISO)
100
AcDbCircle
 10
118.7867965643959
 20
77.29085872071319
 30
0.0
 40
2.067
  0
CIRCLE
  5
247
330
6C
100
AcDbEntity
  8
Visible (ISO)
100
AcDbCircle
 10
161.2132034355887
 20
77.29085872071317
 30
0.0
 40
2.067
  0
CIRCLE
  5
248
330
6C
100
AcDbEntity
  8
Visible Narrow (ISO)
100
AcDbCircle
 10
118.7867965643959
 20
119.717265591906
 30
0.0
 40
2.5
  0
CIRCLE
  5
249
330
6C
100
AcDbEntity
  8
Visible Narrow (ISO)
100
AcDbCircle
 10
118.7867965643959
 20
77.29085872071319
 30
0.0
 40
2.5
  0
CIRCLE
  5
24A
330
6C
100
AcDbEntity
  8
Visible Narrow (ISO)
100
AcDbCircle
 10
161.2132034355887
 20
77.29085872071317
 30
0.0
 40
2.5
  0
CIRCLE
  5
24B
330
6C
100
AcDbEntity
  8
Visible (ISO)
100
AcDbCircle
 10
161.2132034355887
 20
119.717265591906
 30
0.0
 40
2.067
  0
CIRCLE
  5
24C
330
6C
100
AcDbEntity
  8
Visible Narrow (ISO)
100
AcDbCircle
 10
139.9999999999915
 20
98.50406215630961
 30
0.0
 40
24.5
  0
CIRCLE
  5
24D
330
6C
100
AcDbEntity
  8
Visible (ISO)
100
AcDbCircle
 10
139.9999999999915
 20
98.50406215630961
 30
0.0
 40
24.70000000000001
  0
CIRCLE
  5
24E
330
6C
100
AcDbEntity
  8
Visible (ISO)
100
AcDbCircle
 10
139.9999999999915
 20
98.50406215630961
 30
0.0
 40
25.0
  0
CIRCLE
  5
24F
330
6C
100
AcDbEntity
  8
Visible Narrow (ISO)
100
AcDbCircle
 10
139.9999999999923
 20
98.50406215630961
 30
0.0
 40
25.4
  0
LINE
  5
250
330
6C
100
AcDbEntity
  8
Visible (ISO)
100
AcDbLine
 10
117.9999999999923
 20
124.2040621563096
 30
0.0
 11
161.9999999999923
 21
124.2040621563096
 31
0.0
  0
ARC
  5
251
330
6C
100
AcDbEntity
  8
Visible (ISO)
100
AcDbCircle
 10
117.9999999999923
 20
120.5040621563096
 30
0.0
 40
3.7
100
AcDbArc
 50
90.0
 51
180.0
  0
LINE
  5
252
330
6C
100
AcDbEntity
  8
Visible (ISO)
100
AcDbLine
 10
114.2999999999923
 20
76.50406215630962
 30
0.0
 11
114.2999999999923
 21
120.5040621563096
 31
0.0
  0
ARC
  5
253
330
6C
100
AcDbEntity
  8
Visible (ISO)
100
AcDbCircle
 10
117.9999999999923
 20
76.50406215630962
 30
0.0
 40
3.7
100
AcDbArc
 50
180.0
 51
270.0
  0
LINE
  5
254
330
6C
100
AcDbEntity
  8
Visible (ISO)
100
AcDbLine
 10
161.9999999999923
 20
72.80406215630961
 30
0.0
 11
117.9999999999923
 21
72.80406215630961
 31
0.0
  0
ARC
  5
255
330
6C
100
AcDbEntity
  8
Visible (ISO)
100
AcDbCircle
 10
161.9999999999923
 20
76.50406215630962
 30
0.0
 40
3.7
100
AcDbArc
 50
270.0
 51
0.0
  0
LINE
  5
256
330
6C
100
AcDbEntity
  8
Visible (ISO)
100
AcDbLine
 10
165.6999999999923
 20
120.5040621563096
 30
0.0
 11
165.6999999999923
 21
76.50406215630962
 31
0.0
  0
ARC
  5
257
330
6C
100
AcDbEntity
  8
Visible (ISO)
100
AcDbCircle
 10
161.9999999999923
 20
120.5040621563096
 30
0.0
 40
3.7
100
AcDbArc
 50
0.0
 51
90.0
  0
LINE
  5
258
330
6C
100
AcDbEntity
  8
Visible Narrow (ISO)
100
AcDbLine
 10
117.9999999999924
 20
124.5040621563096
 30
0.0
 11
117.9999999999923
 21
124.2040621563096
 31
0.0
  0
LINE
  5
259
330
6C
100
AcDbEntity
  8
Visible Narrow (ISO)
100
AcDbLine
 10
161.9999999999923
 20
124.2040621563096
 30
0.0
 11
161.9999999999924
 21
124.5040621563096
 31
0.0
  0
LINE
  5
25A
330
6C
100
AcDbEntity
  8
Visible (ISO)
100
AcDbLine
 10
161.9999999999924
 20
124.5040621563096
 30
0.0
 11
117.9999999999924
 21
124.5040621563096
 31
0.0
  0
LINE
  5
25B
330
6C
100
AcDbEntity
  8
Visible Narrow (ISO)
100
AcDbLine
 10
165.6999999999923
 20
120.5040621563096
 30
0.0
 11
165.9999999999924
 21
120.5040621563096
 31
0.0
  0
ARC
  5
25C
330
6C
100
AcDbEntity
  8
Visible (ISO)
100
AcDbCircle
 10
161.9999999999924
 20
120.5040621563096
 30
0.0
 40
4.000000000000003
100
AcDbArc
 50
0.0
 51
90.0
  0
LINE
  5
25D
330
6C
100
AcDbEntity
  8
Visible Narrow (ISO)
100
AcDbLine
 10
165.6999999999923
 20
76.50406215630962
 30
0.0
 11
165.9999999999924
 21
76.50406215630962
 31
0.0
  0
LINE
  5
25E
330
6C
100
AcDbEntity
  8
Visible (ISO)
100
AcDbLine
 10
165.9999999999924
 20
76.50406215630962
 30
0.0
 11
165.9999999999924
 21
120.5040621563096
 31
0.0
  0
LINE
  5
25F
330
6C
100
AcDbEntity
  8
Visible Narrow (ISO)
100
AcDbLine
 10
161.9999999999923
 20
72.80406215630961
 30
0.0
 11
161.9999999999924
 21
72.50406215630961
 31
0.0
  0
ARC
  5
260
330
6C
100
AcDbEntity
  8
Visible (ISO)
100
AcDbCircle
 10
161.9999999999924
 20
76.50406215630963
 30
0.0
 40
4.000000000000003
100
AcDbArc
 50
270.0
 51
0.0
  0
LINE
  5
261
330
6C
100
AcDbEntity
  8
Visible Narrow (ISO)
100
AcDbLine
 10
117.9999999999923
 20
72.80406215630961
 30
0.0
 11
117.9999999999924
 21
72.50406215630961
 31
0.0
  0
LINE
  5
262
330
6C
100
AcDbEntity
  8
Visible (ISO)
100
AcDbLine
 10
117.9999999999924
 20
72.50406215630961
 30
0.0
 11
161.9999999999924
 21
72.50406215630961
 31
0.0
  0
LINE
  5
263
330
6C
100
AcDbEntity
  8
Visible Narrow (ISO)
100
AcDbLine
 10
114.2999999999923
 20
76.50406215630962
 30
0.0
 11
113.9999999999924
 21
76.50406215630962
 31
0.0
  0
ARC
  5
264
330
6C
100
AcDbEntity
  8
Visible (ISO)
100
AcDbCircle
 10
117.9999999999924
 20
76.50406215630963
 30
0.0
 40
4.000000000000003
100
AcDbArc
 50
180.0
 51
269.9999999999998
  0
LINE
  5
265
330
6C
100
AcDbEntity
  8
Visible Narrow (ISO)
100
AcDbLine
 10
114.2999999999923
 20
120.5040621563096
 30
0.0
 11
113.9999999999924
 21
120.5040621563096
 31
0.0
  0
LINE
  5
266
330
6C
100
AcDbEntity
  8
Visible (ISO)
100
AcDbLine
 10
113.9999999999924
 20
120.5040621563096
 30
0.0
 11
113.9999999999924
 21
76.50406215630962
 31
0.0
  0
ARC
  5
267
330
6C
100
AcDbEntity
  8
Visible (ISO)
100
AcDbCircle
 10
117.9999999999924
 20
120.5040621563096
 30
0.0
 40
4.000000000000003
100
AcDbArc
 50
90.0
 51
180.0
  0
CIRCLE
  5
268
330
6C
100
AcDbEntity
  8
Visible Narrow (ISO)
100
AcDbCircle
 10
161.2132034355887
 20
119.717265591906
 30
0.0
 40
2.5
  0
CIRCLE
  5
269
330
6C
100
AcDbEntity
  8
Visible (ISO)
100
AcDbCircle
 10
139.9999999999894
 20
98.50406215630961
 30
0.0
 40
7.577350269189627
  0
CIRCLE
  5
26A
330
6C
100
AcDbEntity
  8
Visible (ISO)
100
AcDbCircle
 10
139.9999999999894
 20
98.50406215630961
 30
0.0
 40
11.42264973081037
  0
CIRCLE
  5
26B
330
6C
100
AcDbEntity
  8
Visible (ISO)
100
AcDbCircle
 10
139.9999999999897
 20
98.50406215630961
 30
0.0
 40
12.0
  0
CIRCLE
  5
26C
330
6C
100
AcDbEntity
  8
Visible (ISO)
100
AcDbCircle
 10
139.9999999999828
 20
98.50406215630961
 30
0.0
 40
3.249999999999999
  0
CIRCLE
  5
26D
330
6C
100
AcDbEntity
  8
Visible (ISO)
100
AcDbCircle
 10
139.9999999999834
 20
98.50406215630961
 30
0.0
 40
2.067
  0
CIRCLE
  5
26E
330
6C
100
AcDbEntity
  8
Visible Narrow (ISO)
100
AcDbCircle
 10
139.9999999999888
 20
98.50406215630961
 30
0.0
 40
6.400000000000001
  0
CIRCLE
  5
26F
330
6C
100
AcDbEntity
  8
Visible (ISO)
100
AcDbCircle
 10
139.9999999999888
 20
98.50406215630961
 30
0.0
 40
6.636029765733799
  0
CIRCLE
  5
270
330
6C
100
AcDbEntity
  8
Visible (ISO)
100
AcDbCircle
 10
139.9999999999891
 20
98.50406215630961
 30
0.0
 40
7.000000000000001
  0
CIRCLE
  5
271
330
6C
100
AcDbEntity
  8
Visible (ISO)
100
AcDbCircle
 10
139.999999999983
 20
98.50406215630961
 30
0.0
 40
6.0
  0
CIRCLE
  5
272
330
6C
100
AcDbEntity
  8
Visible Narrow (ISO)
100
AcDbCircle
 10
139.9999999999828
 20
98.50406215630961
 30
0.0
 40
5.5
  0
CIRCLE
  5
273
330
6C
100
AcDbEntity
  8
Visible Narrow (ISO)
100
AcDbCircle
 10
139.9999999999832
 20
98.50406215630961
 30
0.0
 40
2.5
  0
LINE
  5
274
330
6C
100
AcDbEntity
  8
Visible (ISO)
100
AcDbLine
 10
144.6360000000143
 20
125.5040621563096
 30
0.0
 11
152.3640000000143
 21
125.5040621563096
 31
0.0
  0
LINE
  5
275
330
6C
100
AcDbEntity
  8
Visible (ISO)
100
AcDbLine
 10
153.3327652476366
 20
124.5045500802225
 30
0.0
 11
143.667234752392
 21
124.5045500802225
 31
0.0
  0
LINE
  5
276
330
6C
100
AcDbEntity
  8
Visible (ISO)
100
AcDbLine
 10
152.3640000000143
 20
125.5040621563096
 30
0.0
 11
153.3327652476366
 21
124.5045500802225
 31
0.0
  0
LINE
  5
277
330
6C
100
AcDbEntity
  8
Visible (ISO)
100
AcDbLine
 10
144.6360000000143
 20
125.5040621563096
 30
0.0
 11
143.667234752392
 21
124.5045500802225
 31
0.0
  0
LINE
  5
278
330
6C
100
AcDbEntity
  8
Visible (ISO)
100
AcDbLine
 10
143.6672500000143
 20
124.5040621563096
 30
0.0
 11
143.667234752392
 21
124.5045500802225
 31
0.0
  0
LINE
  5
279
330
6C
100
AcDbEntity
  8
Visible (ISO)
100
AcDbLine
 10
153.3327500000143
 20
124.5040621563096
 30
0.0
 11
153.3327652476366
 21
124.5045500802225
 31
0.0
  0
LINE
  5
27A
330
6C
100
AcDbEntity
  8
Visible Narrow (ISO)
100
AcDbLine
 10
152.7514663778348
 20
124.5040621563096
 30
0.0
 11
152.7514816254571
 21
124.5045500802225
 31
0.0
  0
LINE
  5
27B
330
6C
100
AcDbEntity
  8
Visible Narrow (ISO)
100
AcDbLine
 10
144.2485183745715
 20
124.5045500802225
 30
0.0
 11
144.2485336221938
 21
124.5040621563096
 31
0.0
  0
LINE
  5
27C
330
6C
100
AcDbEntity
  8
Visible (ISO)
100
AcDbLine
 10
244.25
 20
184.2071067811864
 30
0.0
 11
244.25
 21
211.7928932188133
 31
0.0
  0
LINE
  5
27D
330
6C
100
AcDbEntity
  8
Visible Narrow (ISO)
100
AcDbLine
 10
244.3964466094067
 20
212.1464466094066
 30
0.0
 11
244.3964466094067
 21
183.8535533905931
 31
0.0
  0
ARC
  5
27E
330
6C
100
AcDbEntity
  8
Visible (ISO)
100
AcDbCircle
 10
244.75
 20
184.2071067811864
 30
0.0
 40
0.5000000000000001
100
AcDbArc
 50
180.0
 51
225.0
  0
ARC
  5
27F
330
6C
100
AcDbEntity
  8
Visible (ISO)
100
AcDbCircle
 10
244.75
 20
211.7928932188133
 30
0.0
 40
0.5
100
AcDbArc
 50
135.0
 51
180.0
  0
LINE
  5
280
330
6C
100
AcDbEntity
  8
Visible Narrow (ISO)
100
AcDbLine
 10
245.1035533905933
 20
183.1464466094065
 30
0.0
 11
245.1035533905933
 21
212.8535533905932
 31
0.0
  0
ARC
  5
281
330
6C
100
AcDbEntity
  8
Visible (ISO)
100
AcDbCircle
 10
244.75
 20
182.7928932188133
 30
0.0
 40
0.5000000000000001
100
AcDbArc
 50
0.0
 51
45.0
  0
ARC
  5
282
330
6C
100
AcDbEntity
  8
Visible (ISO)
100
AcDbCircle
 10
244.75
 20
213.2071067811864
 30
0.0
 40
0.5
100
AcDbArc
 50
315.0
 51
0.0
  0
LINE
  5
283
330
6C
100
AcDbEntity
  8
Visible (ISO)
100
AcDbLine
 10
245.25
 20
177.4999999999998
 30
0.0
 11
245.25
 21
218.4999999999999
 31
0.0
  0
LINE
  5
284
330
6C
100
AcDbEntity
  8
Visible Narrow (ISO)
100
AcDbLine
 10
247.25
 20
220.4999999999999
 30
0.0
 11
247.25
 21
175.4999999999998
 31
0.0
  0
ARC
  5
285
330
6C
100
AcDbEntity
  8
Visible (ISO)
100
AcDbCircle
 10
247.25
 20
177.4999999999998
 30
0.0
 40
2.0
100
AcDbArc
 50
180.0
 51
270.0
  0
ARC
  5
286
330
6C
100
AcDbEntity
  8
Visible (ISO)
100
AcDbCircle
 10
247.25
 20
218.4999999999999
 30
0.0
 40
2.0
100
AcDbArc
 50
90.0
 51
180.0
  0
LINE
  5
287
330
6C
100
AcDbEntity
  8
Visible Narrow (ISO)
100
AcDbLine
 10
249.25
 20
175.4999999999998
 30
0.0
 11
249.25
 21
220.4999999999999
 31
0.0
  0
ARC
  5
288
330
6C
100
AcDbEntity
  8
Visible (ISO)
100
AcDbCircle
 10
249.25
 20
173.4999999999999
 30
0.0
 40
2.0
100
AcDbArc
 50
0.0
 51
90.0
  0
ARC
  5
289
330
6C
100
AcDbEntity
  8
Visible (ISO)
100
AcDbCircle
 10
249.25
 20
222.4999999999999
 30
0.0
 40
2.0
100
AcDbArc
 50
270.0
 51
0.0
  0
LINE
  5
28A
330
6C
100
AcDbEntity
  8
Visible (ISO)
100
AcDbLine
 10
251.25
 20
173.2999999999998
 30
0.0
 11
251.25
 21
222.6999999999998
 31
0.0
  0
LINE
  5
28B
330
6C
100
AcDbEntity
  8
Visible (ISO)
100
AcDbLine
 10
251.55
 20
222.9999999999999
 30
0.0
 11
251.55
 21
172.9999999999998
 31
0.0
  0
LINE
  5
28C
330
6C
100
AcDbEntity
  8
Visible (ISO)
100
AcDbLine
 10
251.25
 20
222.6999999999999
 30
0.0
 11
251.55
 21
222.9999999999999
 31
0.0
  0
LINE
  5
28D
330
6C
100
AcDbEntity
  8
Visible (ISO)
100
AcDbLine
 10
251.25
 20
173.2999999999998
 30
0.0
 11
251.55
 21
172.9999999999998
 31
0.0
  0
LINE
  5
28E
330
6C
100
AcDbEntity
  8
Visible Narrow (ISO)
100
AcDbLine
 10
253.8499999999999
 20
172.9999999999998
 30
0.0
 11
253.8499999999999
 21
222.9999999999999
 31
0.0
  0
ARC
  5
28F
330
6C
100
AcDbEntity
  8
Visible (ISO)
100
AcDbCircle
 10
253.8499999999999
 20
172.5999999999999
 30
0.0
 40
0.4000000000000001
100
AcDbArc
 50
0.0
 51
90.0
  0
ARC
  5
290
330
6C
100
AcDbEntity
  8
Visible (ISO)
100
AcDbCircle
 10
253.8499999999999
 20
223.3999999999999
 30
0.0
 40
0.4000000000000001
100
AcDbArc
 50
270.0
 51
0.0
  0
LINE
  5
291
330
6C
100
AcDbEntity
  8
Visible (ISO)
100
AcDbLine
 10
254.25
 20
220.0000000000075
 30
0.0
 11
254.25
 21
176.0000000000075
 31
0.0
  0
LINE
  5
292
330
6C
100
AcDbEntity
  8
Visible (ISO)
100
AcDbLine
 10
254.25
 20
220.0000000000075
 30
0.0
 11
254.25
 21
223.7000000000064
 31
0.0
  0
LINE
  5
293
330
6C
100
AcDbEntity
  8
Visible (ISO)
100
AcDbLine
 10
254.25
 20
172.3000000000064
 30
0.0
 11
254.25
 21
176.0000000000075
 31
0.0
  0
LINE
  5
294
330
6C
100
AcDbEntity
  8
Visible Narrow (ISO)
100
AcDbLine
 10
254.55
 20
220.0000000000076
 30
0.0
 11
254.25
 21
220.0000000000075
 31
0.0
  0
LINE
  5
295
330
6C
100
AcDbEntity
  8
Visible Narrow (ISO)
100
AcDbLine
 10
254.25
 20
176.0000000000075
 30
0.0
 11
254.55
 21
176.0000000000076
 31
0.0
  0
LINE
  5
296
330
6C
100
AcDbEntity
  8
Visible (ISO)
100
AcDbLine
 10
254.55
 20
176.0000000000076
 30
0.0
 11
254.55
 21
220.0000000000076
 31
0.0
  0
LINE
  5
297
330
6C
100
AcDbEntity
  8
Visible (ISO)
100
AcDbLine
 10
254.25
 20
172.3000000000064
 30
0.0
 11
254.55
 21
172.0000000000064
 31
0.0
  0
LINE
  5
298
330
6C
100
AcDbEntity
  8
Visible (ISO)
100
AcDbLine
 10
254.55
 20
176.0000000000076
 30
0.0
 11
254.55
 21
172.0000000000064
 31
0.0
  0
LINE
  5
299
330
6C
100
AcDbEntity
  8
Visible (ISO)
100
AcDbLine
 10
254.25
 20
223.7000000000064
 30
0.0
 11
254.55
 21
224.0000000000064
 31
0.0
  0
LINE
  5
29A
330
6C
100
AcDbEntity
  8
Visible (ISO)
100
AcDbLine
 10
254.55
 20
224.0000000000064
 30
0.0
 11
254.55
 21
220.0000000000076
 31
0.0
  0
LINE
  5
29B
330
6C
100
AcDbEntity
  8
Visible (ISO)
100
AcDbLine
 10
279.95
 20
224.0000000000064
 30
0.0
 11
254.55
 21
224.0000000000064
 31
0.0
  0
LINE
  5
29C
330
6C
100
AcDbEntity
  8
Visible Narrow (ISO)
100
AcDbLine
 10
279.95
 20
220.0000000000076
 30
0.0
 11
254.55
 21
220.0000000000076
 31
0.0
  0
LINE
  5
29D
330
6C
100
AcDbEntity
  8
Visible Narrow (ISO)
100
AcDbLine
 10
279.95
 20
176.0000000000076
 30
0.0
 11
254.55
 21
176.0000000000076
 31
0.0
  0
LINE
  5
29E
330
6C
100
AcDbEntity
  8
Visible (ISO)
100
AcDbLine
 10
279.95
 20
172.0000000000064
 30
0.0
 11
254.55
 21
172.0000000000064
 31
0.0
  0
LINE
  5
29F
330
6C
100
AcDbEntity
  8
Visible (ISO)
100
AcDbLine
 10
279.95
 20
220.0000000000076
 30
0.0
 11
279.95
 21
224.0000000000064
 31
0.0
  0
LINE
  5
2A0
330
6C
100
AcDbEntity
  8
Visible (ISO)
100
AcDbLine
 10
279.95
 20
220.0000000000076
 30
0.0
 11
279.95
 21
176.0000000000076
 31
0.0
  0
LINE
  5
2A1
330
6C
100
AcDbEntity
  8
Visible Narrow (ISO)
100
AcDbLine
 10
279.95
 20
176.0000000000076
 30
0.0
 11
280.25
 21
176.0000000000075
 31
0.0
  0
LINE
  5
2A2
330
6C
100
AcDbEntity
  8
Visible (ISO)
100
AcDbLine
 10
280.25
 20
176.0000000000075
 30
0.0
 11
280.25
 21
220.0000000000075
 31
0.0
  0
LINE
  5
2A3
330
6C
100
AcDbEntity
  8
Visible Narrow (ISO)
100
AcDbLine
 10
280.25
 20
220.0000000000075
 30
0.0
 11
279.95
 21
220.0000000000076
 31
0.0
  0
LINE
  5
2A4
330
6C
100
AcDbEntity
  8
Visible (ISO)
100
AcDbLine
 10
280.25
 20
223.7000000000064
 30
0.0
 11
279.95
 21
224.0000000000064
 31
0.0
  0
LINE
  5
2A5
330
6C
100
AcDbEntity
  8
Visible (ISO)
100
AcDbLine
 10
280.25
 20
223.7000000000064
 30
0.0
 11
280.25
 21
220.0000000000075
 31
0.0
  0
LINE
  5
2A6
330
6C
100
AcDbEntity
  8
Visible (ISO)
100
AcDbLine
 10
280.25
 20
172.3000000000064
 30
0.0
 11
279.95
 21
172.0000000000064
 31
0.0
  0
LINE
  5
2A7
330
6C
100
AcDbEntity
  8
Visible (ISO)
100
AcDbLine
 10
279.95
 20
172.0000000000064
 30
0.0
 11
279.95
 21
176.0000000000076
 31
0.0
  0
LINE
  5
2A8
330
6C
100
AcDbEntity
  8
Visible (ISO)
100
AcDbLine
 10
280.25
 20
176.0000000000075
 30
0.0
 11
280.25
 21
172.3000000000064
 31
0.0
  0
LINE
  5
2A9
330
6C
100
AcDbEntity
  8
Visible (ISO)
100
AcDbLine
 10
244.3964466094067
 20
212.1464466094066
 30
0.0
 11
245.1035533905932
 21
212.8535533905932
 31
0.0
  0
LINE
  5
2AA
330
6C
100
AcDbEntity
  8
Visible (ISO)
100
AcDbLine
 10
244.3964466094067
 20
183.8535533905931
 30
0.0
 11
245.1035533905933
 21
183.1464466094065
 31
0.0
  0
LINE
  5
2AB
330
6C
100
AcDbEntity
  8
Visible (ISO)
100
AcDbLine
 10
249.25
 20
175.4999999999998
 30
0.0
 11
247.25
 21
175.4999999999998
 31
0.0
  0
LINE
  5
2AC
330
6C
100
AcDbEntity
  8
Visible (ISO)
100
AcDbLine
 10
249.25
 20
220.4999999999999
 30
0.0
 11
247.25
 21
220.4999999999999
 31
0.0
  0
LINE
  5
2AD
330
6C
100
AcDbEntity
  8
Visible (ISO)
100
AcDbLine
 10
253.8499999999999
 20
172.9999999999998
 30
0.0
 11
251.55
 21
172.9999999999998
 31
0.0
  0
LINE
  5
2AE
330
6C
100
AcDbEntity
  8
Visible (ISO)
100
AcDbLine
 10
253.8499999999999
 20
222.9999999999999
 30
0.0
 11
251.55
 21
222.9999999999999
 31
0.0
  0
LINE
  5
2AF
330
6C
100
AcDbEntity
  8
Visible Narrow (ISO)
100
AcDbLine
 10
241.85
 20
191.9999999999998
 30
0.0
 11
241.85
 21
203.9999999999999
 31
0.0
  0
ARC
  5
2B0
330
6C
100
AcDbEntity
  8
Visible (ISO)
100
AcDbCircle
 10
241.85
 20
191.5999999999998
 30
0.0
 40
0.4000000000000001
100
AcDbArc
 50
0.0
 51
90.0
  0
ARC
  5
2B1
330
6C
100
AcDbEntity
  8
Visible (ISO)
100
AcDbCircle
 10
241.85
 20
204.3999999999999
 30
0.0
 40
0.4000000000000001
100
AcDbArc
 50
270.0
 51
0.0
  0
LINE
  5
2B2
330
6C
100
AcDbEntity
  8
Visible (ISO)
100
AcDbLine
 10
242.25
 20
191.3639702342661
 30
0.0
 11
242.25
 21
204.6360297657336
 31
0.0
  0
LINE
  5
2B3
330
6C
100
AcDbEntity
  8
Visible (ISO)
100
AcDbLine
 10
243.25
 20
204.9999999999998
 30
0.0
 11
243.25
 21
190.9999999999999
 31
0.0
  0
LINE
  5
2B4
330
6C
100
AcDbEntity
  8
Visible (ISO)
100
AcDbLine
 10
242.25
 20
204.6360297657336
 30
0.0
 11
243.25
 21
204.9999999999998
 31
0.0
  0
LINE
  5
2B5
330
6C
100
AcDbEntity
  8
Visible (ISO)
100
AcDbLine
 10
242.25
 20
191.3639702342661
 30
0.0
 11
243.25
 21
190.9999999999999
 31
0.0
  0
LINE
  5
2B6
330
6C
100
AcDbEntity
  8
Visible Narrow (ISO)
100
AcDbLine
 10
222.75
 20
203.9999999999999
 30
0.0
 11
222.75
 21
191.9999999999998
 31
0.0
  0
LINE
  5
2B7
330
6C
100
AcDbEntity
  8
Visible (ISO)
100
AcDbLine
 10
222.25
 20
192.4999999999998
 30
0.0
 11
222.25
 21
203.4999999999999
 31
0.0
  0
ARC
  5
2B8
330
6C
100
AcDbEntity
  8
Visible (ISO)
100
AcDbCircle
 10
222.75
 20
192.4999999999998
 30
0.0
 40
0.5
100
AcDbArc
 50
180.0
 51
270.0
  0
ARC
  5
2B9
330
6C
100
AcDbEntity
  8
Visible (ISO)
100
AcDbCircle
 10
222.75
 20
203.4999999999999
 30
0.0
 40
0.5
100
AcDbArc
 50
90.0
 51
180.0
  0
LINE
  5
2BA
330
6C
100
AcDbEntity
  8
Visible (ISO)
100
AcDbLine
 10
241.85
 20
191.9999999999998
 30
0.0
 11
222.75
 21
191.9999999999998
 31
0.0
  0
LINE
  5
2BB
330
6C
100
AcDbEntity
  8
Visible (ISO)
100
AcDbLine
 10
241.85
 20
203.9999999999999
 30
0.0
 11
222.75
 21
203.9999999999999
 31
0.0
  0
LINE
  5
2BC
330
6C
100
AcDbEntity
  8
Visible (ISO)
100
AcDbLine
 10
244.25
 20
190.9999999999999
 30
0.0
 11
243.25
 21
190.9999999999999
 31
0.0
  0
LINE
  5
2BD
330
6C
100
AcDbEntity
  8
Visible (ISO)
100
AcDbLine
 10
244.25
 20
204.9999999999998
 30
0.0
 11
243.25
 21
204.9999999999998
 31
0.0
  0
LINE
  5
2BE
330
6C
100
AcDbEntity
  8
Visible Narrow (ISO)
100
AcDbLine
 10
304.25
 20
220.0000000000073
 30
0.0
 11
303.25
 21
220.0000000000076
 31
0.0
  0
ARC
  5
2BF
330
6C
100
AcDbEntity
  8
Visible (ISO)
100
AcDbCircle
 10
303.25
 20
223.0000000000064
 30
0.0
 40
1.0
100
AcDbArc
 50
0.0
 51
90.0
  0
LINE
  5
2C0
330
6C
100
AcDbEntity
  8
Visible Narrow (ISO)
100
AcDbLine
 10
303.25
 20
220.0000000000076
 30
0.0
 11
303.25
 21
224.0000000000064
 31
0.0
  0
SPLINE
  5
2C1
330
6C
100
AcDbEntity
  8
Visible (ISO)
100
AcDbSpline
210
0.0
220
0.0
230
1.0
 70
    24
 71
     3
 72
    12
 73
     8
 74
     0
 42
0.0000000001
 43
0.0000000001
 40
1.022931300902483
 40
1.022931300902483
 40
1.022931300902483
 40
1.022931300902483
 40
1.035319117816857
 40
1.035319117816857
 40
1.393741628867341
 40
1.393741628867341
 40
2.045689886171932
 40
2.045689886171932
 40
2.045689886171932
 40
2.045689886171932
 10
304.0138968544889
 20
223.9999999999999
 30
0.0
 10
304.0139195481032
 20
223.9999999999999
 30
0.0
 10
304.0138404983911
 20
223.9999999999999
 30
0.0
 10
304.0083639611327
 20
224.0000000000003
 30
0.0
 10
303.9198597695375
 20
224.0000000000006
 30
0.0
 10
303.574275785698
 20
224.0000000000016
 30
0.0
 10
303.25
 20
224.0000000000023
 30
0.0
 10
303.25
 20
224.0000000000029
 30
0.0
  0
SPLINE
  5
2C2
330
6C
100
AcDbEntity
  8
Visible Narrow (ISO)
100
AcDbSpline
210
0.0
220
0.0
230
1.0
 70
     8
 71
     3
 72
    12
 73
     8
 74
     0
 42
0.0000000001
 43
0.0000000001
 40
-1.565269925874894
 40
-1.565269925874894
 40
-1.565269925874894
 40
-1.565269925874894
 40
-1.393741628867341
 40
-1.393741628867341
 40
-1.035319117816857
 40
-1.035319117816857
 40
-1.022931300902397
 40
-1.022931300902397
 40
-1.022931300902397
 40
-1.022931300902397
 10
304.4886506728202
 20
223.4630304400906
 30
0.0
 10
304.531944599187
 20
223.5044662902764
 30
0.0
 10
304.5757313941982
 20
223.5402629155939
 30
0.0
 10
304.6965731796916
 20
223.6309273439477
 30
0.0
 10
304.7555759740884
 20
223.6644250150278
 30
0.0
 10
304.7592269989274
 20
223.6666298335555
 30
0.0
 10
304.7592796987355
 20
223.6666656700784
 30
0.0
 10
304.7592645696593
 20
223.6666638448983
 30
0.0
  0
SPLINE
  5
2C3
330
6C
100
AcDbEntity
  8
Visible (ISO)
100
AcDbSpline
210
0.0
220
0.0
230
1.0
 70
    24
 71
     3
 72
    10
 73
     6
 74
     0
 42
0.0000000001
 43
0.0000000001
 40
0.0
 40
0.0
 40
0.0
 40
0.0
 40
0.5589499308259733
 40
0.5589499308259733
 40
1.022931300902397
 40
1.022931300902397
 40
1.022931300902397
 40
1.022931300902397
 10
303.25
 20
172.0000000000029
 30
0.0
 10
303.2499999999997
 20
172.0000000000023
 30
0.0
 10
303.488915222082
 20
172.0000000000017
 30
0.0
 10
303.8694661698077
 20
172.0000000000007
 30
0.0
 10
304.0130468730664
 20
172.0000000000003
 30
0.0
 10
304.0138968544889
 20
171.9999999999998
 30
0.0
  0
SPLINE
  5
2C4
330
6C
100
AcDbEntity
  8
Visible Narrow (ISO)
100
AcDbSpline
210
0.0
220
0.0
230
1.0
 70
     8
 71
     3
 72
    10
 73
     6
 74
     0
 42
0.0000000001
 43
0.0000000001
 40
-1.022931300902398
 40
-1.022931300902398
 40
-1.022931300902398
 40
-1.022931300902398
 40
-0.5589499308259733
 40
-0.5589499308259733
 40
-0.4804356691079159
 40
-0.4804356691079159
 40
-0.4804356691079159
 40
-0.4804356691079159
 10
304.7592645696592
 20
172.3333361551015
 30
0.0
 10
304.7586979153777
 20
172.33340451659
 30
0.0
 10
304.6629774465385
 20
172.3863066339526
 30
0.0
 10
304.5284312806103
 20
172.5001622210438
 30
0.0
 10
304.5085512520104
 20
172.5179129226538
 30
0.0
 10
304.4887624612312
 20
172.5368555762961
 30
0.0
  0
ARC
  5
2C5
330
6C
100
AcDbEntity
  8
Visible (ISO)
100
AcDbCircle
 10
303.25
 20
173.0000000000063
 30
0.0
 40
1.0
100
AcDbArc
 50
270.0
 51
0.0
  0
LINE
  5
2C6
330
6C
100
AcDbEntity
  8
Visible Narrow (ISO)
100
AcDbLine
 10
303.25
 20
176.0000000000075
 30
0.0
 11
304.25
 21
176.0000000000073
 31
0.0
  0
LINE
  5
2C7
330
6C
100
AcDbEntity
  8
Visible Narrow (ISO)
100
AcDbLine
 10
303.25
 20
172.0000000000064
 30
0.0
 11
303.25
 21
176.0000000000076
 31
0.0
  0
LINE
  5
2C8
330
6C
100
AcDbEntity
  8
Visible Narrow (ISO)
100
AcDbLine
 10
303.25
 20
187.801960972822
 30
0.0
 11
304.25
 21
187.8019609728217
 31
0.0
  0
LINE
  5
2C9
330
6C
100
AcDbEntity
  8
Visible Narrow (ISO)
100
AcDbLine
 10
303.25
 20
187.801960972822
 30
0.0
 11
303.25
 21
176.0000000000076
 31
0.0
  0
LINE
  5
2CA
330
6C
100
AcDbEntity
  8
Visible (ISO)
100
AcDbLine
 10
304.25
 20
178.7162192189428
 30
0.0
 11
304.25
 21
187.8019609728217
 31
0.0
  0
LINE
  5
2CB
330
6C
100
AcDbEntity
  8
Visible Narrow (ISO)
100
AcDbLine
 10
303.25
 20
208.1980390271967
 30
0.0
 11
304.25
 21
208.1980390271961
 31
0.0
  0
SPLINE
  5
2CC
330
6C
100
AcDbEntity
  8
Visible Narrow (ISO)
100
AcDbSpline
210
0.0
220
0.0
230
1.0
 70
     8
 71
     3
 72
    14
 73
    10
 74
     0
 42
0.0000000001
 43
0.0000000001
 40
0.0
 40
0.0
 40
0.0
 40
0.0
 40
0.5589499308256338
 40
0.5589499308256338
 40
1.035319117816857
 40
1.035319117816857
 40
1.393741628867342
 40
1.393741628867342
 40
2.045689886171933
 40
2.045689886171933
 40
2.045689886171933
 40
2.045689886171933
 10
303.25
 20
208.1980390271967
 30
0.0
 10
303.2499999999997
 20
206.3348725911112
 30
0.0
 10
303.4889152220817
 20
204.4794288296369
 30
0.0
 10
303.8740746860029
 20
201.0498757478149
 30
0.0
 10
304.0206930887015
 20
199.4640020310097
 30
0.0
 10
304.0083639611327
 20
196.6813903512013
 30
0.0
 10
303.9198597695375
 20
195.4868686388859
 30
0.0
 10
303.574275785698
 20
192.136743361864
 30
0.0
 10
303.25
 20
189.975121830504
 30
0.0
 10
303.25
 20
187.801960972822
 30
0.0
  0
SPLINE
  5
2CD
330
6C
100
AcDbEntity
  8
Visible Narrow (ISO)
100
AcDbSpline
210
0.0
220
0.0
230
1.0
 70
     8
 71
     3
 72
    14
 73
    10
 74
     0
 42
0.0000000001
 43
0.0000000001
 40
-2.045689886171933
 40
-2.045689886171933
 40
-2.045689886171933
 40
-2.045689886171933
 40
-1.393741628867342
 40
-1.393741628867342
 40
-1.035319117816857
 40
-1.035319117816857
 40
-0.5589499308256338
 40
-0.5589499308256338
 40
0.0
 40
0.0
 40
0.0
 40
0.0
 10
304.25
 20
187.8019609728217
 30
0.0
 10
304.25
 20
189.8717799332934
 30
0.0
 10
304.466183857132
 20
192.0196673142404
 30
0.0
 10
304.6965731796916
 20
195.4205295498401
 30
0.0
 10
304.7555759740884
 20
196.6462438152842
 30
0.0
 10
304.7637953924677
 20
199.5030215794442
 30
0.0
 10
304.6660497906686
 20
201.1313710322981
 30
0.0
 10
304.4092768147211
 20
204.5915304624351
 30
0.0
 10
304.2499999999998
 20
206.4234730983596
 30
0.0
 10
304.25
 20
208.1980390271962
 30
0.0
  0
LINE
  5
2CE
330
6C
100
AcDbEntity
  8
Visible Narrow (ISO)
100
AcDbLine
 10
303.25
 20
220.0000000000076
 30
0.0
 11
303.25
 21
208.1980390271967
 31
0.0
  0
LINE
  5
2CF
330
6C
100
AcDbEntity
  8
Visible (ISO)
100
AcDbLine
 10
304.25
 20
208.198039027196
 30
0.0
 11
304.25
 21
217.2837807810717
 31
0.0
  0
ARC
  5
2D0
330
6C
100
AcDbEntity
  8
Visible (ISO)
100
AcDbCircle
 10
304.0139320225002
 20
222.9999999999999
 30
0.0
 40
1.0
100
AcDbArc
 50
41.81031489577791
 51
90.0
  0
ARC
  5
2D1
330
6C
100
AcDbEntity
  8
Visible (ISO)
100
AcDbCircle
 10
304.0139320225002
 20
172.9999999999998
 30
0.0
 40
1.0
100
AcDbArc
 50
270.0
 51
318.1896851042221
  0
LINE
  5
2D2
330
6C
100
AcDbEntity
  8
Visible Narrow (ISO)
100
AcDbLine
 10
306.25
 20
214.9632034356018
 30
0.0
 11
306.25
 21
181.0367965644089
 31
0.0
  0
ARC
  5
2D3
330
6C
100
AcDbEntity
  8
Visible (ISO)
100
AcDbCircle
 10
306.25
 20
170.9999999999999
 30
0.0
 40
2.0
100
AcDbArc
 50
129.7897269303583
 51
138.1896851042214
  0
ARC
  5
2D4
330
6C
100
AcDbEntity
  8
Visible (ISO)
100
AcDbCircle
 10
306.25
 20
224.9999999999999
 30
0.0
 40
2.0
100
AcDbArc
 50
221.8103148957786
 51
230.2102730696425
  0
LINE
  5
2D5
330
6C
100
AcDbEntity
  8
Visible (ISO)
100
AcDbLine
 10
303.25
 20
172.0000000000064
 30
0.0
 11
280.55
 21
172.0000000000064
 31
0.0
  0
LINE
  5
2D6
330
6C
100
AcDbEntity
  8
Visible Narrow (ISO)
100
AcDbLine
 10
303.25
 20
176.0000000000076
 30
0.0
 11
280.55
 21
176.0000000000076
 31
0.0
  0
LINE
  5
2D7
330
6C
100
AcDbEntity
  8
Visible Narrow (ISO)
100
AcDbLine
 10
303.25
 20
220.0000000000076
 30
0.0
 11
280.55
 21
220.0000000000076
 31
0.0
  0
LINE
  5
2D8
330
6C
100
AcDbEntity
  8
Visible (ISO)
100
AcDbLine
 10
303.25
 20
224.0000000000064
 30
0.0
 11
280.55
 21
224.0000000000064
 31
0.0
  0
LINE
  5
2D9
330
6C
100
AcDbEntity
  8
Visible (ISO)
100
AcDbLine
 10
280.55
 20
176.0000000000076
 30
0.0
 11
280.55
 21
172.0000000000064
 31
0.0
  0
LINE
  5
2DA
330
6C
100
AcDbEntity
  8
Visible (ISO)
100
AcDbLine
 10
280.55
 20
176.0000000000076
 30
0.0
 11
280.55
 21
220.0000000000076
 31
0.0
  0
LINE
  5
2DB
330
6C
100
AcDbEntity
  8
Visible (ISO)
100
AcDbLine
 10
280.55
 20
224.0000000000064
 30
0.0
 11
280.55
 21
220.0000000000076
 31
0.0
  0
LINE
  5
2DC
330
6C
100
AcDbEntity
  8
Visible (ISO)
100
AcDbLine
 10
321.95
 20
172.9999999999998
 30
0.0
 11
321.95
 21
222.9999999999999
 31
0.0
  0
LINE
  5
2DD
330
6C
100
AcDbEntity
  8
Visible (ISO)
100
AcDbLine
 10
280.55
 20
172.0000000000064
 30
0.0
 11
280.25
 21
172.3000000000063
 31
0.0
  0
LINE
  5
2DE
330
6C
100
AcDbEntity
  8
Visible (ISO)
100
AcDbLine
 10
280.25
 20
223.7000000000064
 30
0.0
 11
280.55
 21
224.0000000000064
 31
0.0
  0
LINE
  5
2DF
330
6C
100
AcDbEntity
  8
Visible Narrow (ISO)
100
AcDbLine
 10
280.25
 20
220.0000000000075
 30
0.0
 11
280.55
 21
220.0000000000076
 31
0.0
  0
LINE
  5
2E0
330
6C
100
AcDbEntity
  8
Visible (ISO)
100
AcDbLine
 10
280.25
 20
220.0000000000075
 30
0.0
 11
280.25
 21
223.7000000000064
 31
0.0
  0
LINE
  5
2E1
330
6C
100
AcDbEntity
  8
Visible Narrow (ISO)
100
AcDbLine
 10
280.25
 20
176.0000000000075
 30
0.0
 11
280.55
 21
176.0000000000076
 31
0.0
  0
LINE
  5
2E2
330
6C
100
AcDbEntity
  8
Visible (ISO)
100
AcDbLine
 10
280.25
 20
220.0000000000075
 30
0.0
 11
280.25
 21
176.0000000000075
 31
0.0
  0
LINE
  5
2E3
330
6C
100
AcDbEntity
  8
Visible (ISO)
100
AcDbLine
 10
280.25
 20
172.3000000000064
 30
0.0
 11
280.25
 21
176.0000000000075
 31
0.0
  0
LINE
  5
2E4
330
6C
100
AcDbEntity
  8
Visible (ISO)
100
AcDbLine
 10
322.25
 20
221.8916280265867
 30
0.0
 11
322.25
 21
204.2673846410911
 31
0.0
  0
LINE
  5
2E5
330
6C
100
AcDbEntity
  8
Visible (ISO)
100
AcDbLine
 10
322.25
 20
173.2999999999998
 30
0.0
 11
321.95
 21
172.9999999999998
 31
0.0
  0
LINE
  5
2E6
330
6C
100
AcDbEntity
  8
Visible (ISO)
100
AcDbLine
 10
322.25
 20
222.6999999999999
 30
0.0
 11
321.95
 21
222.9999999999999
 31
0.0
  0
LINE
  5
2E7
330
6C
100
AcDbEntity
  8
Visible (ISO)
100
AcDbLine
 10
321.95
 20
172.9999999999998
 30
0.0
 11
309.2486441745855
 21
172.9999999999998
 31
0.0
  0
LINE
  5
2E8
330
6C
100
AcDbEntity
  8
Visible (ISO)
100
AcDbLine
 10
321.95
 20
222.9999999999999
 30
0.0
 11
309.2486441745855
 21
222.9999999999999
 31
0.0
  0
LINE
  5
2E9
330
6C
100
AcDbEntity
  8
Visible (ISO)
100
AcDbLine
 10
304.25
 20
223.4632034356025
 30
0.0
 11
304.25
 21
217.2837807810717
 31
0.0
  0
LINE
  5
2EA
330
6C
100
AcDbEntity
  8
Visible (ISO)
100
AcDbLine
 10
308.75
 20
214.9632034356026
 30
0.0
 11
304.25
 21
214.9632034356026
 31
0.0
  0
LINE
  5
2EB
330
6C
100
AcDbEntity
  8
Visible (ISO)
100
AcDbLine
 10
308.75
 20
223.4632034356025
 30
0.0
 11
304.25
 21
223.4632034356025
 31
0.0
  0
LINE
  5
2EC
330
6C
100
AcDbEntity
  8
Visible (ISO)
100
AcDbLine
 10
309.25
 20
222.9632034356026
 30
0.0
 11
309.25
 21
215.4632034356026
 31
0.0
  0
LINE
  5
2ED
330
6C
100
AcDbEntity
  8
Visible Narrow (ISO)
100
AcDbLine
 10
308.75
 20
214.9632034356026
 30
0.0
 11
308.75
 21
223.4632034356025
 31
0.0
  0
ARC
  5
2EE
330
6C
100
AcDbEntity
  8
Visible (ISO)
100
AcDbCircle
 10
308.75
 20
222.9632034356026
 30
0.0
 40
0.5
100
AcDbArc
 50
0.0
 51
90.0
  0
ARC
  5
2EF
330
6C
100
AcDbEntity
  8
Visible (ISO)
100
AcDbCircle
 10
308.75
 20
215.4632034356026
 30
0.0
 40
0.5
100
AcDbArc
 50
270.0
 51
0.0
  0
LINE
  5
2F0
330
6C
100
AcDbEntity
  8
Visible (ISO)
100
AcDbLine
 10
304.25
 20
178.7162192189428
 30
0.0
 11
304.25
 21
172.5367965644097
 31
0.0
  0
LINE
  5
2F1
330
6C
100
AcDbEntity
  8
Visible (ISO)
100
AcDbLine
 10
308.75
 20
172.5367965644097
 30
0.0
 11
304.25
 21
172.5367965644097
 31
0.0
  0
LINE
  5
2F2
330
6C
100
AcDbEntity
  8
Visible (ISO)
100
AcDbLine
 10
308.75
 20
181.0367965644097
 30
0.0
 11
304.25
 21
181.0367965644097
 31
0.0
  0
LINE
  5
2F3
330
6C
100
AcDbEntity
  8
Visible (ISO)
100
AcDbLine
 10
309.25
 20
180.5367965644097
 30
0.0
 11
309.25
 21
173.0367965644097
 31
0.0
  0
LINE
  5
2F4
330
6C
100
AcDbEntity
  8
Visible Narrow (ISO)
100
AcDbLine
 10
308.75
 20
172.5367965644097
 30
0.0
 11
308.75
 21
181.0367965644097
 31
0.0
  0
ARC
  5
2F5
330
6C
100
AcDbEntity
  8
Visible (ISO)
100
AcDbCircle
 10
308.75
 20
180.5367965644097
 30
0.0
 40
0.5
100
AcDbArc
 50
0.0
 51
90.0
  0
ARC
  5
2F6
330
6C
100
AcDbEntity
  8
Visible (ISO)
100
AcDbCircle
 10
308.75
 20
173.0367965644097
 30
0.0
 40
0.5
100
AcDbArc
 50
270.0
 51
0.0
  0
LINE
  5
2F7
330
6C
100
AcDbEntity
  8
Visible Narrow (ISO)
100
AcDbLine
 10
333.75
 20
211.1612758308352
 30
0.0
 11
322.25
 21
211.1612758308352
 31
0.0
  0
LINE
  5
2F8
330
6C
100
AcDbEntity
  8
Visible Narrow (ISO)
100
AcDbLine
 10
322.25
 20
208.1729134435349
 30
0.0
 11
333.75
 21
208.1729134435349
 31
0.0
  0
LINE
  5
2F9
330
6C
100
AcDbEntity
  8
Visible (ISO)
100
AcDbLine
 10
322.55
 20
224.0000000000015
 30
0.0
 11
333.75
 21
224.0000000000015
 31
0.0
  0
LINE
  5
2FA
330
6C
100
AcDbEntity
  8
Visible (ISO)
100
AcDbLine
 10
322.25
 20
223.7000000000015
 30
0.0
 11
322.55
 21
224.0000000000015
 31
0.0
  0
LINE
  5
2FB
330
6C
100
AcDbEntity
  8
Visible (ISO)
100
AcDbLine
 10
322.25
 20
221.8916280265867
 30
0.0
 11
322.25
 21
223.7000000000015
 31
0.0
  0
LINE
  5
2FC
330
6C
100
AcDbEntity
  8
Visible (ISO)
100
AcDbLine
 10
333.75
 20
219.1246301742852
 30
0.0
 11
333.75
 21
203.5000000000076
 31
0.0
  0
LINE
  5
2FD
330
6C
100
AcDbEntity
  8
Visible (ISO)
100
AcDbLine
 10
333.75
 20
219.1246301742852
 30
0.0
 11
333.75
 21
224.0000000000061
 31
0.0
  0
LINE
  5
2FE
330
6C
100
AcDbEntity
  8
Visible (ISO)
100
AcDbLine
 10
322.25
 20
203.6091910702873
 30
0.0
 11
322.25
 21
204.2673846410911
 31
0.0
  0
LINE
  5
2FF
330
6C
100
AcDbEntity
  8
Visible (ISO)
100
AcDbLine
 10
322.55
 20
203.5000000000076
 30
0.0
 11
322.25
 21
203.6091910702873
 31
0.0
  0
LINE
  5
300
330
6C
100
AcDbEntity
  8
Visible (ISO)
100
AcDbLine
 10
333.75
 20
203.5000000000076
 30
0.0
 11
322.55
 21
203.5000000000076
 31
0.0
  0
LINE
  5
301
330
6C
100
AcDbEntity
  8
Visible (ISO)
100
AcDbLine
 10
337.45
 20
224.0000000000061
 30
0.0
 11
333.75
 21
224.0000000000061
 31
0.0
  0
LINE
  5
302
330
6C
100
AcDbEntity
  8
Visible (ISO)
100
AcDbLine
 10
337.45
 20
219.1246301742852
 30
0.0
 11
333.75
 21
219.1246301742852
 31
0.0
  0
LINE
  5
303
330
6C
100
AcDbEntity
  8
Visible (ISO)
100
AcDbLine
 10
337.45
 20
176.8753698257299
 30
0.0
 11
322.55
 21
176.8753698257299
 31
0.0
  0
LINE
  5
304
330
6C
100
AcDbEntity
  8
Visible (ISO)
100
AcDbLine
 10
337.45
 20
172.0000000000061
 30
0.0
 11
322.55
 21
172.0000000000061
 31
0.0
  0
LINE
  5
305
330
6C
100
AcDbEntity
  8
Visible (ISO)
100
AcDbLine
 10
337.45
 20
219.1246301742852
 30
0.0
 11
337.45
 21
224.0000000000061
 31
0.0
  0
LINE
  5
306
330
6C
100
AcDbEntity
  8
Visible (ISO)
100
AcDbLine
 10
322.55
 20
176.8753698257299
 30
0.0
 11
322.55
 21
203.5000000000076
 31
0.0
  0
LINE
  5
307
330
6C
100
AcDbEntity
  8
Visible (ISO)
100
AcDbLine
 10
337.45
 20
219.1246301742852
 30
0.0
 11
337.45
 21
176.8753698257299
 31
0.0
  0
LINE
  5
308
330
6C
100
AcDbEntity
  8
Visible (ISO)
100
AcDbLine
 10
322.25
 20
203.6091910702873
 30
0.0
 11
322.25
 21
176.9821504430238
 31
0.0
  0
SPLINE
  5
309
330
6C
100
AcDbEntity
  8
Visible (ISO)
100
AcDbSpline
210
0.0
220
0.0
230
1.0
 70
     8
 71
     3
 72
     8
 73
     4
 74
     0
 42
0.0000000001
 43
0.0000000001
 40
-0.0437492227970593
 40
-0.0437492227970593
 40
-0.0437492227970593
 40
-0.0437492227970593
 40
0.0
 40
0.0
 40
0.0
 40
0.0
 10
322.25
 20
176.9821504430238
 30
0.0
 10
322.3499841603398
 20
176.9464721401357
 30
0.0
 10
322.4499856521171
 20
176.9108784998668
 30
0.0
 10
322.55
 20
176.8753698257299
 30
0.0
  0
LINE
  5
30A
330
6C
100
AcDbEntity
  8
Visible (ISO)
100
AcDbLine
 10
322.25
 20
172.3000000000061
 30
0.0
 11
322.25
 21
176.9821504430237
 31
0.0
  0
LINE
  5
30B
330
6C
100
AcDbEntity
  8
Visible (ISO)
100
AcDbLine
 10
337.75
 20
223.7000000000061
 30
0.0
 11
337.75
 21
219.0178495569912
 31
0.0
  0
LINE
  5
30C
330
6C
100
AcDbEntity
  8
Visible (ISO)
100
AcDbLine
 10
337.75
 20
176.9821504430238
 30
0.0
 11
337.75
 21
219.0178495569912
 31
0.0
  0
LINE
  5
30D
330
6C
100
AcDbEntity
  8
Visible (ISO)
100
AcDbLine
 10
337.75
 20
176.9821504430238
 30
0.0
 11
337.75
 21
172.3000000000061
 31
0.0
  0
SPLINE
  5
30E
330
6C
100
AcDbEntity
  8
Visible (ISO)
100
AcDbSpline
210
0.0
220
0.0
230
1.0
 70
    24
 71
     3
 72
     8
 73
     4
 74
     0
 42
0.0000000001
 43
0.0000000001
 40
-0.0437492227974344
 40
-0.0437492227974344
 40
-0.0437492227974344
 40
-0.0437492227974344
 40
0.0
 40
0.0
 40
0.0
 40
0.0
 10
322.25
 20
172.3000000000061
 30
0.0
 10
322.3499841603394
 20
172.2000158396667
 30
0.0
 10
322.4499856521163
 20
172.1000143478899
 30
0.0
 10
322.55
 20
172.0000000000061
 30
0.0
  0
LINE
  5
30F
330
6C
100
AcDbEntity
  8
Visible (ISO)
100
AcDbLine
 10
322.55
 20
176.87536982573
 30
0.0
 11
322.55
 21
172.0000000000061
 31
0.0
  0
SPLINE
  5
310
330
6C
100
AcDbEntity
  8
Visible (ISO)
100
AcDbSpline
210
0.0
220
0.0
230
1.0
 70
    24
 71
     3
 72
     8
 73
     4
 74
     0
 42
0.0000000001
 43
0.0000000001
 40
-0.043749223240024
 40
-0.043749223240024
 40
-0.043749223240024
 40
-0.043749223240024
 40
0.0
 40
0.0
 40
0.0
 40
0.0
 10
337.45
 20
224.0000000000061
 30
0.0
 10
337.5500143478837
 20
223.8999856521223
 30
0.0
 10
337.6500158396606
 20
223.7999841603455
 30
0.0
 10
337.75
 20
223.7000000000061
 30
0.0
  0
SPLINE
  5
311
330
6C
100
AcDbEntity
  8
Visible (ISO)
100
AcDbSpline
210
0.0
220
0.0
230
1.0
 70
    24
 71
     3
 72
     8
 73
     4
 74
     0
 42
0.0000000001
 43
0.0000000001
 40
-0.0437492227974404
 40
-0.0437492227974404
 40
-0.0437492227974404
 40
-0.0437492227974404
 40
0.0
 40
0.0
 40
0.0
 40
0.0
 10
337.75
 20
172.3000000000061
 30
0.0
 10
337.6500158396606
 20
172.2000158396667
 30
0.0
 10
337.5500143478837
 20
172.1000143478899
 30
0.0
 10
337.45
 20
172.0000000000061
 30
0.0
  0
SPLINE
  5
312
330
6C
100
AcDbEntity
  8
Visible (ISO)
100
AcDbSpline
210
0.0
220
0.0
230
1.0
 70
     8
 71
     3
 72
     8
 73
     4
 74
     0
 42
0.0000000001
 43
0.0000000001
 40
-0.0437492227972456
 40
-0.0437492227972456
 40
-0.0437492227972456
 40
-0.0437492227972456
 40
0.0
 40
0.0
 40
0.0
 40
0.0
 10
337.75
 20
176.9821504430238
 30
0.0
 10
337.6500158396604
 20
176.9464721401358
 30
0.0
 10
337.5500143478833
 20
176.910878499867
 30
0.0
 10
337.45
 20
176.8753698257299
 30
0.0
  0
LINE
  5
313
330
6C
100
AcDbEntity
  8
Visible (ISO)
100
AcDbLine
 10
337.45
 20
172.0000000000061
 30
0.0
 11
337.45
 21
176.8753698257299
 31
0.0
  0
SPLINE
  5
314
330
6C
100
AcDbEntity
  8
Visible (ISO)
100
AcDbSpline
210
0.0
220
0.0
230
1.0
 70
     8
 71
     3
 72
     8
 73
     4
 74
     0
 42
0.0000000001
 43
0.0000000001
 40
-0.0437492227970619
 40
-0.0437492227970619
 40
-0.0437492227970619
 40
-0.0437492227970619
 40
0.0
 40
0.0
 40
0.0
 40
0.0
 10
337.75
 20
219.0178495569912
 30
0.0
 10
337.6500158396602
 20
219.0535278598793
 30
0.0
 10
337.5500143478829
 20
219.0891215001482
 30
0.0
 10
337.45
 20
219.1246301742852
 30
0.0
  0
CIRCLE
  5
315
330
6C
100
AcDbEntity
  8
Visible Narrow (ISO)
100
AcDbCircle
 10
328.2499999999999
 20
189.5000000000075
 30
0.0
 40
4.84565700644843
  0
CIRCLE
  5
316
330
6C
100
AcDbEntity
  8
Visible (ISO)
100
AcDbCircle
 10
328.25
 20
189.5000000000078
 30
0.0
 40
3.863999999999999
  0
CIRCLE
  5
317
330
6C
100
AcDbEntity
  8
Visible (ISO)
100
AcDbCircle
 10
328.25
 20
189.5000000000075
 30
0.0
 40
4.832765247622278
  0
LINE
  5
318
330
6C
100
AcDbEntity
  8
Visible (ISO)
100
AcDbLine
 10
325.75
 20
190.9433756729819
 30
0.0
 11
328.25
 21
192.386751345956
 31
0.0
  0
LINE
  5
319
330
6C
100
AcDbEntity
  8
Visible (ISO)
100
AcDbLine
 10
328.25
 20
192.386751345956
 30
0.0
 11
330.75
 21
190.9433756729819
 31
0.0
  0
LINE
  5
31A
330
6C
100
AcDbEntity
  8
Visible (ISO)
100
AcDbLine
 10
330.75
 20
190.9433756729819
 30
0.0
 11
330.75
 21
188.0566243270338
 31
0.0
  0
LINE
  5
31B
330
6C
100
AcDbEntity
  8
Visible (ISO)
100
AcDbLine
 10
330.75
 20
188.0566243270338
 30
0.0
 11
328.25
 21
186.6132486540597
 31
0.0
  0
LINE
  5
31C
330
6C
100
AcDbEntity
  8
Visible (ISO)
100
AcDbLine
 10
328.25
 20
186.6132486540597
 30
0.0
 11
325.75
 21
188.0566243270338
 31
0.0
  0
LINE
  5
31D
330
6C
100
AcDbEntity
  8
Visible (ISO)
100
AcDbLine
 10
325.75
 20
188.0566243270338
 30
0.0
 11
325.75
 21
190.9433756729819
 31
0.0
  0
LINE
  5
31E
330
6C
100
AcDbEntity
  8
Center Mark (ISO)
100
AcDbLine
 10
167.4999999999915
 20
98.50406215630961
 30
0.0
 11
112.4999999999915
 21
98.50406215630961
 31
0.0
  0
LINE
  5
31F
330
6C
100
AcDbEntity
  8
Center Mark (ISO)
100
AcDbLine
 10
139.9999999999915
 20
126.0040621563096
 30
0.0
 11
139.9999999999915
 21
71.00406215630961
 31
0.0
  0
LINE
  5
320
330
6C
100
AcDbEntity
  8
Center Mark (ISO)
100
AcDbLine
 10
122.0161532340749
 20
80.52021539039214
 30
0.0
 11
115.5574398947169
 21
74.06150205103422
 31
0.0
  0
LINE
  5
321
330
6C
100
AcDbEntity
  8
Center Mark (ISO)
100
AcDbLine
 10
122.0161532340749
 20
116.4879089222271
 30
0.0
 11
115.5574398947169
 21
122.946622261585
 31
0.0
  0
LINE
  5
322
330
6C
100
AcDbEntity
  8
Center Mark (ISO)
100
AcDbLine
 10
157.9838467659098
 20
80.52021539039214
 30
0.0
 11
164.4425601052677
 21
74.06150205103421
 31
0.0
  0
LINE
  5
323
330
6C
100
AcDbEntity
  8
Center Mark (ISO)
100
AcDbLine
 10
164.4425601052677
 20
122.946622261585
 30
0.0
 11
157.9838467659098
 21
116.487908922227
 31
0.0
  0
CIRCLE
  5
324
330
6C
100
AcDbEntity
  8
Centerline (ISO)
100
AcDbCircle
 10
139.9999999999923
 20
98.50406215630961
 30
0.0
 40
30.0
  0
LINE
  5
325
330
6C
100
AcDbEntity
  8
Center Mark (ISO)
100
AcDbLine
 10
120.4999999999924
 20
76.50406215630962
 30
0.0
 11
111.4999999999924
 21
76.50406215630962
 31
0.0
  0
LINE
  5
326
330
6C
100
AcDbEntity
  8
Center Mark (ISO)
100
AcDbLine
 10
117.9999999999924
 20
79.00406215630962
 30
0.0
 11
117.9999999999924
 21
70.00406215630961
 31
0.0
  0
LINE
  5
327
330
6C
100
AcDbEntity
  8
Center Mark (ISO)
100
AcDbLine
 10
120.4999999999924
 20
120.5040621563096
 30
0.0
 11
111.4999999999924
 21
120.5040621563096
 31
0.0
  0
LINE
  5
328
330
6C
100
AcDbEntity
  8
Center Mark (ISO)
100
AcDbLine
 10
117.9999999999924
 20
127.0040621563096
 30
0.0
 11
117.9999999999924
 21
118.0040621563096
 31
0.0
  0
LINE
  5
329
330
6C
100
AcDbEntity
  8
Center Mark (ISO)
100
AcDbLine
 10
168.4999999999924
 20
76.50406215630962
 30
0.0
 11
159.4999999999924
 21
76.50406215630962
 31
0.0
  0
LINE
  5
32A
330
6C
100
AcDbEntity
  8
Center Mark (ISO)
100
AcDbLine
 10
161.9999999999924
 20
79.00406215630962
 30
0.0
 11
161.9999999999924
 21
70.00406215630961
 31
0.0
  0
LINE
  5
32B
330
6C
100
AcDbEntity
  8
Center Mark (ISO)
100
AcDbLine
 10
168.4999999999924
 20
120.5040621563096
 30
0.0
 11
159.4999999999924
 21
120.5040621563096
 31
0.0
  0
LINE
  5
32C
330
6C
100
AcDbEntity
  8
Center Mark (ISO)
100
AcDbLine
 10
161.9999999999924
 20
127.0040621563096
 30
0.0
 11
161.9999999999924
 21
118.0040621563096
 31
0.0
  0
ENDSEC
  0
SECTION
  2
OBJECTS
  0
DICTIONARY
  5
C
330
0
100
AcDbDictionary
281
     1
  3
ACAD_CIP_PREVIOUS_PRODUCT_INFO
350
32D
  3
ACAD_COLOR
350
63
  3
ACAD_GROUP
350
D
  3
ACAD_LAYOUT
350
62
  3
ACAD_MATERIAL
350
10
  3
ACAD_MLEADERSTYLE
350
66
  3
ACAD_MLINESTYLE
350
5F
  3
ACAD_PLOTSETTINGS
350
61
  3
ACAD_PLOTSTYLENAME
350
E
  3
ACAD_SCALELIST
350
42
  3
ACAD_TABLESTYLE
350
64
  3
ACAD_VISUALSTYLE
350
29
  3
ACDB_RECOMPOSE_DATA
350
341
  3
AcDbVariableDictionary
350
32E
  0
DICTIONARY
  5
33B
330
CD
100
AcDbDictionary
280
     1
281
     1
  3
ACAD_MLATT
360
33D
  3
ACAD_XREC_ROUNDTRIP
360
33C
  0
DICTIONARY
  5
33E
330
D3
100
AcDbDictionary
280
     1
281
     1
  3
ACAD_MLATT
360
340
  3
ACAD_XREC_ROUNDTRIP
360
33F
  0
XRECORD
  5
32D
102
{ACAD_REACTORS
330
C
102
}
330
C
100
AcDbXrecord
280
     1
300
INVPROSA
300
2012
300
85768INVNTOR_2012_0F
  0
DICTIONARY
  5
63
102
{ACAD_REACTORS
330
C
102
}
330
C
100
AcDbDictionary
281
     1
  0
DICTIONARY
  5
D
102
{ACAD_REACTORS
330
C
102
}
330
C
100
AcDbDictionary
281
     1
  0
DICTIONARY
  5
62
102
{ACAD_REACTORS
330
C
102
}
330
C
100
AcDbDictionary
281
     1
  3
Layout1
350
6B
  3
Layout2
350
73
  3
Model
350
6F
  0
DICTIONARY
  5
10
102
{ACAD_REACTORS
330
C
102
}
330
C
100
AcDbDictionary
281
     1
  3
ByBlock
350
19
  3
ByLayer
350
11
  3
Global
350
21
  0
DICTIONARY
  5
66
102
{ACAD_REACTORS
330
C
102
}
330
C
100
AcDbDictionary
281
     1
  3
Standard
350
67
  0
DICTIONARY
  5
5F
102
{ACAD_REACTORS
330
C
102
}
330
C
100
AcDbDictionary
281
     1
  3
Standard
350
60
  0
DICTIONARY
  5
61
102
{ACAD_REACTORS
330
C
102
}
330
C
100
AcDbDictionary
281
     1
  0
ACDBDICTIONARYWDFLT
  5
E
102
{ACAD_REACTORS
330
C
102
}
330
C
100
AcDbDictionary
281
     1
  3
Normal
350
F
100
AcDbDictionaryWithDefault
340
F
  0
DICTIONARY
  5
42
102
{ACAD_REACTORS
330
C
102
}
330
C
100
AcDbDictionary
281
     1
  3
A0
350
43
  3
A1
350
44
  3
A2
350
45
  3
A3
350
46
  3
A4
350
47
  3
A5
350
48
  3
A6
350
49
  3
A7
350
4A
  3
A8
350
4B
  3
A9
350
4C
  3
B0
350
4D
  3
B1
350
4E
  3
B2
350
4F
  3
B3
350
50
  3
B4
350
51
  3
B5
350
52
  3
B6
350
53
  0
DICTIONARY
  5
64
102
{ACAD_REACTORS
330
C
102
}
330
C
100
AcDbDictionary
281
     1
  3
Standard
350
65
  0
DICTIONARY
  5
29
102
{ACAD_REACTORS
330
C
102
}
330
C
100
AcDbDictionary
281
     1
  3
2dWireframe
350
2F
  3
Basic
350
2E
  3
Brighten
350
35
  3
ColorChange
350
39
  3
Conceptual
350
32
  3
Dim
350
34
  3
EdgeColorOff
350
41
  3
Facepattern
350
38
  3
Flat
350
2A
  3
FlatWithEdges
350
2B
  3
Gouraud
350
2C
  3
GouraudWithEdges
350
2D
  3
Hidden
350
31
  3
JitterOff
350
3F
  3
Linepattern
350
37
  3
OverhangOff
350
40
  3
Realistic
350
33
  3
Shaded
350
3E
  3
Shaded with edges
350
3D
  3
Shades of Gray
350
3A
  3
Sketchy
350
3B
  3
Thicken
350
36
  3
Wireframe
350
30
  3
X-Ray
350
3C
  0
XRECORD
  5
341
102
{ACAD_REACTORS
330
C
102
}
330
C
100
AcDbXrecord
280
     1
 90
        1
330
65
330
CD
330
D3
  0
DICTIONARY
  5
32E
102
{ACAD_REACTORS
330
C
102
}
330
C
100
AcDbDictionary
281
     1
  3
CANNOSCALE
350
332
  3
CMLEADERSTYLE
350
330
  3
CTABLESTYLE
350
32F
  3
LAYEREVAL
350
334
  3
LAYERNOTIFY
350
335
  3
LIGHTINGUNITS
350
333
  3
MSLTSCALE
350
331
  3
XCLIPFRAME
350
336
  0
XRECORD
  5
33D
102
{ACAD_REACTORS
330
33B
102
}
330
33B
100
AcDbXrecord
280
     1
 70
     4
 70
     0
 70
     0
 40
1.0
  2
部品番号
  1
Embedded Object
 10
39.99999999999993
 20
104.5
 30
0.0
 40
3.100000023841857
 41
52.04190794399206
 46
0.0
 71
     5
 72
     5
  1
VRXF-□-15~35B-S-8AM6
  7
文字スタイル12
 73
     1
 44
1.0
  0
XRECORD
  5
33C
102
{ACAD_REACTORS
330
33B
102
}
330
33B
100
AcDbXrecord
280
     1
102
ACAD_MATT_HEIGHT
140
3.100000023841857
  0
XRECORD
  5
340
102
{ACAD_REACTORS
330
33E
102
}
330
33E
100
AcDbXrecord
280
     1
 70
     2
 70
     0
 70
     0
 40
1.0
  2
部品番号
  1
Embedded Object
 10
210.0
 20
14.49999999999999
 30
0.0
 40
3.100000023841857
 41
52.04190794399206
 46
0.0
 71
     5
 72
     5
  1
VRXF-□-15~35B-S-8AM6
  7
文字スタイル12
 73
     1
 44
1.0
  0
XRECORD
  5
33F
102
{ACAD_REACTORS
330
33E
102
}
330
33E
100
AcDbXrecord
280
     1
102
ACAD_MATT_HEIGHT
140
3.100000023841857
  0
LAYOUT
  5
6B
102
{ACAD_REACTORS
330
62
102
}
330
62
100
AcDbPlotSettings
  1

  2

  4

  6

 40
0.0
 41
0.0
 42
0.0
 43
0.0
 44
0.0
 45
0.0
 46
0.0
 47
0.0
 48
0.0
 49
0.0
140
0.0
141
0.0
142
1.0
143
1.0
 70
   688
 72
     0
 73
     0
 74
     5
  7

 75
    16
147
1.0
 76
     0
 77
     2
 78
   300
148
0.0
149
0.0
100
AcDbLayout
  1
Layout1
 70
     1
 71
     1
 10
0.0
 20
0.0
 11
12.0
 21
9.0
 12
0.0
 22
0.0
 32
0.0
 14
0.0
 24
0.0
 34
0.0
 15
0.0
 25
0.0
 35
0.0
146
0.0
 13
0.0
 23
0.0
 33
0.0
 16
1.0
 26
0.0
 36
0.0
 17
0.0
 27
1.0
 37
0.0
 76
     0
330
68
  0
LAYOUT
  5
73
102
{ACAD_REACTORS
330
62
102
}
330
62
100
AcDbPlotSettings
  1

  2

  4

  6

 40
0.0
 41
0.0
 42
0.0
 43
0.0
 44
0.0
 45
0.0
 46
0.0
 47
0.0
 48
0.0
 49
0.0
140
0.0
141
0.0
142
1.0
143
1.0
 70
   688
 72
     0
 73
     0
 74
     5
  7

 75
    16
147
1.0
 76
     0
 77
     2
 78
   300
148
0.0
149
0.0
100
AcDbLayout
  1
Layout2
 70
     1
 71
     2
 10
0.0
 20
0.0
 11
12.0
 21
9.0
 12
0.0
 22
0.0
 32
0.0
 14
0.0
 24
0.0
 34
0.0
 15
0.0
 25
0.0
 35
0.0
146
0.0
 13
0.0
 23
0.0
 33
0.0
 16
1.0
 26
0.0
 36
0.0
 17
0.0
 27
1.0
 37
0.0
 76
     0
330
70
  0
LAYOUT
  5
6F
102
{ACAD_REACTORS
330
62
102
}
330
62
100
AcDbPlotSettings
  1

  2

  4

  6

 40
0.0
 41
0.0
 42
0.0
 43
0.0
 44
0.0
 45
0.0
 46
0.0
 47
0.0
 48
0.0
 49
0.0
140
0.0
141
0.0
142
1.0
143
1.0
 70
  1712
 72
     0
 73
     0
 74
     0
  7

 75
     0
147
1.0
 76
     0
 77
     2
 78
   300
148
0.0
149
0.0
100
AcDbLayout
  1
Model
 70
     1
 71
     0
 10
0.0
 20
0.0
 11
12.0
 21
9.0
 12
0.0
 22
0.0
 32
0.0
 14
0.0
 24
0.0
 34
0.0
 15
0.0
 25
0.0
 35
0.0
146
0.0
 13
0.0
 23
0.0
 33
0.0
 16
1.0
 26
0.0
 36
0.0
 17
0.0
 27
1.0
 37
0.0
 76
     0
330
6C
  0
MATERIAL
  5
19
102
{ACAD_XDICTIONARY
360
1A
102
}
102
{ACAD_REACTORS
330
10
102
}
330
10
100
AcDbMaterial
  1
ByBlock
 72
     0
 43
0.0208333333333333
 43
0.0
 43
0.0
 43
0.0
 43
0.0
 43
0.0208333333333333
 43
0.0
 43
0.0
 43
0.0
 43
0.0
 43
1.0
 43
0.0
 43
0.0
 43
0.0
 43
0.0
 43
1.0
 77
     0
 47
0.0208333333333333
 47
0.0
 47
0.0
 47
0.0
 47
0.0
 47
0.0208333333333333
 47
0.0
 47
0.0
 47
0.0
 47
0.0
 47
1.0
 47
0.0
 47
0.0
 47
0.0
 47
0.0
 47
1.0
171
     0
 49
0.0208333333333333
 49
0.0
 49
0.0
 49
0.0
 49
0.0
 49
0.0208333333333333
 49
0.0
 49
0.0
 49
0.0
 49
0.0
 49
1.0
 49
0.0
 49
0.0
 49
0.0
 49
0.0
 49
1.0
175
     0
142
0.0208333333333333
142
0.0
142
0.0
142
0.0
142
0.0
142
0.0208333333333333
142
0.0
142
0.0
142
0.0
142
0.0
142
1.0
142
0.0
142
0.0
142
0.0
142
0.0
142
1.0
179
     0
144
0.0208333333333333
144
0.0
144
0.0
144
0.0
144
0.0
144
0.0208333333333333
144
0.0
144
0.0
144
0.0
144
0.0
144
1.0
144
0.0
144
0.0
144
0.0
144
0.0
144
1.0
147
0.0208333333333333
147
0.0
147
0.0
147
0.0
147
0.0
147
0.0208333333333333
147
0.0
147
0.0
147
0.0
147
0.0
147
1.0
147
0.0
147
0.0
147
0.0
147
0.0
147
1.0
  0
MATERIAL
  5
11
102
{ACAD_XDICTIONARY
360
12
102
}
102
{ACAD_REACTORS
330
10
102
}
330
10
100
AcDbMaterial
  1
ByLayer
 72
     0
 43
0.0208333333333333
 43
0.0
 43
0.0
 43
0.0
 43
0.0
 43
0.0208333333333333
 43
0.0
 43
0.0
 43
0.0
 43
0.0
 43
1.0
 43
0.0
 43
0.0
 43
0.0
 43
0.0
 43
1.0
 77
     0
 47
0.0208333333333333
 47
0.0
 47
0.0
 47
0.0
 47
0.0
 47
0.0208333333333333
 47
0.0
 47
0.0
 47
0.0
 47
0.0
 47
1.0
 47
0.0
 47
0.0
 47
0.0
 47
0.0
 47
1.0
171
     0
 49
0.0208333333333333
 49
0.0
 49
0.0
 49
0.0
 49
0.0
 49
0.0208333333333333
 49
0.0
 49
0.0
 49
0.0
 49
0.0
 49
1.0
 49
0.0
 49
0.0
 49
0.0
 49
0.0
 49
1.0
175
     0
142
0.0208333333333333
142
0.0
142
0.0
142
0.0
142
0.0
142
0.0208333333333333
142
0.0
142
0.0
142
0.0
142
0.0
142
1.0
142
0.0
142
0.0
142
0.0
142
0.0
142
1.0
179
     0
144
0.0208333333333333
144
0.0
144
0.0
144
0.0
144
0.0
144
0.0208333333333333
144
0.0
144
0.0
144
0.0
144
0.0
144
1.0
144
0.0
144
0.0
144
0.0
144
0.0
144
1.0
147
0.0208333333333333
147
0.0
147
0.0
147
0.0
147
0.0
147
0.0208333333333333
147
0.0
147
0.0
147
0.0
147
0.0
147
1.0
147
0.0
147
0.0
147
0.0
147
0.0
147
1.0
  0
MATERIAL
  5
21
102
{ACAD_XDICTIONARY
360
22
102
}
102
{ACAD_REACTORS
330
10
102
}
330
10
100
AcDbMaterial
  1
Global
 72
     0
 43
0.0208333333333333
 43
0.0
 43
0.0
 43
0.0
 43
0.0
 43
0.0208333333333333
 43
0.0
 43
0.0
 43
0.0
 43
0.0
 43
1.0
 43
0.0
 43
0.0
 43
0.0
 43
0.0
 43
1.0
 77
     0
 47
0.0208333333333333
 47
0.0
 47
0.0
 47
0.0
 47
0.0
 47
0.0208333333333333
 47
0.0
 47
0.0
 47
0.0
 47
0.0
 47
1.0
 47
0.0
 47
0.0
 47
0.0
 47
0.0
 47
1.0
171
     0
 49
0.0208333333333333
 49
0.0
 49
0.0
 49
0.0
 49
0.0
 49
0.0208333333333333
 49
0.0
 49
0.0
 49
0.0
 49
0.0
 49
1.0
 49
0.0
 49
0.0
 49
0.0
 49
0.0
 49
1.0
175
     0
142
0.0208333333333333
142
0.0
142
0.0
142
0.0
142
0.0
142
0.0208333333333333
142
0.0
142
0.0
142
0.0
142
0.0
142
1.0
142
0.0
142
0.0
142
0.0
142
0.0
142
1.0
179
     0
144
0.0208333333333333
144
0.0
144
0.0
144
0.0
144
0.0
144
0.0208333333333333
144
0.0
144
0.0
144
0.0
144
0.0
144
1.0
144
0.0
144
0.0
144
0.0
144
0.0
144
1.0
147
0.0208333333333333
147
0.0
147
0.0
147
0.0
147
0.0
147
0.0208333333333333
147
0.0
147
0.0
147
0.0
147
0.0
147
1.0
147
0.0
147
0.0
147
0.0
147
0.0
147
1.0
  0
MLEADERSTYLE
  5
67
102
{ACAD_XDICTIONARY
360
339
102
}
102
{ACAD_REACTORS
330
66
102
}
330
66
100
AcDbMLeaderStyle
170
     2
171
     1
172
     0
 90
        2
 40
0.0
 41
0.0
173
     1
 91
-1056964608
340
5B
 92
       -2
290
     1
 42
0.09
291
     1
 43
0.36
  3
Standard
 44
0.18
300

342
55
174
     1
178
     6
175
     1
176
     0
 93
-1056964608
 45
0.18
292
     0
297
     0
 46
0.18
 94
-1056964608
 47
1.0
 49
1.0
140
1.0
293
     1
141
0.0
294
     1
177
     0
142
1.0
295
     0
296
     0
143
0.125
1001
ACAD_MLEADERVER
1070
     2
  0
MLINESTYLE
  5
60
102
{ACAD_REACTORS
330
5F
102
}
330
5F
100
AcDbMlineStyle
  2
STANDARD
 70
     0
  3

 62
   256
 51
90.0
 52
90.0
 71
     2
 49
0.5
 62
   256
  6
BYLAYER
 49
-0.5
 62
   256
  6
BYLAYER
  0
ACDBPLACEHOLDER
  5
F
102
{ACAD_REACTORS
330
E
102
}
330
E
  0
SCALE
  5
43
102
{ACAD_REACTORS
330
42
102
}
330
42
100
AcDbScale
 70
     0
300
1:1
140
1.0
141
1.0
290
     1
  0
SCALE
  5
44
102
{ACAD_REACTORS
330
42
102
}
330
42
100
AcDbScale
 70
     0
300
1/128" = 1'-0"
140
0.0078125
141
12.0
290
     0
  0
SCALE
  5
45
102
{ACAD_REACTORS
330
42
102
}
330
42
100
AcDbScale
 70
     0
300
1/64" = 1'-0"
140
0.015625
141
12.0
290
     0
  0
SCALE
  5
46
102
{ACAD_REACTORS
330
42
102
}
330
42
100
AcDbScale
 70
     0
300
1/32" = 1'-0"
140
0.03125
141
12.0
290
     0
  0
SCALE
  5
47
102
{ACAD_REACTORS
330
42
102
}
330
42
100
AcDbScale
 70
     0
300
1/16" = 1'-0"
140
0.0625
141
12.0
290
     0
  0
SCALE
  5
48
102
{ACAD_REACTORS
330
42
102
}
330
42
100
AcDbScale
 70
     0
300
3/32" = 1'-0"
140
0.09375
141
12.0
290
     0
  0
SCALE
  5
49
102
{ACAD_REACTORS
330
42
102
}
330
42
100
AcDbScale
 70
     0
300
1/8" = 1'-0"
140
0.125
141
12.0
290
     0
  0
SCALE
  5
4A
102
{ACAD_REACTORS
330
42
102
}
330
42
100
AcDbScale
 70
     0
300
3/16" = 1'-0"
140
0.1875
141
12.0
290
     0
  0
SCALE
  5
4B
102
{ACAD_REACTORS
330
42
102
}
330
42
100
AcDbScale
 70
     0
300
1/4" = 1'-0"
140
0.25
141
12.0
290
     0
  0
SCALE
  5
4C
102
{ACAD_REACTORS
330
42
102
}
330
42
100
AcDbScale
 70
     0
300
3/8" = 1'-0"
140
0.375
141
12.0
290
     0
  0
SCALE
  5
4D
102
{ACAD_REACTORS
330
42
102
}
330
42
100
AcDbScale
 70
     0
300
1/2" = 1'-0"
140
0.5
141
12.0
290
     0
  0
SCALE
  5
4E
102
{ACAD_REACTORS
330
42
102
}
330
42
100
AcDbScale
 70
     0
300
3/4" = 1'-0"
140
0.75
141
12.0
290
     0
  0
SCALE
  5
4F
102
{ACAD_REACTORS
330
42
102
}
330
42
100
AcDbScale
 70
     0
300
1" = 1'-0"
140
1.0
141
12.0
290
     0
  0
SCALE
  5
50
102
{ACAD_REACTORS
330
42
102
}
330
42
100
AcDbScale
 70
     0
300
1-1/2" = 1'-0"
140
1.5
141
12.0
290
     0
  0
SCALE
  5
51
102
{ACAD_REACTORS
330
42
102
}
330
42
100
AcDbScale
 70
     0
300
3" = 1'-0"
140
3.0
141
12.0
290
     0
  0
SCALE
  5
52
102
{ACAD_REACTORS
330
42
102
}
330
42
100
AcDbScale
 70
     0
300
6" = 1'-0"
140
6.0
141
12.0
290
     0
  0
SCALE
  5
53
102
{ACAD_REACTORS
330
42
102
}
330
42
100
AcDbScale
 70
     0
300
1'-0" = 1'-0"
140
12.0
141
12.0
290
     0
  0
TABLESTYLE
  5
65
102
{ACAD_XDICTIONARY
360
337
102
}
102
{ACAD_REACTORS
330
64
102
}
330
64
100
AcDbTableStyle
  3
Standard
 70
     0
 71
     0
 40
0.06
 41
0.06
280
     0
281
     0
  7
Standard
140
0.18
170
     2
 62
     0
 63
     7
283
     0
274
    -2
284
     1
 64
     0
275
    -2
285
     1
 65
     0
276
    -2
286
     1
 66
     0
277
    -2
287
     1
 67
     0
278
    -2
288
     1
 68
     0
279
    -2
289
     1
 69
     0
  7
Standard
140
0.25
170
     5
 62
     0
 63
     7
283
     0
274
    -2
284
     1
 64
     0
275
    -2
285
     1
 65
     0
276
    -2
286
     1
 66
     0
277
    -2
287
     1
 67
     0
278
    -2
288
     1
 68
     0
279
    -2
289
     1
 69
     0
  7
Standard
140
0.18
170
     5
 62
     0
 63
     7
283
     0
274
    -2
284
     1
 64
     0
275
    -2
285
     1
 65
     0
276
    -2
286
     1
 66
     0
277
    -2
287
     1
 67
     0
278
    -2
288
     1
 68
     0
279
    -2
289
     1
 69
     0
  0
VISUALSTYLE
  5
2F
102
{ACAD_XDICTIONARY
360
34F
102
}
102
{ACAD_REACTORS
330
29
102
}
330
29
100
AcDbVisualStyle
  2
2dWireframe
 70
     4
 71
     0
 72
     2
 73
     0
 90
        0
 40
-0.6
 41
-30.0
 62
     5
 63
     7
421
 16777215
 74
     1
 91
        4
 64
     7
 65
   257
 75
     1
175
     1
 42
1.0
 92
        0
 66
   257
 43
1.0
 76
     1
 77
     6
 78
     2
 67
     7
 79
     5
170
     0
171
     0
290
     0
174
     0
 93
        1
 44
0.0
173
     0
291
     0
 45
0.0
1001
ACAD
1000
AcDbSavedByObjectVersion
1070
     0
  0
VISUALSTYLE
  5
2E
102
{ACAD_XDICTIONARY
360
34D
102
}
102
{ACAD_REACTORS
330
29
102
}
330
29
100
AcDbVisualStyle
  2
Basic
 70
     7
 71
     1
 72
     0
 73
     1
 90
        0
 40
-0.6
 41
-30.0
 62
     5
 63
     7
421
 16777215
 74
     0
 91
        4
 64
     7
 65
   257
 75
     1
175
     1
 42
1.0
 92
        8
 66
     7
 43
1.0
 76
     1
 77
     6
 78
     2
 67
     7
 79
     5
170
     0
171
     0
290
     0
174
     0
 93
        1
 44
0.0
173
     0
291
     1
 45
0.0
1001
ACAD
1000
AcDbSavedByObjectVersion
1070
     0
  0
VISUALSTYLE
  5
35
102
{ACAD_XDICTIONARY
360
35B
102
}
102
{ACAD_REACTORS
330
29
102
}
330
29
100
AcDbVisualStyle
  2
Brighten
 70
    12
 71
     2
 72
     2
 73
     0
 90
        0
 40
-0.6
 41
-30.0
 62
     5
 63
     7
421
 16777215
 74
     1
 91
        4
 64
     7
 65
   257
 75
     1
175
     1
 42
1.0
 92
        8
 66
     7
 43
1.0
 76
     1
 77
     6
 78
     2
 67
     7
 79
     5
170
     0
171
     0
290
     0
174
     0
 93
        1
 44
50.0
173
     0
291
     1
 45
0.0
1001
ACAD
1000
AcDbSavedByObjectVersion
1070
     0
  0
VISUALSTYLE
  5
39
102
{ACAD_XDICTIONARY
360
363
102
}
102
{ACAD_REACTORS
330
29
102
}
330
29
100
AcDbVisualStyle
  2
ColorChange
 70
    16
 71
     2
 72
     2
 73
     3
 90
        0
 40
-0.6
 41
-30.0
 62
     5
 63
     8
421
  8421504
 74
     1
 91
        4
 64
     7
 65
   257
 75
     1
175
     1
 42
1.0
 92
        8
 66
     8
424
  8421504
 43
1.0
 76
     1
 77
     6
 78
     2
 67
     7
 79
     5
170
     0
171
     0
290
     0
174
     0
 93
        1
 44
0.0
173
     0
291
     1
 45
0.0
1001
ACAD
1000
AcDbSavedByObjectVersion
1070
     0
  0
VISUALSTYLE
  5
32
102
{ACAD_XDICTIONARY
360
355
102
}
102
{ACAD_REACTORS
330
29
102
}
330
29
100
AcDbVisualStyle
  2
Conceptual
 70
     9
 71
     3
 72
     2
 73
     0
 90
        0
 40
-0.6
 41
-30.0
 62
     5
 63
     7
421
 16777215
 74
     2
 91
        2
 64
     7
 65
   257
 75
     1
175
     1
 42
179.0
 92
        8
 66
     7
 43
1.0
 76
     1
 77
     6
 78
     2
 67
     7
 79
     3
170
     0
171
     0
290
     0
174
     0
 93
        1
 44
0.0
173
     0
291
     0
 45
0.0
1001
ACAD
1000
AcDbSavedByObjectVersion
1070
     0
  0
VISUALSTYLE
  5
34
102
{ACAD_XDICTIONARY
360
359
102
}
102
{ACAD_REACTORS
330
29
102
}
330
29
100
AcDbVisualStyle
  2
Dim
 70
    11
 71
     2
 72
     2
 73
     0
 90
        0
 40
-0.6
 41
-30.0
 62
     5
 63
     7
421
 16777215
 74
     1
 91
        4
 64
     7
 65
   257
 75
     1
175
     1
 42
1.0
 92
        8
 66
     7
 43
1.0
 76
     1
 77
     6
 78
     2
 67
     7
 79
     5
170
     0
171
     0
290
     0
174
     0
 93
        1
 44
-50.0
173
     0
291
     1
 45
0.0
1001
ACAD
1000
AcDbSavedByObjectVersion
1070
     0
  0
VISUALSTYLE
  5
41
102
{ACAD_XDICTIONARY
360
373
102
}
102
{ACAD_REACTORS
330
29
102
}
330
29
100
AcDbVisualStyle
  2
EdgeColorOff
 70
    22
 71
     2
 72
     2
 73
     0
 90
        0
 40
-0.6
 41
-30.0
 62
     5
 63
     7
421
 16777215
 74
     1
 91
        4
 64
     7
 65
   257
 75
     1
175
     1
 42
1.0
 92
        8
 66
     7
 43
1.0
 76
     1
 77
     6
 78
     2
 67
     7
 79
     5
170
     0
171
     0
290
     0
174
     0
 93
        1
 44
0.0
173
     0
291
     1
 45
0.0
1001
ACAD
1000
AcDbSavedByObjectVersion
1070
     0
  0
VISUALSTYLE
  5
38
102
{ACAD_XDICTIONARY
360
361
102
}
102
{ACAD_REACTORS
330
29
102
}
330
29
100
AcDbVisualStyle
  2
Facepattern
 70
    15
 71
     2
 72
     2
 73
     0
 90
        0
 40
-0.6
 41
-30.0
 62
     5
 63
     7
421
 16777215
 74
     1
 91
        4
 64
     7
 65
   257
 75
     1
175
     1
 42
1.0
 92
        8
 66
     7
 43
1.0
 76
     1
 77
     6
 78
     2
 67
     7
 79
     5
170
     0
171
     0
290
     0
174
     0
 93
        1
 44
0.0
173
     0
291
     1
 45
0.0
1001
ACAD
1000
AcDbSavedByObjectVersion
1070
     0
  0
VISUALSTYLE
  5
2A
102
{ACAD_XDICTIONARY
360
345
102
}
102
{ACAD_REACTORS
330
29
102
}
330
29
100
AcDbVisualStyle
  2
Flat
 70
     0
 71
     2
 72
     1
 73
     1
 90
        2
 40
-0.6
 41
30.0
 62
     5
 63
     7
421
 16777215
 74
     0
 91
        0
 64
     7
 65
   257
 75
     1
175
     1
 42
1.0
 92
        8
 66
     7
 43
1.0
 76
     1
 77
     6
 78
     2
 67
     7
 79
     5
170
     0
171
     0
290
     0
174
     0
 93
       13
 44
0.0
173
     0
291
     1
 45
0.0
1001
ACAD
1000
AcDbSavedByObjectVersion
1070
     0
  0
VISUALSTYLE
  5
2B
102
{ACAD_XDICTIONARY
360
347
102
}
102
{ACAD_REACTORS
330
29
102
}
330
29
100
AcDbVisualStyle
  2
FlatWithEdges
 70
     1
 71
     2
 72
     1
 73
     1
 90
        2
 40
-0.6
 41
30.0
 62
     5
 63
     7
421
 16777215
 74
     1
 91
        0
 64
     7
 65
   257
 75
     1
175
     1
 42
1.0
 92
        0
 66
   257
 43
1.0
 76
     1
 77
     6
 78
     2
 67
     7
 79
     5
170
     0
171
     0
290
     0
174
     0
 93
       13
 44
0.0
173
     0
291
     1
 45
0.0
1001
ACAD
1000
AcDbSavedByObjectVersion
1070
     0
  0
VISUALSTYLE
  5
2C
102
{ACAD_XDICTIONARY
360
349
102
}
102
{ACAD_REACTORS
330
29
102
}
330
29
100
AcDbVisualStyle
  2
Gouraud
 70
     2
 71
     2
 72
     2
 73
     1
 90
        2
 40
-0.6
 41
30.0
 62
     5
 63
     7
421
 16777215
 74
     0
 91
        0
 64
     7
 65
   257
 75
     1
175
     1
 42
1.0
 92
        0
 66
     7
 43
1.0
 76
     1
 77
     6
 78
     2
 67
     7
 79
     5
170
     0
171
     0
290
     0
174
     0
 93
       13
 44
0.0
173
     0
291
     1
 45
0.0
1001
ACAD
1000
AcDbSavedByObjectVersion
1070
     0
  0
VISUALSTYLE
  5
2D
102
{ACAD_XDICTIONARY
360
34B
102
}
102
{ACAD_REACTORS
330
29
102
}
330
29
100
AcDbVisualStyle
  2
GouraudWithEdges
 70
     3
 71
     2
 72
     2
 73
     1
 90
        2
 40
-0.6
 41
30.0
 62
     5
 63
     7
421
 16777215
 74
     1
 91
        0
 64
     7
 65
   257
 75
     1
175
     1
 42
1.0
 92
        0
 66
   257
 43
1.0
 76
     1
 77
     6
 78
     2
 67
     7
 79
     5
170
     0
171
     0
290
     0
174
     0
 93
       13
 44
0.0
173
     0
291
     1
 45
0.0
1001
ACAD
1000
AcDbSavedByObjectVersion
1070
     0
  0
VISUALSTYLE
  5
31
102
{ACAD_XDICTIONARY
360
353
102
}
102
{ACAD_REACTORS
330
29
102
}
330
29
100
AcDbVisualStyle
  2
Hidden
 70
     6
 71
     1
 72
     2
 73
     2
 90
        0
 40
-0.6
 41
-30.0
 62
     5
 63
     7
421
 16777215
 74
     2
 91
        2
 64
     7
 65
   257
 75
     2
175
     1
 42
40.0
 92
        0
 66
   257
 43
1.0
 76
     1
 77
     6
 78
     2
 67
     7
 79
     3
170
     0
171
     0
290
     0
174
     0
 93
        1
 44
0.0
173
     0
291
     0
 45
0.0
1001
ACAD
1000
AcDbSavedByObjectVersion
1070
     0
  0
VISUALSTYLE
  5
3F
102
{ACAD_XDICTIONARY
360
36F
102
}
102
{ACAD_REACTORS
330
29
102
}
330
29
100
AcDbVisualStyle
  2
JitterOff
 70
    20
 71
     2
 72
     2
 73
     0
 90
        0
 40
-0.6
 41
-30.0
 62
     5
 63
     7
421
 16777215
 74
     1
 91
        4
 64
     7
 65
   257
 75
     1
175
     1
 42
1.0
 92
       10
 66
     7
 43
1.0
 76
     1
 77
     6
 78
     2
 67
     7
 79
     5
170
     0
171
     0
290
     0
174
     0
 93
        1
 44
0.0
173
     0
291
     1
 45
0.0
1001
ACAD
1000
AcDbSavedByObjectVersion
1070
     0
  0
VISUALSTYLE
  5
37
102
{ACAD_XDICTIONARY
360
35F
102
}
102
{ACAD_REACTORS
330
29
102
}
330
29
100
AcDbVisualStyle
  2
Linepattern
 70
    14
 71
     2
 72
     2
 73
     0
 90
        0
 40
-0.6
 41
-30.0
 62
     5
 63
     7
421
 16777215
 74
     1
 91
        4
 64
     7
 65
   257
 75
     7
175
     7
 42
1.0
 92
        8
 66
     7
 43
1.0
 76
     1
 77
     6
 78
     2
 67
     7
 79
     5
170
     0
171
     0
290
     0
174
     0
 93
        1
 44
0.0
173
     0
291
     1
 45
0.0
1001
ACAD
1000
AcDbSavedByObjectVersion
1070
     0
  0
VISUALSTYLE
  5
40
102
{ACAD_XDICTIONARY
360
371
102
}
102
{ACAD_REACTORS
330
29
102
}
330
29
100
AcDbVisualStyle
  2
OverhangOff
 70
    21
 71
     2
 72
     2
 73
     0
 90
        0
 40
-0.6
 41
-30.0
 62
     5
 63
     7
421
 16777215
 74
     1
 91
        4
 64
     7
 65
   257
 75
     1
175
     1
 42
1.0
 92
        9
 66
     7
 43
1.0
 76
     1
 77
     6
 78
     2
 67
     7
 79
     5
170
     0
171
     0
290
     0
174
     0
 93
        1
 44
0.0
173
     0
291
     1
 45
0.0
1001
ACAD
1000
AcDbSavedByObjectVersion
1070
     0
  0
VISUALSTYLE
  5
33
102
{ACAD_XDICTIONARY
360
357
102
}
102
{ACAD_REACTORS
330
29
102
}
330
29
100
AcDbVisualStyle
  2
Realistic
 70
     8
 71
     2
 72
     3
 73
     0
 90
        2
 40
-0.6
 41
30.0
 62
     5
 63
     7
421
 16777215
 74
     0
 91
        0
 64
     7
 65
   257
 75
     1
175
     1
 42
1.0
 92
        8
 66
   257
 43
1.0
 76
     1
 77
     6
 78
     2
 67
     7
 79
     3
170
     0
171
     0
290
     0
174
     0
 93
       13
 44
0.0
173
     0
291
     0
 45
0.0
1001
ACAD
1000
AcDbSavedByObjectVersion
1070
     0
  0
VISUALSTYLE
  5
3E
102
{ACAD_XDICTIONARY
360
36D
102
}
102
{ACAD_REACTORS
330
29
102
}
330
29
100
AcDbVisualStyle
  2
Shaded
 70
    27
 71
     2
 72
     2
 73
     1
 90
        2
 40
-0.6
 41
30.0
 62
     5
 63
     7
421
 16777215
 74
     0
 91
        4
 64
     7
 65
   257
 75
     1
175
     1
 42
1.0
 92
        8
 66
   257
 43
1.0
 76
     1
 77
     6
 78
     2
 67
     8
425
  7895160
 79
     3
170
     0
171
     0
290
     0
174
     0
 93
        5
 44
0.0
173
     0
291
     0
 45
0.0
1001
ACAD
1000
AcDbSavedByObjectVersion
1070
     0
  0
VISUALSTYLE
  5
3D
102
{ACAD_XDICTIONARY
360
36B
102
}
102
{ACAD_REACTORS
330
29
102
}
330
29
100
AcDbVisualStyle
  2
Shaded with edges
 70
    26
 71
     2
 72
     2
 73
     1
 90
        2
 40
-0.6
 41
30.0
 62
     5
 63
     7
421
 16777215
 74
     1
 91
       10
 64
     7
 65
   257
 75
     2
175
     1
 42
1.0
 92
        8
 66
   257
 43
1.0
 76
     1
 77
     6
 78
     2
 67
     7
 79
     3
170
     0
171
     0
290
     0
174
     0
 93
        5
 44
0.0
173
     0
291
     0
 45
0.0
1001
ACAD
1000
AcDbSavedByObjectVersion
1070
     0
  0
VISUALSTYLE
  5
3A
102
{ACAD_XDICTIONARY
360
365
102
}
102
{ACAD_REACTORS
330
29
102
}
330
29
100
AcDbVisualStyle
  2
Shades of Gray
 70
    23
 71
     2
 72
     2
 73
     3
 90
        0
 40
-0.6
 41
-30.0
 62
     5
 63
     7
421
 16777215
 74
     2
 91
        2
 64
     7
 65
     7
 75
     1
175
     1
 42
40.0
 92
        8
 66
     7
 43
1.0
 76
     1
 77
     6
 78
     2
 67
     7
 79
     3
170
     0
171
     0
290
     0
174
     0
 93
        1
 44
0.0
173
     0
291
     0
 45
0.0
1001
ACAD
1000
AcDbSavedByObjectVersion
1070
     0
  0
VISUALSTYLE
  5
3B
102
{ACAD_XDICTIONARY
360
367
102
}
102
{ACAD_REACTORS
330
29
102
}
330
29
100
AcDbVisualStyle
  2
Sketchy
 70
    24
 71
     1
 72
     2
 73
     2
 90
        0
 40
-0.6
 41
-30.0
 62
     5
 63
     7
421
 16777215
 74
     2
 91
        2
 64
     7
 65
     7
 75
     1
175
     1
 42
40.0
 92
       11
 66
     7
 43
1.0
 76
     1
 77
     6
 78
     2
 67
     7
 79
     6
170
     0
171
     0
290
     0
174
     0
 93
        1
 44
0.0
173
     0
291
     0
 45
0.0
1001
ACAD
1000
AcDbSavedByObjectVersion
1070
     0
  0
VISUALSTYLE
  5
36
102
{ACAD_XDICTIONARY
360
35D
102
}
102
{ACAD_REACTORS
330
29
102
}
330
29
100
AcDbVisualStyle
  2
Thicken
 70
    13
 71
     2
 72
     2
 73
     0
 90
        0
 40
-0.6
 41
-30.0
 62
     5
 63
     7
421
 16777215
 74
     1
 91
        4
 64
     7
 65
   257
 75
     1
175
     1
 42
1.0
 92
       12
 66
     7
 43
1.0
 76
     1
 77
     6
 78
     2
 67
     7
 79
     5
170
     0
171
     0
290
     0
174
     0
 93
        1
 44
0.0
173
     0
291
     1
 45
0.0
1001
ACAD
1000
AcDbSavedByObjectVersion
1070
     0
  0
VISUALSTYLE
  5
30
102
{ACAD_XDICTIONARY
360
351
102
}
102
{ACAD_REACTORS
330
29
102
}
330
29
100
AcDbVisualStyle
  2
Wireframe
 70
     5
 71
     0
 72
     2
 73
     0
 90
        0
 40
-0.6
 41
-30.0
 62
     5
 63
     7
421
 16777215
 74
     1
 91
        4
 64
     7
 65
   257
 75
     1
175
     1
 42
1.0
 92
        0
 66
   257
 43
1.0
 76
     1
 77
     6
 78
     2
 67
     7
 79
     3
170
     0
171
     0
290
     0
174
     0
 93
        1
 44
0.0
173
     0
291
     0
 45
0.0
1001
ACAD
1000
AcDbSavedByObjectVersion
1070
     0
  0
VISUALSTYLE
  5
3C
102
{ACAD_XDICTIONARY
360
369
102
}
102
{ACAD_REACTORS
330
29
102
}
330
29
100
AcDbVisualStyle
  2
X-Ray
 70
    25
 71
     2
 72
     2
 73
     1
 90
        1
 40
0.5
 41
-30.0
 62
     5
 63
     7
421
 16777215
 74
     1
 91
        0
 64
     7
 65
   257
 75
     1
175
     1
 42
1.0
 92
        8
 66
     7
 43
1.0
 76
     1
 77
     6
 78
     2
 67
     7
 79
     3
170
     0
171
     0
290
     0
174
     0
 93
       13
 44
0.0
173
     0
291
     0
 45
0.0
1001
ACAD
1000
AcDbSavedByObjectVersion
1070
     0
  0
DICTIONARYVAR
  5
332
102
{ACAD_REACTORS
330
32E
102
}
330
32E
100
DictionaryVariables
280
     0
  1
1:1
  0
DICTIONARYVAR
  5
330
102
{ACAD_REACTORS
330
32E
102
}
330
32E
100
DictionaryVariables
280
     0
  1
STANDARD
  0
DICTIONARYVAR
  5
32F
102
{ACAD_REACTORS
330
32E
102
}
330
32E
100
DictionaryVariables
280
     0
  1
STANDARD
  0
DICTIONARYVAR
  5
334
102
{ACAD_REACTORS
330
32E
102
}
330
32E
100
DictionaryVariables
280
     0
  1
0
  0
DICTIONARYVAR
  5
335
102
{ACAD_REACTORS
330
32E
102
}
330
32E
100
DictionaryVariables
280
     0
  1
0
  0
DICTIONARYVAR
  5
333
102
{ACAD_REACTORS
330
32E
102
}
330
32E
100
DictionaryVariables
280
     0
  1
2
  0
DICTIONARYVAR
  5
331
102
{ACAD_REACTORS
330
32E
102
}
330
32E
100
DictionaryVariables
280
     0
  1
1
  0
DICTIONARYVAR
  5
336
102
{ACAD_REACTORS
330
32E
102
}
330
32E
100
DictionaryVariables
280
     0
  1
2
  0
DICTIONARY
  5
1A
330
19
100
AcDbDictionary
280
     1
281
     1
  3
ACAD_XREC_ROUNDTRIP
360
343
  3
BUMPTILE
360
1C
  3
DIFFUSETILE
360
1B
  3
OPACITYTILE
360
1F
  3
REFLECTIONTILE
360
1E
  3
REFRACTIONTILE
360
20
  3
SPECULARTILE
360
1D
  0
DICTIONARY
  5
12
330
11
100
AcDbDictionary
280
     1
281
     1
  3
ACAD_XREC_ROUNDTRIP
360
342
  3
BUMPTILE
360
14
  3
DIFFUSETILE
360
13
  3
FBXASSET
360
AC
  3
OPACITYTILE
360
17
  3
REFLECTIONTILE
360
16
  3
REFRACTIONTILE
360
18
  3
SPECULARTILE
360
15
  0
DICTIONARY
  5
22
330
21
100
AcDbDictionary
280
     1
281
     1
  3
ACAD_XREC_ROUNDTRIP
360
344
  3
BUMPTILE
360
24
  3
DIFFUSETILE
360
23
  3
OPACITYTILE
360
27
  3
REFLECTIONTILE
360
26
  3
REFRACTIONTILE
360
28
  3
SPECULARTILE
360
25
  0
DICTIONARY
  5
339
330
67
100
AcDbDictionary
280
     1
281
     1
  3
ACAD_XREC_ROUNDTRIP
360
33A
  0
DICTIONARY
  5
337
330
65
100
AcDbDictionary
280
     1
281
     1
  3
ACAD_ROUNDTRIP_2008_TABLESTYLE_CELLSTYLEMAP
360
338
  3
ACAD_XREC_ROUNDTRIP
360
375
  0
DICTIONARY
  5
34F
330
2F
100
AcDbDictionary
280
     1
281
     1
  3
ACAD_XREC_ROUNDTRIP
360
350
  0
DICTIONARY
  5
34D
330
2E
100
AcDbDictionary
280
     1
281
     1
  3
ACAD_XREC_ROUNDTRIP
360
34E
  0
DICTIONARY
  5
35B
330
35
100
AcDbDictionary
280
     1
281
     1
  3
ACAD_XREC_ROUNDTRIP
360
35C
  0
DICTIONARY
  5
363
330
39
100
AcDbDictionary
280
     1
281
     1
  3
ACAD_XREC_ROUNDTRIP
360
364
  0
DICTIONARY
  5
355
330
32
100
AcDbDictionary
280
     1
281
     1
  3
ACAD_XREC_ROUNDTRIP
360
356
  0
DICTIONARY
  5
359
330
34
100
AcDbDictionary
280
     1
281
     1
  3
ACAD_XREC_ROUNDTRIP
360
35A
  0
DICTIONARY
  5
373
330
41
100
AcDbDictionary
280
     1
281
     1
  3
ACAD_XREC_ROUNDTRIP
360
374
  0
DICTIONARY
  5
361
330
38
100
AcDbDictionary
280
     1
281
     1
  3
ACAD_XREC_ROUNDTRIP
360
362
  0
DICTIONARY
  5
345
330
2A
100
AcDbDictionary
280
     1
281
     1
  3
ACAD_XREC_ROUNDTRIP
360
346
  0
DICTIONARY
  5
347
330
2B
100
AcDbDictionary
280
     1
281
     1
  3
ACAD_XREC_ROUNDTRIP
360
348
  0
DICTIONARY
  5
349
330
2C
100
AcDbDictionary
280
     1
281
     1
  3
ACAD_XREC_ROUNDTRIP
360
34A
  0
DICTIONARY
  5
34B
330
2D
100
AcDbDictionary
280
     1
281
     1
  3
ACAD_XREC_ROUNDTRIP
360
34C
  0
DICTIONARY
  5
353
330
31
100
AcDbDictionary
280
     1
281
     1
  3
ACAD_XREC_ROUNDTRIP
360
354
  0
DICTIONARY
  5
36F
330
3F
100
AcDbDictionary
280
     1
281
     1
  3
ACAD_XREC_ROUNDTRIP
360
370
  0
DICTIONARY
  5
35F
330
37
100
AcDbDictionary
280
     1
281
     1
  3
ACAD_XREC_ROUNDTRIP
360
360
  0
DICTIONARY
  5
371
330
40
100
AcDbDictionary
280
     1
281
     1
  3
ACAD_XREC_ROUNDTRIP
360
372
  0
DICTIONARY
  5
357
330
33
100
AcDbDictionary
280
     1
281
     1
  3
ACAD_XREC_ROUNDTRIP
360
358
  0
DICTIONARY
  5
36D
330
3E
100
AcDbDictionary
280
     1
281
     1
  3
ACAD_XREC_ROUNDTRIP
360
36E
  0
DICTIONARY
  5
36B
330
3D
100
AcDbDictionary
280
     1
281
     1
  3
ACAD_XREC_ROUNDTRIP
360
36C
  0
DICTIONARY
  5
365
330
3A
100
AcDbDictionary
280
     1
281
     1
  3
ACAD_XREC_ROUNDTRIP
360
366
  0
DICTIONARY
  5
367
330
3B
100
AcDbDictionary
280
     1
281
     1
  3
ACAD_XREC_ROUNDTRIP
360
368
  0
DICTIONARY
  5
35D
330
36
100
AcDbDictionary
280
     1
281
     1
  3
ACAD_XREC_ROUNDTRIP
360
35E
  0
DICTIONARY
  5
351
330
30
100
AcDbDictionary
280
     1
281
     1
  3
ACAD_XREC_ROUNDTRIP
360
352
  0
DICTIONARY
  5
369
330
3C
100
AcDbDictionary
280
     1
281
     1
  3
ACAD_XREC_ROUNDTRIP
360
36A
  0
XRECORD
  5
343
102
{ACAD_REACTORS
330
1A
102
}
330
1A
100
AcDbXrecord
280
     1
102
MATERIAL
148
0.0
149
0.0
149
0.0
 93
        0
 94
      127
282
     0
 72
     0
 77
     0
171
     0
175
     0
179
     0
273
     0
  0
XRECORD
  5
1C
102
{ACAD_REACTORS
330
1A
102
}
330
1A
100
AcDbXrecord
280
     1
270
     1
271
     1
  0
XRECORD
  5
1B
102
{ACAD_REACTORS
330
1A
102
}
330
1A
100
AcDbXrecord
280
     1
270
     1
271
     1
  0
XRECORD
  5
1F
102
{ACAD_REACTORS
330
1A
102
}
330
1A
100
AcDbXrecord
280
     1
270
     1
271
     1
  0
XRECORD
  5
1E
102
{ACAD_REACTORS
330
1A
102
}
330
1A
100
AcDbXrecord
280
     1
270
     1
271
     1
  0
XRECORD
  5
20
102
{ACAD_REACTORS
330
1A
102
}
330
1A
100
AcDbXrecord
280
     1
270
     1
271
     1
  0
XRECORD
  5
1D
102
{ACAD_REACTORS
330
1A
102
}
330
1A
100
AcDbXrecord
280
     1
270
     1
271
     1
  0
XRECORD
  5
342
102
{ACAD_REACTORS
330
12
102
}
330
12
100
AcDbXrecord
280
     1
102
MATERIAL
148
0.0
149
0.0
149
0.0
 93
        0
 94
      127
282
     0
 72
     0
 77
     0
171
     0
175
     0
179
     0
273
     0
  0
XRECORD
  5
14
102
{ACAD_REACTORS
330
12
102
}
330
12
100
AcDbXrecord
280
     1
270
     1
271
     1
  0
XRECORD
  5
13
102
{ACAD_REACTORS
330
12
102
}
330
12
100
AcDbXrecord
280
     1
270
     1
271
     1
  0
XRECORD
  5
AC
102
{ACAD_REACTORS
330
12
102
}
330
12
100
AcDbXrecord
280
     1
 70
     1
 90
1959938040
 71
     1
  1
31BE3131-D751-4528-9239-30CE237F85D8
311
504B03040A000008000076782F483DEE336E79000000790000001B0000006175746F6465736B2D64657369676E2D7061636B6167652E786D6C3C3F786D6C2076657273696F6E3D22312E302220656E636F64696E673D227574662D3822203F3E3C666F726D6174733E3C666F726D61743E687474703A2F2F736368656D612E
311
6175746F6465736B2E636F6D2F64657369676E2D7061636B6167652F323030393C2F666F726D61743E3C2F666F726D6174733E504B030414000608080076782F48D486FD9CA0000000F4000000130000005B436F6E74656E745F54797065735D2E786D6C7D8EC10E82300C865F65E91D8A1E8C310C0EEA1BF002731658846E
311
D98AC1B77784ABF1D8FE5FBFBF75BBCE937A534CCEB38643598122B6FEE978D0B0485F9C41B54DDD7D022595594E1A469170414C76A4D9A4D207E29CF43ECE46F218070CC6BECC4078ACAA135ACF422C856C0E68EA1BF5669944DDD7BCDE7B1F8E415D77AECB980613C2E4AC91FC167A2B244592486606FC29C8FD7F045B9A
311
EF7053A7E60B504B030414000608080076782F48E800A1EBEA0000007C01000008000000636F72652E786D6C8D904D6EC3201085AF82665B61837FD2C4C24458754FD00B204C5C94182C03558F5F481CA9DD7535A337EF9B193D76FE5E6EE84B6FDE38DB032D08206D959B8C9D7B88E1828F80CE9C6DCE855F3640562EBA87
311
2C0367F3E6E2BA4BCAD9A06D48AA7593DE45E9BD0E80D42D353D78F5A91759C81892C35F8B55AAAB9C75419F5D826334137A1C3153DA672E466FC0C95BD534C34960F12E286E0421F8D88E031E0FAFF538886A1494B232C39C05B33CEFAB4DCBA027E015A1074C28A6ED076D3B52774DFB424E1D21ACCCF63F505CA77F42D1
311
D85057FBBB0FCC03CF8FDC079C95398B54EE41A59A73E33F504B030414000608080076782F4855019EA25F0000007C00000007000000636E782E786D6C4DCB3B0E80201045D1AD90E915ED2CF8AC45050C11660C8261F98AB1B07AC9C97D42D718D865D3E909258CFD00CCE24AC6E326A164D74DC0B4128928FF326038472B
311
A13128B1252AC747C6BAB984FC68F0B87FE8960A5C09FE86CFB69FBA01504B030414000608080076782F48B3D31D1267010000020300000C0000006662782F636F72652E786D6C8D525B6E833010BC8AE5DF0A6C13489BC838222A3D412FE0804351C046C646397E9747445345518464AC999DDDD9017EB8B60D1A94ED6BA3
311
53CC428A91D285296B5DA5D8BB73F081D141706B8CFB53869196AD4AF10863C12B6B7CB74085D14E6907A836A55A40D9F7CA6154347049715FFCA85686D23BA8E82F61278B8BAC54C842A0A14EF0DE593080E621E389C5F974E564C605F7BE2E17B62E615A7DAE95C5827E46717CDC6541F695B120CE280D3E92FC18E4DBF7
311
4D7ECCA23C638C93512CB8ABDB9BBBC22AE954894544D936A02C60C9374BF674B38F9337BADB53CAC9587E27F25DF9A2C8D7DA6DA2C5EE2CEBB1188D4CC4BF6D2122877A39801F2238194384D794F07DD0100884ECE4A9B9ED7101685085333606A6347EA506D9780553299A1E4E66163A4F0D60B3877DA2277D9EF7800F28
311
7505D6A483EBC9BB713A9FA72E5174CA0683BB226D6C2B9BD5DC6C713DD7410FE585698C7D454D9655C9122619FF5EF10B504B030414000608080076782F48FAF11B1B7D0000009D0000000B0000006662782F636E782E786D6C4DCCD10A832014C6F1579173EF323B31076A9C2EF61EB12C64A5E174ECF157A38B5D7DF0E3
311
E3AFBBCFBAB0B74B2F1F8381FA2280B9F088A30FB3819227AE807556A718F3DF0D58185667E060B07A4EB16C278D6E1ACA92775D7C789EA8A8A69B6C159748C45135C8FBFB9538B5B257241A448150595DFD4AFB1E61FB05504B030414000608080076782F48C648E0772B01000015020000310000006662782F3841314139
311
3235382D323441412D343833342D424637412D4135324238413033343430342F636F72652E786D6C8D51CB6EC32010FC158B53AA0A1B6CFC488489C8A15FD01F2086A42831583CAA7C7EA176A4F6960B8B66676647BBF4F898EFC5B7725E5B33025C2250283359A9CD7504315CE0008A23A3CEDAF087060A236635820C0346
311
AFCEC66583266B823221A1C64AB581C27B154031DDD367047EFA52B328450C89E16FE522A69BB8AA1297A99D788CFAE05280621D925FC0068EF9BE6E075813CE21191A024F1F3D87BCAD4F03470D2188D06A15321AA3969B5CCB14475FB472AF9A6431A341CFCFF89353222809588D70071186B8FDC4ED013507D2BEA3FD01
311
215A65FA3F515CE48BA2A84D68EA2DEE2AF380615AAD0D46A58DE7FB338C7A2CD68522CFDB7935BD01864A84FA86F44DDDD16AE5A60D24D38E6CA63E589736BCBB9D131DB7AB734718ADF29152F9BD60AAF9A0EC07504B030414000608080076782F48F42E86B54E01000033030000300000006662782F3841314139323538
311
2D323441412D343833342D424637412D4135324238413033343430342F636E782E786D6CD593BD6E032110845F05D146F7437CB6128BC3528A3C418AB418D6313107277EA2F8EDB3D8D871E322651A749A1D66569F38BEF99E2CF982108D7723656D4F0938E5B5711F23CD69D73C51B2113C789F6E6C943839C1488B4C05FF
311
083ECF55D2B093D92654AD71872A06883E070511E5729358AFA4C500704D4611A62D680D9A5C8DF8B58380ABA0B83D92B407F2FAF24EFCF613548ABC2B298277A543F072D6A61B1325CACA18471AD51E26D9CA9CBC867868B54CB265EDA5EBCE4EBF49A45CB854E66048291F6939A9A81BB5C8917738143CA680F4AA291D67
311
A042CEB3354A2684DC9D8C678FE0D9B8B41AAAD720F8806EB65A0C03869D668227334175A8003281A6E2B167ABA6670D5BBEB1E5BA5FAC87E543FFBCEE7BDE15BBE05BEF6DBD843110FC4C9477095CA282F1AE8CEFE1AB3EA24D40D63E1CFF001201D4D6339D6BC67FE6D39DDE37E20AF817881F504B030414000608080076
311
782F4898478E13A405000081100000340000006662782F38413141393235382D323441412D343833342D424637412D4135324238413033343430342F6F626A656374732E786D6CAD57DB6EDB3810FD1541FBB2FB60CBB29DD659282A123B298C366D51A3C53E1830688952B8A12E20A9C4D9AFDF43919225D74EBD8BBEE8C2
311
CB70E6CC990B8377BB8C3B4F544856E457AE3F1CB90ECDA32266797AE5562A19CC5CE75D1888A2509D65AE93938C5EB97AD80D835414556987629A908AAB83D1BB9BBF1C19D19CBA4EC4899457AE8C1E684686A452454CE5E330268A0CD36437F48766615F6C2A48F97020B42482E60A9A623C8714C728E5F77F47AE17069E
311
9E0F03FDB4AB26A75779B53DFDF3592E15C9A31F0E3B1033F1A78BDBF1C5E5E0623A9D0CA66FC6FEE0E6EE6631F0DF4E46F337F3F9E5F5ED250E964A4092D544D0C40DDF031BC1A2C033536150B15C4DC67689759027E813D39E72C3B1E3079E59D35A678D3CA67E54E4398D6AAC80466D9F151DD392E6317CCEA884661D84
311
46FD5F5FE3D8999EE87F7B6477F83C04BA3B3A821ADD9B7757D362FB374C90E7304848AA1968B0B4861AAE8EF6086F8B82DB39269D8C282A18E10E675B41C48B1B62A95E12063D319AC9424783B6C00DE10533DDA70BC2E8E73C3FA6655271AE69EC8675146C102B54C95A33F60F157BEDBBC84027F84AB361660D522F2575
311
C34B4391D9019B0C904EC2490A97C34CBD73323E3074AEE374B970C30F77DBDD4AC7EEF1C34B519454284D1F50AB715CF3D628599DFCB33CA737B807AAEC41F90AE43F21D4F7AAC06F82EDA6BBA93D450992CBA410197CE38C9CC1088F91E3D74FFDDDF90ABC7673DF7BA7F084B33554BF00CFBE0D5D5F76E00C832710BE10
311
136BDA2A221C69E39EE5004893C4E10586908793EDCE0D97C872C8CAD84578E8C364A8FB84CFC0B3629028EA933AEF1C581EA4C533123460AB1909350CF9AD827B3FFD90CEEA83EDB253F05EFC12BA5E2F561F5695484844EF6D4C2F68C272A650E2F6BCE92AD4C3BC67D1237D792E440C437FC47BD5C53BB34749A0AD31D7
311
C0A74D4ED73FFB937B0744D897163ADD043F390146E8C2DA917FCF64443927392DAAE6DC57EB07CA86815807BB66725B60F68505A43133073188221D09566A10DB6AD526CDE109EBBE2D3F81916E78F3F291BC74B3D7769F7BA3821762B37DD998B47414EAEF7D6E5B0C3C2D0574AF83A4897F0BFA266649524924C123B87E
311
5FCEBBBED3690129A2916AA2650AFB115C4458D2367251AD0541252DF20D43DD44DC1D3DA02B1F905A06D4024F692C294F368CF32ADB248CA31A6D32529E80E3FFEBBFADB27243B2A2CAD509D93DD5511DFABAF7D82B9F898A1EDC7055BF0737C8BD318D4F9041D7922358F55C3BF16F6E27FEC41F2CDE5EF883E9C57836B8
311
1C4F2E07E89E6EC793B777B38BC5ACF193D1240C9A52D38D687809A52DA804B3EEFBB644FCD824E086F744C9F57B139ECDFBDB72885E38F0B007F5B2DD781D3FA1EFA3F1CF05EC571E15B4CC4A4E339A2BA263E85E7FF0AF047D464F1933BECC484ACF90F2F9FDEAC0188C9CB1EF8B8E77FA7CB0D78ECE75401E15A21EAA6C
311
9B13C60F36A606C96199A716BFC627EDDB149AE657FF59C7A03395056731F260ECA4B4C8A842363CA308898C4A50AFDBD3C7F6EE71C6EE27D3212AB2E5B4D1E481A049E61261016A5591EA8F3BBFA1A9D37DD5958B723B7CC4C3660AD70167AE5C34E98A45540EB728D0BA15AA85834BDD4E1E8D3FC9538E5EDB6C6AFFDB5D
311
1A9B5E496E979CD33F59BB4C0AB706208D94E81BD010C13BB5326150EB66E7A3FF6478A38E43143EB7956A6DD90FB4C6D4C720448D51F6B68026E6D11EBD43A0BE6E963FACD7F41039EB96F52A098CD4812222AD6F0A5A3FABD2F5E28B870EC5597E764A5EA5F0E5F992068282CC950E70B008ACB0324BA240D5F99FEB2FA2
311
C04D3673EE1828E0FCBE9BBDF9633D2FB2ACC8CDD0FADADE879DD5036EB7F11AC981EA6B895C8F47FE785D5F07EC0D65B325920E492C1F3100CF0AD602DD733F7869EE8CA84366A25DE769571C3074B9706C619B42A8A54B37B76A70D078E4D4410CE92BA58E98EE82F2D51B81572F850A02BD7CF82F504B03041400060800
311
0076782F48000000000000000000000000350000006662782F38413141393235382D323441412D343833342D424637412D4135324238413033343430342F76657274696365732E62696E504B030414000608080076782F48F270F1330600000004000000360000006662782F38413141393235382D323441412D343833342D
311
424637412D4135324238413033343430342F747269616E676C65732E62696E636660600000504B030414000608000076782F48000000000000000000000000370000006662782F38413141393235382D323441412D343833342D424637412D4135324238413033343430342F617474726962757465732E62696E504B030414
311
000608080076782F48D5987DFC8F00000041010000360000006662782F38413141393235382D323441412D343833342D424637412D4135324238413033343430342F6469726563746F72792E786D6C858F410EC2201045AF4266AF15DDB800BA74E7C21B903225242D6328188F2FA5C4183471359997F9FF81E89FF3C41E18
311
16475E02DF1F80A11FC8386F25A438EECEC07A250251FC3803E6F58C12560C4AD840E95E91C151A72936F496F35732D860FE635F62C8F2DA16B505C545B74125BAA2FA9E05D7CC053D063734D5C7665FD55B6B8D15D5E9BFEAFD8490FFA45E504B030414000608080076782F4855C9C22AFD000000A00100003B0000006662
311
782F38413141393235382D323441412D343833342D424637412D4135324238413033343430342F7265736F75726365732F636F72652E786D6C8D50596AC33010BD8A99DF225BF292C64156B0A97B825E40C8934424968296D2E3574A5C68FFFA3333BC85793C7EFC5A6FC5273AAFAD198095140A34CA2EDA9C0788E144F650
311
1C0577D6865F32288C5C71800C83E06767E37D839435014D48A8B10B6EA0F41E0314EA968E01BCBAE02A4B194352F86B7997EA2ACF58B232D14927B80F2E05289E4FF204E1D0DBE8147A5E3D59C163D4CBA6D14BFAA94F1A1D08FA56B7EDD4F7647C1F1969474AC9BE9B2732EF5E9B791AEB79648C57D92C78D0EB4F46E550
311
065C40D494ED086584751FAC3BD0E6D0762FB43F50CAAB2CFF638AF7E59FA6A84D68EA2DEED3E641E4200F42F02AF795D6A3CCB473B7E21B504B010214000A000008000076782F483DEE336E79000000790000001B00000000000000000000000000000000006175746F6465736B2D64657369676E2D7061636B6167652E78
311
6D6C504B0102140014000608080076782F48D486FD9CA0000000F40000001300000000000000000000000000B20000005B436F6E74656E745F54797065735D2E786D6C504B0102140014000608080076782F48E800A1EBEA0000007C010000080000000000000000000000000083010000636F72652E786D6C504B01021400
311
14000608080076782F4855019EA25F0000007C000000070000000000000000000000000093020000636E782E786D6C504B0102140014000608080076782F48B3D31D1267010000020300000C00000000000000000000000000170300006662782F636F72652E786D6C504B0102140014000608080076782F48FAF11B1B7D00
311
00009D0000000B00000000000000000000000000A80400006662782F636E782E786D6C504B0102140014000608080076782F48C648E0772B0100001502000031000000000000000000000000004E0500006662782F38413141393235382D323441412D343833342D424637412D4135324238413033343430342F636F72652E
311
786D6C504B0102140014000608080076782F48F42E86B54E010000330300003000000000000000000000000000C80600006662782F38413141393235382D323441412D343833342D424637412D4135324238413033343430342F636E782E786D6C504B0102140014000608080076782F4898478E13A4050000811000003400
311
000000000000000000000000640800006662782F38413141393235382D323441412D343833342D424637412D4135324238413033343430342F6F626A656374732E786D6C504B0102140014000608000076782F4800000000000000000000000035000000000000000000000000005A0E00006662782F38413141393235382D
311
323441412D343833342D424637412D4135324238413033343430342F76657274696365732E62696E504B0102140014000608080076782F48F270F13306000000040000003600000000000000000000000000AD0E00006662782F38413141393235382D323441412D343833342D424637412D4135324238413033343430342F
311
747269616E676C65732E62696E504B0102140014000608000076782F480000000000000000000000003700000000000000000000000000070F00006662782F38413141393235382D323441412D343833342D424637412D4135324238413033343430342F617474726962757465732E62696E504B0102140014000608080076
311
782F48D5987DFC8F0000004101000036000000000000000000000000005C0F00006662782F38413141393235382D323441412D343833342D424637412D4135324238413033343430342F6469726563746F72792E786D6C504B0102140014000608080076782F4855C9C22AFD000000A00100003B0000000000000000000000
311
00003F1000006662782F38413141393235382D323441412D343833342D424637412D4135324238413033343430342F7265736F75726365732F636F72652E786D6C504B0506000000000E000E0080040000951100000000
310
504B03040A000008000076782F483DEE336E79000000790000001B0000006175746F6465736B2D64657369676E2D7061636B6167652E786D6C3C3F786D6C2076657273696F6E3D22312E302220656E636F64696E673D227574662D3822203F3E3C666F726D6174733E3C666F726D61743E687474703A2F2F736368656D612E
310
6175746F6465736B2E636F6D2F64657369676E2D7061636B6167652F323030393C2F666F726D61743E3C2F666F726D6174733E504B030414000608080076782F48D486FD9CA0000000F4000000130000005B436F6E74656E745F54797065735D2E786D6C7D8EC10E82300C865F65E91D8A1E8C310C0EEA1BF002731658846E
310
D98AC1B77784ABF1D8FE5FBFBF75BBCE937A534CCEB38643598122B6FEE978D0B0485F9C41B54DDD7D022595594E1A469170414C76A4D9A4D207E29CF43ECE46F218070CC6BECC4078ACAA135ACF422C856C0E68EA1BF5669944DDD7BCDE7B1F8E415D77AECB980613C2E4AC91FC167A2B244592486606FC29C8FD7F045B9A
310
EF7053A7E60B504B030414000608080076782F4844702128EB0000007C01000008000000636F72652E786D6C8D905D6EC3201084AF8278ADB021D8A96D61A2A4764ED00B20200E4A0C163F558F5F9C3852FBD6A75D0DF3B1A36187EFF90EBEB40FC6D91E920243A0AD74CAD8A987295E5003C18133EF5CFC6583C08A59F770
310
952167937769D924E96CD43666D53AA5375184A02304F29E971E0679D5B328448AD9116EC522E44D4CBA20AF2DC32919059E478CCAFF998BD11E72D28EC3C7783EA3A1221455F474444DFB4E11AE8F6373DA0F94E096952BCC5934F3EBBEF45A44AD20DF61B2479820527F92BAC3B4ABEA37DC7618B372B5FF81D2A2FE0925
310
6323DD6D719F58C8597390C70367E5DA451E8FA2F25C7BE33F504B030414000608080076782F4855019EA25F0000007C00000007000000636E782E786D6C4DCB3B0E80201045D1AD90E915ED2CF8AC45050C11660C8261F98AB1B07AC9C97D42D718D865D3E909258CFD00CCE24AC6E326A164D74DC0B4128928FF32603847
310
2BA13128B1252AC747C6BAB984FC68F0B87FE8960A5C09FE86CFB69FBA01504B030414000608080076782F48E766ED7668010000020300000C0000006662782F636F72652E786D6C8D52ED8E8230107C95A67F2FD056C013536AF4D427B817A8503922B4A4B4C4C7BFE5C3785E8C3124A599D9D99D1DE09B6B53A35ED9AE32
310
3AC32CA418299D9BA2D26586BD3B072B8C36825B63DC9F328CB46C548607180B5E5AE3DB19CA8D764A3B40B529D40CCAAE530EA3BC864B86BBFC47353294DE414577095B995F64A94216020D758277CE8201340D194E2CCEA72B27132EB8F75531B35501D3AA73A52C162C3DECBF0EC763B08F5914C4D16E1BACD2CF28A0C9
310
F6B0DA2DF711A3292783587057353777B955D2A9028B0565CB80B28025DF2C59D3681D271F345D53CAC950FE20F26DF1A6C857DA458BD9EE24EBC02B1819897FDB42440E75B2073F4470328408AF31E1C7A0211008D9C9537DDBE30250AF72676C0C4C61FC9DEA65ED154CA5687C389958E83C3680CD9EF659BCE8F3BA077C
310
40A94BB0261D5C4FDE0DD3F934758EA25536E8DD1569631B59DFCD4D16EFE77DD053796E6A63DF5193795532874986BF57FC02504B030414000608080076782F4868236EF17E0000009D0000000B0000006662782F636E782E786D6C4DCCD10A83201886E15B91FFDCD536A5043552D67DC4B29099FF703A76F9ABD1C18E3E
310
78F87865F7590379BBF4F218159C4F351017EF38F9B8282879A62D904ECB8498FF6E40E2B83A053B83964BC2F23C6872F35842DE34F8F838D00EFC668C61B4B98A9E327BA9A9684D4FADE08D1D04B3DC70A8B4AC7EA56DF7B0FE02504B030414000608080076782F4871847B1E2C01000014020000310000006662782F4346
310
3545424242342D373339412D344332302D393842412D4339353743463934433542352F636F72652E786D6C8D515B6EC32010BC0AE22B55850D312471848962AB39412F406C92A2C460F1A872FC42ED48ED5F7E58343B333BDAE587C77807DFCA796D4D0349812150A6B78336D706C670413B080E823B6BC31F1A04468EAA81
310
1986825F9D8DD302F5D6046542428D1DD4024AEF5580A0BFA74F037DFFA54659C81812C3DF8A49F63779550529523BF104F7C1A500601E925F28BA13FB68DB96A26D551F11EDD618D5BBF688BA9A6DBB534D3BD6325ECE42C163D4C322D7438AA32F5AB9574DB258F0A0C767FCDE2919D400C51A930DC20411F649D81E577B
310
CADE71BDC7989799FE4F14A7E14551D42654EB25EE2CF350105ECE0DC1071BCFF76718F598AC0B20CF5B79D5BF41810B8CB775C530E5E54C4D0B489E1BBA78FA605D5AF0EA764EEC6A31DE50C1CB7CA3547E0F986ABEA7F801504B030414000608080076782F48928949A25601000033030000300000006662782F43463545
310
424242342D373339412D344332302D393842412D4339353743463934433542352F636E782E786D6CBD93CD6EC32010845F0571ADFC43E258698489D4439FA0875E316C121A1B2CC055F3F65D1292E69243A5AA1764CD0E33AB4F986FBFC6817C820FC6D98EB2B2A604AC72DAD87D47E7B82BD6946C05F7CEC53B1B25568ED0
310
D12453C1F7DECD539634ECE43C445407638F59F410DCEC150494D34D323825070C005BCC28C2D883D6A0C9CD885F3BF0B80A8AFD89C40390D79777E2FA0F5031F02AA5085EA50EC1D3999BEE4C94A84186D0D1A00E30CA52CED16908C752CB284B565EBB1EECF49344D2856BE5EC0D49E51D4D271579A31239F20A878287E8
310
915E36C5D30454C8691A8C9211215767E3C523F86C6C6C9BEC3508DEA37BB968D76B0C3BCF048F6684EC501E64044DC5A2666D51B382ADDED86A532F37CDEAA97EDED435AF925DF0DEB9215FC218F06E22CAD9083652C17895C68FF0651FD1C6236BE74FBF00890072EB85CE2DE32FF9B076D934FFC8A73ABF6FC4E5F12F10
310
DF504B030414000608080076782F48B09B469E650700009A1B0000340000006662782F43463545424242342D373339412D344332302D393842412D4339353743463934433542352F6F626A656374732E786D6CED59DD73A33812FF5728EEE5F6C1D8187B26B9226C25F164CAB597DDA9F5CDD43EB88A924126BA0841492213
310
DF5F7FAD0F301093E09DECDB3ED880905ADDBFFE5413FEFC9C53E70973410A76E5FADECC75304B8A94B0ECCAADE47E72E13A3F47212F0AD99AE63A0CE5F8CA55C36E1466BCA84A3B94E23DAAA8EC8DDEDDFCE1880433EC3A0945425CB92279C039F250258B148B472F451279D9FED9F33D33B14B36E3A87CE8112D11C74C02
310
A730CE808A6398F2BB8F33771A8553F53E0AD5BF9D158C9AB5189E35D55277B9244C48C492172CF5C804A3580AFCC5EAD37C7939592E16C164F161EE4F6EEE6E5613FF6330BBFD707B7B79FDE912D8DB1505B532A5B8C42C05FD1DDCC80FA7EA4D23BA45E014D749C1184E3490009516AB4F9060015BB5E09B751F7D2551EB
310
B596B0F5BC50EF2D0BADE1A04B6568D638203A744110BB5D2D717D6DCB57ECFE0B828B3146C90596C0AD901CB46BE1E1E0156E340BA766340A77475D10E1E448624E107528D971C4412930554D8942B3C09251CEC18194A324D09A33AFBBB6059EF9B6EB9CE2725F51AA3CC38DB463C5E07E580ACD19F91FE647EEDBC8004F
310
206D4598BCB05CCA4389DDE8329CEAC1285497606E5F1A209D3D4599D08898B73D416F95EBAF576EF4CBDDEE79A3C2C1E9CD4B5E94984B65744A8F9A2F30647B5528D96DFD519A530B401803AA5D7904E57740FE57881E4756406F9C3C2F9E1776AEE488897DC173D08D33732633F89B39BEFE57F7ADBB70DA2CEE6A6F084F
310
705305D5C58FE3D995416365F96FC119854F60F0050FECAB4D8228D8F33D610090321287163004A17DBF7B76A335044E08F4B00AD1C8079181DD27B80DA796CC512BB57B59AF6380A8DD2318A324804D5B24B031A0A7CF903D38498E6A6A8B3804EFF25DCCF57AB5F96553F13D4AF0BDF5E915DE13462464CDD30C7530EF48
310
F4880FDF0B9E82A02FF1DEB4F1CEED5602D056982BE0B31A04F570DCB9B34102EBB242859BF08D1D400895AB5BF4EF894830A588E1A2AAF76DA29B32D4C6E36DCDE04673037130EF9930C74F445515E034C7191D4621EF279C940A4437FA6C246B82A63720DDD7F5AF6091CDFC81596B06A19721FA1F1DB44EE0D0B1EC1A69
310
0B4423F0EE18CE9382163CDE1D6213E95CA825808DAEB77CEB1085586F94A4A8800769BFAB434A66A48D53B2DF5702E2EA0916BFAD6FDBE630F3027FE9B4FF7BCEB880680BBE8BB8F5BBDE1E31C95186E33D4A87B66BEFD6D0169AE400698EF714E4224F441E6224E3598AB373A0398BF8E5BB52CF682104615840BE3A097E
310
1B8D990781C468B3665969B5073411718E25A2E720A0C80C80ABD38EAE7113281DDEE6B1B1DED734D626FA17590447504B162C26508A420E799371DF5B420CE9A26B50EEE10BD656D3D662D00A4A88E4107FC7247B90E7A06EC80FE09EC091A4927151A204CC7A04D917BEA294DAE37D879247953FE2A4A2EF652002D37D4C
310
28ADF2187E84C1C9638C6B3781E955145AC44DEC933887A20CC98A8FD9E4C372F6621F5333F443606BA33DA110B6E31C9503A87702A2AE479C067C4B7D40A9BB2A2F639417151B65285ED0F7264BBEAF56457624BFAA5484B2B1266C09462161B2C9AA75CC0653D78115DC4807AA432C505E52730A7B23F1F88D3769CA831B
310
70EBA7EFBB410E85DF80F6DA117551C36079EC1406E23B92C9831B6DF4757203F5778AD363AAAF6BCD76050888A9485E716255F4750DE58DADD1DCE81E49B1FD6CB26E7DFDBAF6A0FB114E610DD42ECDC2B5023AC74C225599DCAB1BFA3B8210DCA161C6D72AA79E43E53A4D75D588E81D195267A78CE86C9A13AF7CC0ACC8
310
E1C7B68425B44AF116A5E231BE9734DE10C5BA95D2CB498DF1AB02FEF679D38307464688F4451578F87B6FAD1DBD55E5D24922F2A1CA770C1108821DD132A31BAF6499D548ADE5E6AACE145077818159152FFE3E59B4DB117F9F2C326B183F74B2B839FC1B1DDA7D91563A4F945D9F750C68F293A2F21EC700DD7668A83659
310
C424732BBF75A61882621DE547576375D030048738FED3597B280B9AED7AFC9F97B5FD1715C75959A5335975A94E54AEEB760E0BFC9B4F811FF893D5C7A53F592CE71793CB79703981F6ECA779F0F1EE62B9BA68D0D48E1A854D30D3B90B9E4D50AB87D593C500BAB2A2A02485D37CEA641862BE8433FD88F639CFB180E4D9
310
6E76A7B6293F62F593E9734AB4A3B8E6E4014183980A48EB805195C8EEB8F30F684D4A38685FB9D034F21EE1CF5AA5EB40E6B972A15520498285B78336936AE869E2907275EEB7C4001FC4329512CDA2E6B959A5B0E984FF66CA983460E5EAF430A0702BA1FBD5E95068DE2C4FC95982D7EC3848C2EDAE9250AD19598E038D
310
307A9BA3FA8D6C94B047BBF533B8EEEB62F99E9ED34164D42783578DC0509D48C433DDEF568C5996AE575FA6D06773D6BF3925AD32D0E5784A138EC1982B555081158155589A259260AAB7FFDA7EE1057CE2C91D5D1539FF7CBEF8F0D3F6B6C8F38299A1ED359CCA52F850E46C1EE0B34FBA85E201ABE6BAD8CE67FE7CAB9B
310
DAB6CF1EEF90C09EAA8A60A02E2694203D9303BB7CD1A0B2EDCBA952456FFA7AE5D8200ACD0063472F7ABCE62397033EA43EA7288FD17E5E4BFB6A5F7BAAA7824D70E84847FF07504B030414000608000076782F48000000000000000000000000350000006662782F43463545424242342D373339412D344332302D393842
310
412D4339353743463934433542352F76657274696365732E62696E504B030414000608080076782F48F270F1330600000004000000360000006662782F43463545424242342D373339412D344332302D393842412D4339353743463934433542352F747269616E676C65732E62696E636660600000504B0304140006080000
310
76782F48000000000000000000000000370000006662782F43463545424242342D373339412D344332302D393842412D4339353743463934433542352F617474726962757465732E62696E504B030414000608080076782F48D5987DFC8F00000041010000360000006662782F43463545424242342D373339412D34433230
310
2D393842412D4339353743463934433542352F6469726563746F72792E786D6C858F410EC2201045AF4266AF15DDB800BA74E7C21B903225242D6328188F2FA5C4183471359997F9FF81E89FF3C41E1816475E02DF1F80A11FC8386F25A438EECEC07A250251FC3803E6F58C12560C4AD840E95E91C151A72936F496F35732
310
D860FE635F62C8F2DA16B505C545B74125BAA2FA9E05D7CC053D063734D5C7665FD55B6B8D15D5E9BFEAFD8490FFA45E504B030414000608080076782F482C9A7C19FE000000A00100003B0000006662782F43463545424242342D373339412D344332302D393842412D4339353743463934433542352F7265736F75726365
310
732F636F72652E786D6C8D504B6E833010BD0AF2B632D831A4808CA3A4D013F4029699102BC146FE543D7E4DA052BBEB6666F43E9AA7C74F5FF323FB04E7B5351DA23941191865476DA60EC570C535CA4E823B6BC32F19CA8C9CA1432B8C049F9C8DCB0E296B029890506347D841E93D0494A9473A3AE4D50D6699CB1892C2
310
DFF345AABB9C20A779A2934E701F5C0A906D4FD68984036FA353E079B1B182C7A8C75DA3C7F4535F3538246833F46FC3FB80FB92325CB2CB19D7CD2BC3A43A0FF5E5D8334A1A5EAC66C1839E7F322A0732C088C481D0232614D3EA83562D616D59BD90A6258417ABFC8F292EE33F4D519BC00E7BDCCDE653D614E449085EAC
310
7DA5F52C33EDB55BF10D504B010214000A000008000076782F483DEE336E79000000790000001B00000000000000000000000000000000006175746F6465736B2D64657369676E2D7061636B6167652E786D6C504B0102140014000608080076782F48D486FD9CA0000000F40000001300000000000000000000000000B200
310
00005B436F6E74656E745F54797065735D2E786D6C504B0102140014000608080076782F4844702128EB0000007C010000080000000000000000000000000083010000636F72652E786D6C504B0102140014000608080076782F4855019EA25F0000007C000000070000000000000000000000000094020000636E782E786D
310
6C504B0102140014000608080076782F48E766ED7668010000020300000C00000000000000000000000000180300006662782F636F72652E786D6C504B0102140014000608080076782F4868236EF17E0000009D0000000B00000000000000000000000000AA0400006662782F636E782E786D6C504B010214001400060808
310
0076782F4871847B1E2C010000140200003100000000000000000000000000510500006662782F43463545424242342D373339412D344332302D393842412D4339353743463934433542352F636F72652E786D6C504B0102140014000608080076782F48928949A256010000330300003000000000000000000000000000CC
310
0600006662782F43463545424242342D373339412D344332302D393842412D4339353743463934433542352F636E782E786D6C504B0102140014000608080076782F48B09B469E650700009A1B00003400000000000000000000000000700800006662782F43463545424242342D373339412D344332302D393842412D4339
310
353743463934433542352F6F626A656374732E786D6C504B0102140014000608000076782F480000000000000000000000003500000000000000000000000000271000006662782F43463545424242342D373339412D344332302D393842412D4339353743463934433542352F76657274696365732E62696E504B01021400
310
14000608080076782F48F270F133060000000400000036000000000000000000000000007A1000006662782F43463545424242342D373339412D344332302D393842412D4339353743463934433542352F747269616E676C65732E62696E504B0102140014000608000076782F480000000000000000000000003700000000
310
000000000000000000D41000006662782F43463545424242342D373339412D344332302D393842412D4339353743463934433542352F617474726962757465732E62696E504B0102140014000608080076782F48D5987DFC8F000000410100003600000000000000000000000000291100006662782F43463545424242342D
310
373339412D344332302D393842412D4339353743463934433542352F6469726563746F72792E786D6C504B0102140014000608080076782F482C9A7C19FE000000A00100003B000000000000000000000000000C1200006662782F43463545424242342D373339412D344332302D393842412D433935374346393443354235
310
2F7265736F75726365732F636F72652E786D6C504B0506000000000E000E0080040000631300000000
  0
XRECORD
  5
17
102
{ACAD_REACTORS
330
12
102
}
330
12
100
AcDbXrecord
280
     1
270
     1
271
     1
  0
XRECORD
  5
16
102
{ACAD_REACTORS
330
12
102
}
330
12
100
AcDbXrecord
280
     1
270
     1
271
     1
  0
XRECORD
  5
18
102
{ACAD_REACTORS
330
12
102
}
330
12
100
AcDbXrecord
280
     1
270
     1
271
     1
  0
XRECORD
  5
15
102
{ACAD_REACTORS
330
12
102
}
330
12
100
AcDbXrecord
280
     1
270
     1
271
     1
  0
XRECORD
  5
344
102
{ACAD_REACTORS
330
22
102
}
330
22
100
AcDbXrecord
280
     1
102
MATERIAL
148
0.0
149
0.0
149
0.0
 93
        0
 94
      127
282
     0
 72
     0
 77
     0
171
     0
175
     0
179
     0
273
     0
  0
XRECORD
  5
24
102
{ACAD_REACTORS
330
22
102
}
330
22
100
AcDbXrecord
280
     1
270
     1
271
     1
  0
XRECORD
  5
23
102
{ACAD_REACTORS
330
22
102
}
330
22
100
AcDbXrecord
280
     1
270
     1
271
     1
  0
XRECORD
  5
27
102
{ACAD_REACTORS
330
22
102
}
330
22
100
AcDbXrecord
280
     1
270
     1
271
     1
  0
XRECORD
  5
26
102
{ACAD_REACTORS
330
22
102
}
330
22
100
AcDbXrecord
280
     1
270
     1
271
     1
  0
XRECORD
  5
28
102
{ACAD_REACTORS
330
22
102
}
330
22
100
AcDbXrecord
280
     1
270
     1
271
     1
  0
XRECORD
  5
25
102
{ACAD_REACTORS
330
22
102
}
330
22
100
AcDbXrecord
280
     1
270
     1
271
     1
  0
XRECORD
  5
33A
102
{ACAD_REACTORS
330
339
102
}
330
339
100
AcDbXrecord
280
     1
102
ACAD_ROUNDTRIP_2012_MLEADER_STYLE
298
     1
  0
CELLSTYLEMAP
  5
338
102
{ACAD_REACTORS
330
337
102
}
330
337
100
AcDbCellStyleMap
 90
        3
300
CELLSTYLE
  1
TABLEFORMAT_BEGIN
 90
        5
170
     1
 91
        0
 92
    32768
 62
   257
 93
        1
300
CONTENTFORMAT
  1
CONTENTFORMAT_BEGIN
 90
        0
 91
        0
 92
      512
 93
        0
300

 40
0.0
140
1.0
 94
        5
 62
     0
340
55
144
0.25
309
CONTENTFORMAT_END
171
     0
 94
        0
309
TABLEFORMAT_END
  1
CELLSTYLE_BEGIN
 90
        1
 91
        1
300
_TITLE
309
CELLSTYLE_END
300
CELLSTYLE
  1
TABLEFORMAT_BEGIN
 90
        5
170
     1
 91
        0
 92
        0
 62
   257
 93
        1
300
CONTENTFORMAT
  1
CONTENTFORMAT_BEGIN
 90
        0
 91
        0
 92
      512
 93
        0
300

 40
0.0
140
1.0
 94
        5
 62
     0
340
55
144
0.18
309
CONTENTFORMAT_END
171
     0
 94
        0
309
TABLEFORMAT_END
  1
CELLSTYLE_BEGIN
 90
        2
 91
        1
300
_HEADER
309
CELLSTYLE_END
300
CELLSTYLE
  1
TABLEFORMAT_BEGIN
 90
        5
170
     1
 91
        0
 92
        0
 62
   257
 93
        1
300
CONTENTFORMAT
  1
CONTENTFORMAT_BEGIN
 90
        0
 91
        0
 92
      512
 93
        0
300

 40
0.0
140
1.0
 94
        2
 62
     0
340
55
144
0.18
309
CONTENTFORMAT_END
171
     0
 94
        0
309
TABLEFORMAT_END
  1
CELLSTYLE_BEGIN
 90
        3
 91
        2
300
_DATA
309
CELLSTYLE_END
  0
XRECORD
  5
375
102
{ACAD_REACTORS
330
337
102
}
330
337
100
AcDbXrecord
280
     1
102
ACAD_ROUNDTRIP_PRE2007_TABLESTYLE
 90
      512
 91
        0
  1

 92
      512
 93
        0
  2

 94
      512
 95
        0
  3

  0
XRECORD
  5
350
102
{ACAD_REACTORS
330
34F
102
}
330
34F
100
AcDbXrecord
280
     1
102
RTVSPropertyOp0
 70
     1
102
RTVSPropertyOp1
 70
     1
102
RTVSPropertyOp2
 70
     1
102
RTVSPropertyOp3
 70
     1
102
RTVSPropertyOp4
 70
     1
102
RTVSPropertyOp5
 70
     1
102
RTVSPropertyOp6
 70
     1
102
RTVSPropertyOp7
 70
     1
102
RTVSPropertyOp8
 70
     1
102
RTVSPropertyOp9
 70
     1
102
RTVSPropertyOp10
 70
     1
102
RTVSPropertyOp11
 70
     1
102
RTVSPropertyOp12
 70
     1
102
RTVSPropertyOp13
 70
     1
102
RTVSPropertyOp14
 70
     1
102
RTVSPropertyOp15
 70
     1
102
RTVSPropertyOp16
 70
     1
102
RTVSPropertyOp17
 70
     1
102
RTVSPropertyOp18
 70
     1
102
RTVSPropertyOp19
 70
     1
102
RTVSPropertyOp20
 70
     1
102
RTVSPropertyOp21
 70
     1
102
RTVSPropertyOp22
 70
     1
102
RTVSPropertyOp23
 70
     1
102
RTVSPropertyOp24
 70
     1
102
RTVSPropertyOp25
 70
     1
102
RTVSPropertyOp26
 70
     1
102
RTVSPropertyOp27
 70
     1
102
RTVSPropertyOp28
 70
     1
102
RTVSPropertyOp29
 70
     1
102
RTVSPropertyOp30
 70
     1
102
RTVSPropertyOp31
 70
     1
102
RTVSPropertyOp32
 70
     1
  0
XRECORD
  5
34E
102
{ACAD_REACTORS
330
34D
102
}
330
34D
100
AcDbXrecord
280
     1
102
RTVSPropertyOp0
 70
     1
102
RTVSPropertyOp1
 70
     1
102
RTVSPropertyOp2
 70
     1
102
RTVSPropertyOp3
 70
     1
102
RTVSPropertyOp4
 70
     1
102
RTVSPropertyOp5
 70
     1
102
RTVSPropertyOp6
 70
     1
102
RTVSPropertyOp7
 70
     1
102
RTVSPropertyOp8
 70
     1
102
RTVSPropertyOp9
 70
     1
102
RTVSPropertyOp10
 70
     1
102
RTVSPropertyOp11
 70
     1
102
RTVSPropertyOp12
 70
     1
102
RTVSPropertyOp13
 70
     1
102
RTVSPropertyOp14
 70
     1
102
RTVSPropertyOp15
 70
     1
102
RTVSPropertyOp16
 70
     1
102
RTVSPropertyOp17
 70
     1
102
RTVSPropertyOp18
 70
     1
102
RTVSPropertyOp19
 70
     1
102
RTVSPropertyOp20
 70
     1
102
RTVSPropertyOp21
 70
     1
102
RTVSPropertyOp22
 70
     1
102
RTVSPropertyOp23
 70
     1
102
RTVSPropertyOp24
 70
     1
102
RTVSPropertyOp25
 70
     1
102
RTVSPropertyOp26
 70
     1
102
RTVSPropertyOp27
 70
     1
102
RTVSPropertyOp28
 70
     1
102
RTVSPropertyOp29
 70
     1
102
RTVSPropertyOp30
 70
     1
102
RTVSPropertyOp31
 70
     1
102
RTVSPropertyOp32
 70
     1
  0
XRECORD
  5
35C
102
{ACAD_REACTORS
330
35B
102
}
330
35B
100
AcDbXrecord
280
     1
102
RTVSPropertyOp0
 70
     1
102
RTVSPropertyOp1
 70
     1
102
RTVSPropertyOp2
 70
     1
102
RTVSPropertyOp3
 70
     1
102
RTVSPropertyOp4
 70
     1
102
RTVSPropertyOp5
 70
     1
102
RTVSPropertyOp6
 70
     1
102
RTVSPropertyOp7
 70
     1
102
RTVSPropertyOp8
 70
     1
102
RTVSPropertyOp9
 70
     1
102
RTVSPropertyOp10
 70
     1
102
RTVSPropertyOp11
 70
     1
102
RTVSPropertyOp12
 70
     1
102
RTVSPropertyOp13
 70
     1
102
RTVSPropertyOp14
 70
     1
102
RTVSPropertyOp15
 70
     1
102
RTVSPropertyOp16
 70
     1
102
RTVSPropertyOp17
 70
     1
102
RTVSPropertyOp18
 70
     1
102
RTVSPropertyOp19
 70
     1
102
RTVSPropertyOp20
 70
     1
102
RTVSPropertyOp21
 70
     1
102
RTVSPropertyOp22
 70
     1
102
RTVSPropertyOp23
 70
     1
102
RTVSPropertyOp24
 70
     1
102
RTVSPropertyOp25
 70
     1
102
RTVSPropertyOp26
 70
     1
102
RTVSPropertyOp27
 70
     1
102
RTVSPropertyOp28
 70
     1
102
RTVSPropertyOp29
 70
     1
102
RTVSPropertyOp30
 70
     1
102
RTVSPropertyOp31
 70
     1
102
RTVSPropertyOp32
 70
     1
  0
XRECORD
  5
364
102
{ACAD_REACTORS
330
363
102
}
330
363
100
AcDbXrecord
280
     1
102
RTVSPropertyOp0
 70
     1
102
RTVSPropertyOp1
 70
     1
102
RTVSPropertyOp2
 70
     1
102
RTVSPropertyOp3
 70
     1
102
RTVSPropertyOp4
 70
     1
102
RTVSPropertyOp5
 70
     1
102
RTVSPropertyOp6
 70
     1
102
RTVSPropertyOp7
 70
     1
102
RTVSPropertyOp8
 70
     1
102
RTVSPropertyOp9
 70
     1
102
RTVSPropertyOp10
 70
     1
102
RTVSPropertyOp11
 70
     1
102
RTVSPropertyOp12
 70
     1
102
RTVSPropertyOp13
 70
     1
102
RTVSPropertyOp14
 70
     1
102
RTVSPropertyOp15
 70
     1
102
RTVSPropertyOp16
 70
     1
102
RTVSPropertyOp17
 70
     1
102
RTVSPropertyOp18
 70
     1
102
RTVSPropertyOp19
 70
     1
102
RTVSPropertyOp20
 70
     1
102
RTVSPropertyOp21
 70
     1
102
RTVSPropertyOp22
 70
     1
102
RTVSPropertyOp23
 70
     1
102
RTVSPropertyOp24
 70
     1
102
RTVSPropertyOp25
 70
     1
102
RTVSPropertyOp26
 70
     1
102
RTVSPropertyOp27
 70
     1
102
RTVSPropertyOp28
 70
     1
102
RTVSPropertyOp29
 70
     1
102
RTVSPropertyOp30
 70
     1
102
RTVSPropertyOp31
 70
     1
102
RTVSPropertyOp32
 70
     1
  0
XRECORD
  5
356
102
{ACAD_REACTORS
330
355
102
}
330
355
100
AcDbXrecord
280
     1
102
RTVSPropertyOp0
 70
     1
102
RTVSPropertyOp1
 70
     1
102
RTVSPropertyOp2
 70
     1
102
RTVSPropertyOp3
 70
     1
102
RTVSPropertyOp4
 70
     1
102
RTVSPropertyOp5
 70
     1
102
RTVSPropertyOp6
 70
     1
102
RTVSPropertyOp7
 70
     1
102
RTVSPropertyOp8
 70
     1
102
RTVSPropertyOp9
 70
     1
102
RTVSPropertyOp10
 70
     1
102
RTVSPropertyOp11
 70
     1
102
RTVSPropertyOp12
 70
     1
102
RTVSPropertyOp13
 70
     1
102
RTVSPropertyOp14
 70
     1
102
RTVSPropertyOp15
 70
     1
102
RTVSPropertyOp16
 70
     1
102
RTVSPropertyOp17
 70
     1
102
RTVSPropertyOp18
 70
     1
102
RTVSPropertyOp19
 70
     1
102
RTVSPropertyOp20
 70
     1
102
RTVSPropertyOp21
 70
     1
102
RTVSPropertyOp22
 70
     1
102
RTVSPropertyOp23
 70
     1
102
RTVSPropertyOp24
 70
     1
102
RTVSPropertyOp25
 70
     1
102
RTVSPropertyOp26
 70
     1
102
RTVSPropertyOp27
 70
     1
102
RTVSPropertyOp28
 70
     1
102
RTVSPropertyOp29
 70
     1
102
RTVSPropertyOp30
 70
     1
102
RTVSPropertyOp31
 70
     1
102
RTVSPropertyOp32
 70
     1
  0
XRECORD
  5
35A
102
{ACAD_REACTORS
330
359
102
}
330
359
100
AcDbXrecord
280
     1
102
RTVSPropertyOp0
 70
     1
102
RTVSPropertyOp1
 70
     1
102
RTVSPropertyOp2
 70
     1
102
RTVSPropertyOp3
 70
     1
102
RTVSPropertyOp4
 70
     1
102
RTVSPropertyOp5
 70
     1
102
RTVSPropertyOp6
 70
     1
102
RTVSPropertyOp7
 70
     1
102
RTVSPropertyOp8
 70
     1
102
RTVSPropertyOp9
 70
     1
102
RTVSPropertyOp10
 70
     1
102
RTVSPropertyOp11
 70
     1
102
RTVSPropertyOp12
 70
     1
102
RTVSPropertyOp13
 70
     1
102
RTVSPropertyOp14
 70
     1
102
RTVSPropertyOp15
 70
     1
102
RTVSPropertyOp16
 70
     1
102
RTVSPropertyOp17
 70
     1
102
RTVSPropertyOp18
 70
     1
102
RTVSPropertyOp19
 70
     1
102
RTVSPropertyOp20
 70
     1
102
RTVSPropertyOp21
 70
     1
102
RTVSPropertyOp22
 70
     1
102
RTVSPropertyOp23
 70
     1
102
RTVSPropertyOp24
 70
     1
102
RTVSPropertyOp25
 70
     1
102
RTVSPropertyOp26
 70
     1
102
RTVSPropertyOp27
 70
     1
102
RTVSPropertyOp28
 70
     1
102
RTVSPropertyOp29
 70
     1
102
RTVSPropertyOp30
 70
     1
102
RTVSPropertyOp31
 70
     1
102
RTVSPropertyOp32
 70
     1
  0
XRECORD
  5
374
102
{ACAD_REACTORS
330
373
102
}
330
373
100
AcDbXrecord
280
     1
102
RTVSPropertyOp0
 70
     0
102
RTVSPropertyOp1
 70
     0
102
RTVSPropertyOp2
 70
     0
102
RTVSPropertyOp3
 70
     0
102
RTVSPropertyOp4
 70
     0
102
RTVSPropertyOp5
 70
     0
102
RTVSPropertyOp6
 70
     0
102
RTVSPropertyOp7
 70
     0
102
RTVSPropertyOp8
 70
     0
102
RTVSPropertyOp9
 70
     0
102
RTVSPropertyOp10
 70
     0
102
RTVSPropertyOp11
 70
     0
102
RTVSPropertyOp12
 70
     0
102
RTVSPropertyOp13
 70
     0
102
RTVSPropertyOp14
 70
     2
102
RTVSPropertyOp15
 70
     0
102
RTVSPropertyOp16
 70
     0
102
RTVSPropertyOp17
 70
     0
102
RTVSPropertyOp18
 70
     0
102
RTVSPropertyOp19
 70
     0
102
RTVSPropertyOp20
 70
     0
102
RTVSPropertyOp21
 70
     0
102
RTVSPropertyOp22
 70
     0
102
RTVSPropertyOp23
 70
     0
102
RTVSPropertyOp24
 70
     0
102
RTVSPropertyOp25
 70
     0
102
RTVSPropertyOp26
 70
     0
102
RTVSPropertyOp27
 70
     0
102
RTVSPropertyOp28
 70
     0
102
RTVSPropertyOp29
 70
     0
102
RTVSPropertyOp30
 70
     0
102
RTVSPropertyOp31
 70
     0
102
RTVSPropertyOp32
 70
     0
  0
XRECORD
  5
362
102
{ACAD_REACTORS
330
361
102
}
330
361
100
AcDbXrecord
280
     1
102
RTVSPropertyOp0
 70
     1
102
RTVSPropertyOp1
 70
     1
102
RTVSPropertyOp2
 70
     1
102
RTVSPropertyOp3
 70
     1
102
RTVSPropertyOp4
 70
     1
102
RTVSPropertyOp5
 70
     1
102
RTVSPropertyOp6
 70
     1
102
RTVSPropertyOp7
 70
     1
102
RTVSPropertyOp8
 70
     1
102
RTVSPropertyOp9
 70
     1
102
RTVSPropertyOp10
 70
     1
102
RTVSPropertyOp11
 70
     1
102
RTVSPropertyOp12
 70
     1
102
RTVSPropertyOp13
 70
     1
102
RTVSPropertyOp14
 70
     1
102
RTVSPropertyOp15
 70
     1
102
RTVSPropertyOp16
 70
     1
102
RTVSPropertyOp17
 70
     1
102
RTVSPropertyOp18
 70
     1
102
RTVSPropertyOp19
 70
     1
102
RTVSPropertyOp20
 70
     1
102
RTVSPropertyOp21
 70
     1
102
RTVSPropertyOp22
 70
     1
102
RTVSPropertyOp23
 70
     1
102
RTVSPropertyOp24
 70
     1
102
RTVSPropertyOp25
 70
     1
102
RTVSPropertyOp26
 70
     1
102
RTVSPropertyOp27
 70
     1
102
RTVSPropertyOp28
 70
     1
102
RTVSPropertyOp29
 70
     1
102
RTVSPropertyOp30
 70
     1
102
RTVSPropertyOp31
 70
     1
102
RTVSPropertyOp32
 70
     1
  0
XRECORD
  5
346
102
{ACAD_REACTORS
330
345
102
}
330
345
100
AcDbXrecord
280
     1
102
RTVSPropertyOp0
 70
     1
102
RTVSPropertyOp1
 70
     1
102
RTVSPropertyOp2
 70
     1
102
RTVSPropertyOp3
 70
     1
102
RTVSPropertyOp4
 70
     1
102
RTVSPropertyOp5
 70
     1
102
RTVSPropertyOp6
 70
     1
102
RTVSPropertyOp7
 70
     1
102
RTVSPropertyOp8
 70
     1
102
RTVSPropertyOp9
 70
     1
102
RTVSPropertyOp10
 70
     1
102
RTVSPropertyOp11
 70
     1
102
RTVSPropertyOp12
 70
     1
102
RTVSPropertyOp13
 70
     1
102
RTVSPropertyOp14
 70
     1
102
RTVSPropertyOp15
 70
     1
102
RTVSPropertyOp16
 70
     1
102
RTVSPropertyOp17
 70
     1
102
RTVSPropertyOp18
 70
     1
102
RTVSPropertyOp19
 70
     1
102
RTVSPropertyOp20
 70
     1
102
RTVSPropertyOp21
 70
     1
102
RTVSPropertyOp22
 70
     1
102
RTVSPropertyOp23
 70
     1
102
RTVSPropertyOp24
 70
     1
102
RTVSPropertyOp25
 70
     1
102
RTVSPropertyOp26
 70
     1
102
RTVSPropertyOp27
 70
     1
102
RTVSPropertyOp28
 70
     1
102
RTVSPropertyOp29
 70
     1
102
RTVSPropertyOp30
 70
     1
102
RTVSPropertyOp31
 70
     1
102
RTVSPropertyOp32
 70
     1
  0
XRECORD
  5
348
102
{ACAD_REACTORS
330
347
102
}
330
347
100
AcDbXrecord
280
     1
102
RTVSPropertyOp0
 70
     1
102
RTVSPropertyOp1
 70
     1
102
RTVSPropertyOp2
 70
     1
102
RTVSPropertyOp3
 70
     1
102
RTVSPropertyOp4
 70
     1
102
RTVSPropertyOp5
 70
     1
102
RTVSPropertyOp6
 70
     1
102
RTVSPropertyOp7
 70
     1
102
RTVSPropertyOp8
 70
     1
102
RTVSPropertyOp9
 70
     1
102
RTVSPropertyOp10
 70
     1
102
RTVSPropertyOp11
 70
     1
102
RTVSPropertyOp12
 70
     1
102
RTVSPropertyOp13
 70
     1
102
RTVSPropertyOp14
 70
     1
102
RTVSPropertyOp15
 70
     1
102
RTVSPropertyOp16
 70
     1
102
RTVSPropertyOp17
 70
     1
102
RTVSPropertyOp18
 70
     1
102
RTVSPropertyOp19
 70
     1
102
RTVSPropertyOp20
 70
     1
102
RTVSPropertyOp21
 70
     1
102
RTVSPropertyOp22
 70
     1
102
RTVSPropertyOp23
 70
     1
102
RTVSPropertyOp24
 70
     1
102
RTVSPropertyOp25
 70
     1
102
RTVSPropertyOp26
 70
     1
102
RTVSPropertyOp27
 70
     1
102
RTVSPropertyOp28
 70
     1
102
RTVSPropertyOp29
 70
     1
102
RTVSPropertyOp30
 70
     1
102
RTVSPropertyOp31
 70
     1
102
RTVSPropertyOp32
 70
     1
  0
XRECORD
  5
34A
102
{ACAD_REACTORS
330
349
102
}
330
349
100
AcDbXrecord
280
     1
102
RTVSPropertyOp0
 70
     1
102
RTVSPropertyOp1
 70
     1
102
RTVSPropertyOp2
 70
     1
102
RTVSPropertyOp3
 70
     1
102
RTVSPropertyOp4
 70
     1
102
RTVSPropertyOp5
 70
     1
102
RTVSPropertyOp6
 70
     1
102
RTVSPropertyOp7
 70
     1
102
RTVSPropertyOp8
 70
     1
102
RTVSPropertyOp9
 70
     1
102
RTVSPropertyOp10
 70
     1
102
RTVSPropertyOp11
 70
     1
102
RTVSPropertyOp12
 70
     1
102
RTVSPropertyOp13
 70
     1
102
RTVSPropertyOp14
 70
     1
102
RTVSPropertyOp15
 70
     1
102
RTVSPropertyOp16
 70
     1
102
RTVSPropertyOp17
 70
     1
102
RTVSPropertyOp18
 70
     1
102
RTVSPropertyOp19
 70
     1
102
RTVSPropertyOp20
 70
     1
102
RTVSPropertyOp21
 70
     1
102
RTVSPropertyOp22
 70
     1
102
RTVSPropertyOp23
 70
     1
102
RTVSPropertyOp24
 70
     1
102
RTVSPropertyOp25
 70
     1
102
RTVSPropertyOp26
 70
     1
102
RTVSPropertyOp27
 70
     1
102
RTVSPropertyOp28
 70
     1
102
RTVSPropertyOp29
 70
     1
102
RTVSPropertyOp30
 70
     1
102
RTVSPropertyOp31
 70
     1
102
RTVSPropertyOp32
 70
     1
  0
XRECORD
  5
34C
102
{ACAD_REACTORS
330
34B
102
}
330
34B
100
AcDbXrecord
280
     1
102
RTVSPropertyOp0
 70
     1
102
RTVSPropertyOp1
 70
     1
102
RTVSPropertyOp2
 70
     1
102
RTVSPropertyOp3
 70
     1
102
RTVSPropertyOp4
 70
     1
102
RTVSPropertyOp5
 70
     1
102
RTVSPropertyOp6
 70
     1
102
RTVSPropertyOp7
 70
     1
102
RTVSPropertyOp8
 70
     1
102
RTVSPropertyOp9
 70
     1
102
RTVSPropertyOp10
 70
     1
102
RTVSPropertyOp11
 70
     1
102
RTVSPropertyOp12
 70
     1
102
RTVSPropertyOp13
 70
     1
102
RTVSPropertyOp14
 70
     1
102
RTVSPropertyOp15
 70
     1
102
RTVSPropertyOp16
 70
     1
102
RTVSPropertyOp17
 70
     1
102
RTVSPropertyOp18
 70
     1
102
RTVSPropertyOp19
 70
     1
102
RTVSPropertyOp20
 70
     1
102
RTVSPropertyOp21
 70
     1
102
RTVSPropertyOp22
 70
     1
102
RTVSPropertyOp23
 70
     1
102
RTVSPropertyOp24
 70
     1
102
RTVSPropertyOp25
 70
     1
102
RTVSPropertyOp26
 70
     1
102
RTVSPropertyOp27
 70
     1
102
RTVSPropertyOp28
 70
     1
102
RTVSPropertyOp29
 70
     1
102
RTVSPropertyOp30
 70
     1
102
RTVSPropertyOp31
 70
     1
102
RTVSPropertyOp32
 70
     1
  0
XRECORD
  5
354
102
{ACAD_REACTORS
330
353
102
}
330
353
100
AcDbXrecord
280
     1
102
RTVSPropertyOp0
 70
     1
102
RTVSPropertyOp1
 70
     1
102
RTVSPropertyOp2
 70
     1
102
RTVSPropertyOp3
 70
     1
102
RTVSPropertyOp4
 70
     1
102
RTVSPropertyOp5
 70
     1
102
RTVSPropertyOp6
 70
     1
102
RTVSPropertyOp7
 70
     1
102
RTVSPropertyOp8
 70
     1
102
RTVSPropertyOp9
 70
     1
102
RTVSPropertyOp10
 70
     1
102
RTVSPropertyOp11
 70
     1
102
RTVSPropertyOp12
 70
     1
102
RTVSPropertyOp13
 70
     1
102
RTVSPropertyOp14
 70
     1
102
RTVSPropertyOp15
 70
     1
102
RTVSPropertyOp16
 70
     1
102
RTVSPropertyOp17
 70
     1
102
RTVSPropertyOp18
 70
     1
102
RTVSPropertyOp19
 70
     1
102
RTVSPropertyOp20
 70
     1
102
RTVSPropertyOp21
 70
     1
102
RTVSPropertyOp22
 70
     1
102
RTVSPropertyOp23
 70
     1
102
RTVSPropertyOp24
 70
     1
102
RTVSPropertyOp25
 70
     1
102
RTVSPropertyOp26
 70
     1
102
RTVSPropertyOp27
 70
     1
102
RTVSPropertyOp28
 70
     1
102
RTVSPropertyOp29
 70
     1
102
RTVSPropertyOp30
 70
     1
102
RTVSPropertyOp31
 70
     1
102
RTVSPropertyOp32
 70
     1
  0
XRECORD
  5
370
102
{ACAD_REACTORS
330
36F
102
}
330
36F
100
AcDbXrecord
280
     1
102
RTVSPropertyOp0
 70
     0
102
RTVSPropertyOp1
 70
     0
102
RTVSPropertyOp2
 70
     0
102
RTVSPropertyOp3
 70
     0
102
RTVSPropertyOp4
 70
     0
102
RTVSPropertyOp5
 70
     0
102
RTVSPropertyOp6
 70
     0
102
RTVSPropertyOp7
 70
     0
102
RTVSPropertyOp8
 70
     0
102
RTVSPropertyOp9
 70
     0
102
RTVSPropertyOp10
 70
     0
102
RTVSPropertyOp11
 70
     0
102
RTVSPropertyOp12
 70
     0
102
RTVSPropertyOp13
 70
     0
102
RTVSPropertyOp14
 70
     2
102
RTVSPropertyOp15
 70
     0
102
RTVSPropertyOp16
 70
     0
102
RTVSPropertyOp17
 70
     0
102
RTVSPropertyOp18
 70
     0
102
RTVSPropertyOp19
 70
     0
102
RTVSPropertyOp20
 70
     0
102
RTVSPropertyOp21
 70
     0
102
RTVSPropertyOp22
 70
     0
102
RTVSPropertyOp23
 70
     0
102
RTVSPropertyOp24
 70
     0
102
RTVSPropertyOp25
 70
     0
102
RTVSPropertyOp26
 70
     0
102
RTVSPropertyOp27
 70
     0
102
RTVSPropertyOp28
 70
     0
102
RTVSPropertyOp29
 70
     0
102
RTVSPropertyOp30
 70
     0
102
RTVSPropertyOp31
 70
     0
102
RTVSPropertyOp32
 70
     0
  0
XRECORD
  5
360
102
{ACAD_REACTORS
330
35F
102
}
330
35F
100
AcDbXrecord
280
     1
102
RTVSPropertyOp0
 70
     1
102
RTVSPropertyOp1
 70
     1
102
RTVSPropertyOp2
 70
     1
102
RTVSPropertyOp3
 70
     1
102
RTVSPropertyOp4
 70
     1
102
RTVSPropertyOp5
 70
     1
102
RTVSPropertyOp6
 70
     1
102
RTVSPropertyOp7
 70
     1
102
RTVSPropertyOp8
 70
     1
102
RTVSPropertyOp9
 70
     1
102
RTVSPropertyOp10
 70
     1
102
RTVSPropertyOp11
 70
     1
102
RTVSPropertyOp12
 70
     1
102
RTVSPropertyOp13
 70
     1
102
RTVSPropertyOp14
 70
     1
102
RTVSPropertyOp15
 70
     1
102
RTVSPropertyOp16
 70
     1
102
RTVSPropertyOp17
 70
     1
102
RTVSPropertyOp18
 70
     1
102
RTVSPropertyOp19
 70
     1
102
RTVSPropertyOp20
 70
     1
102
RTVSPropertyOp21
 70
     1
102
RTVSPropertyOp22
 70
     1
102
RTVSPropertyOp23
 70
     1
102
RTVSPropertyOp24
 70
     1
102
RTVSPropertyOp25
 70
     1
102
RTVSPropertyOp26
 70
     1
102
RTVSPropertyOp27
 70
     1
102
RTVSPropertyOp28
 70
     1
102
RTVSPropertyOp29
 70
     1
102
RTVSPropertyOp30
 70
     1
102
RTVSPropertyOp31
 70
     1
102
RTVSPropertyOp32
 70
     1
  0
XRECORD
  5
372
102
{ACAD_REACTORS
330
371
102
}
330
371
100
AcDbXrecord
280
     1
102
RTVSPropertyOp0
 70
     0
102
RTVSPropertyOp1
 70
     0
102
RTVSPropertyOp2
 70
     0
102
RTVSPropertyOp3
 70
     0
102
RTVSPropertyOp4
 70
     0
102
RTVSPropertyOp5
 70
     0
102
RTVSPropertyOp6
 70
     0
102
RTVSPropertyOp7
 70
     0
102
RTVSPropertyOp8
 70
     0
102
RTVSPropertyOp9
 70
     0
102
RTVSPropertyOp10
 70
     0
102
RTVSPropertyOp11
 70
     0
102
RTVSPropertyOp12
 70
     0
102
RTVSPropertyOp13
 70
     0
102
RTVSPropertyOp14
 70
     2
102
RTVSPropertyOp15
 70
     0
102
RTVSPropertyOp16
 70
     0
102
RTVSPropertyOp17
 70
     0
102
RTVSPropertyOp18
 70
     0
102
RTVSPropertyOp19
 70
     0
102
RTVSPropertyOp20
 70
     0
102
RTVSPropertyOp21
 70
     0
102
RTVSPropertyOp22
 70
     0
102
RTVSPropertyOp23
 70
     0
102
RTVSPropertyOp24
 70
     0
102
RTVSPropertyOp25
 70
     0
102
RTVSPropertyOp26
 70
     0
102
RTVSPropertyOp27
 70
     0
102
RTVSPropertyOp28
 70
     0
102
RTVSPropertyOp29
 70
     0
102
RTVSPropertyOp30
 70
     0
102
RTVSPropertyOp31
 70
     0
102
RTVSPropertyOp32
 70
     0
  0
XRECORD
  5
358
102
{ACAD_REACTORS
330
357
102
}
330
357
100
AcDbXrecord
280
     1
102
RTVSPropertyOp0
 70
     1
102
RTVSPropertyOp1
 70
     1
102
RTVSPropertyOp2
 70
     1
102
RTVSPropertyOp3
 70
     1
102
RTVSPropertyOp4
 70
     1
102
RTVSPropertyOp5
 70
     1
102
RTVSPropertyOp6
 70
     1
102
RTVSPropertyOp7
 70
     1
102
RTVSPropertyOp8
 70
     1
102
RTVSPropertyOp9
 70
     1
102
RTVSPropertyOp10
 70
     1
102
RTVSPropertyOp11
 70
     1
102
RTVSPropertyOp12
 70
     1
102
RTVSPropertyOp13
 70
     1
102
RTVSPropertyOp14
 70
     1
102
RTVSPropertyOp15
 70
     1
102
RTVSPropertyOp16
 70
     1
102
RTVSPropertyOp17
 70
     1
102
RTVSPropertyOp18
 70
     1
102
RTVSPropertyOp19
 70
     1
102
RTVSPropertyOp20
 70
     1
102
RTVSPropertyOp21
 70
     1
102
RTVSPropertyOp22
 70
     1
102
RTVSPropertyOp23
 70
     1
102
RTVSPropertyOp24
 70
     1
102
RTVSPropertyOp25
 70
     1
102
RTVSPropertyOp26
 70
     1
102
RTVSPropertyOp27
 70
     1
102
RTVSPropertyOp28
 70
     1
102
RTVSPropertyOp29
 70
     1
102
RTVSPropertyOp30
 70
     1
102
RTVSPropertyOp31
 70
     1
102
RTVSPropertyOp32
 70
     1
  0
XRECORD
  5
36E
102
{ACAD_REACTORS
330
36D
102
}
330
36D
100
AcDbXrecord
280
     1
102
RTVSPropertyOp0
 70
     1
102
RTVSPropertyOp1
 70
     1
102
RTVSPropertyOp2
 70
     1
102
RTVSPropertyOp3
 70
     1
102
RTVSPropertyOp4
 70
     1
102
RTVSPropertyOp5
 70
     1
102
RTVSPropertyOp6
 70
     1
102
RTVSPropertyOp7
 70
     1
102
RTVSPropertyOp8
 70
     1
102
RTVSPropertyOp9
 70
     1
102
RTVSPropertyOp10
 70
     1
102
RTVSPropertyOp11
 70
     1
102
RTVSPropertyOp12
 70
     1
102
RTVSPropertyOp13
 70
     1
102
RTVSPropertyOp14
 70
     1
102
RTVSPropertyOp15
 70
     1
102
RTVSPropertyOp16
 70
     1
102
RTVSPropertyOp17
 70
     1
102
RTVSPropertyOp18
 70
     1
102
RTVSPropertyOp19
 70
     1
102
RTVSPropertyOp20
 70
     1
102
RTVSPropertyOp21
 70
     1
102
RTVSPropertyOp22
 70
     1
102
RTVSPropertyOp23
 70
     1
102
RTVSPropertyOp24
 70
     1
102
RTVSPropertyOp25
 70
     1
102
RTVSPropertyOp26
 70
     1
102
RTVSPropertyOp27
 70
     1
102
RTVSPropertyOp28
 70
     1
102
RTVSPropertyOp29
 70
     1
102
RTVSPropertyOp30
 70
     1
102
RTVSPropertyOp31
 70
     1
102
RTVSPropertyOp32
 70
     1
  0
XRECORD
  5
36C
102
{ACAD_REACTORS
330
36B
102
}
330
36B
100
AcDbXrecord
280
     1
102
RTVSPropertyOp0
 70
     1
102
RTVSPropertyOp1
 70
     1
102
RTVSPropertyOp2
 70
     1
102
RTVSPropertyOp3
 70
     1
102
RTVSPropertyOp4
 70
     1
102
RTVSPropertyOp5
 70
     1
102
RTVSPropertyOp6
 70
     1
102
RTVSPropertyOp7
 70
     1
102
RTVSPropertyOp8
 70
     1
102
RTVSPropertyOp9
 70
     1
102
RTVSPropertyOp10
 70
     1
102
RTVSPropertyOp11
 70
     1
102
RTVSPropertyOp12
 70
     1
102
RTVSPropertyOp13
 70
     1
102
RTVSPropertyOp14
 70
     1
102
RTVSPropertyOp15
 70
     1
102
RTVSPropertyOp16
 70
     1
102
RTVSPropertyOp17
 70
     1
102
RTVSPropertyOp18
 70
     1
102
RTVSPropertyOp19
 70
     1
102
RTVSPropertyOp20
 70
     1
102
RTVSPropertyOp21
 70
     1
102
RTVSPropertyOp22
 70
     1
102
RTVSPropertyOp23
 70
     1
102
RTVSPropertyOp24
 70
     1
102
RTVSPropertyOp25
 70
     1
102
RTVSPropertyOp26
 70
     1
102
RTVSPropertyOp27
 70
     1
102
RTVSPropertyOp28
 70
     1
102
RTVSPropertyOp29
 70
     1
102
RTVSPropertyOp30
 70
     1
102
RTVSPropertyOp31
 70
     1
102
RTVSPropertyOp32
 70
     1
  0
XRECORD
  5
366
102
{ACAD_REACTORS
330
365
102
}
330
365
100
AcDbXrecord
280
     1
102
RTVSPropertyOp0
 70
     1
102
RTVSPropertyOp1
 70
     1
102
RTVSPropertyOp2
 70
     1
102
RTVSPropertyOp3
 70
     1
102
RTVSPropertyOp4
 70
     1
102
RTVSPropertyOp5
 70
     1
102
RTVSPropertyOp6
 70
     1
102
RTVSPropertyOp7
 70
     1
102
RTVSPropertyOp8
 70
     1
102
RTVSPropertyOp9
 70
     1
102
RTVSPropertyOp10
 70
     1
102
RTVSPropertyOp11
 70
     1
102
RTVSPropertyOp12
 70
     1
102
RTVSPropertyOp13
 70
     1
102
RTVSPropertyOp14
 70
     1
102
RTVSPropertyOp15
 70
     1
102
RTVSPropertyOp16
 70
     1
102
RTVSPropertyOp17
 70
     1
102
RTVSPropertyOp18
 70
     1
102
RTVSPropertyOp19
 70
     1
102
RTVSPropertyOp20
 70
     1
102
RTVSPropertyOp21
 70
     1
102
RTVSPropertyOp22
 70
     1
102
RTVSPropertyOp23
 70
     1
102
RTVSPropertyOp24
 70
     1
102
RTVSPropertyOp25
 70
     1
102
RTVSPropertyOp26
 70
     1
102
RTVSPropertyOp27
 70
     1
102
RTVSPropertyOp28
 70
     1
102
RTVSPropertyOp29
 70
     1
102
RTVSPropertyOp30
 70
     1
102
RTVSPropertyOp31
 70
     1
102
RTVSPropertyOp32
 70
     1
  0
XRECORD
  5
368
102
{ACAD_REACTORS
330
367
102
}
330
367
100
AcDbXrecord
280
     1
102
RTVSPropertyOp0
 70
     1
102
RTVSPropertyOp1
 70
     1
102
RTVSPropertyOp2
 70
     1
102
RTVSPropertyOp3
 70
     1
102
RTVSPropertyOp4
 70
     1
102
RTVSPropertyOp5
 70
     1
102
RTVSPropertyOp6
 70
     1
102
RTVSPropertyOp7
 70
     1
102
RTVSPropertyOp8
 70
     1
102
RTVSPropertyOp9
 70
     1
102
RTVSPropertyOp10
 70
     1
102
RTVSPropertyOp11
 70
     1
102
RTVSPropertyOp12
 70
     1
102
RTVSPropertyOp13
 70
     1
102
RTVSPropertyOp14
 70
     1
102
RTVSPropertyOp15
 70
     1
102
RTVSPropertyOp16
 70
     1
102
RTVSPropertyOp17
 70
     1
102
RTVSPropertyOp18
 70
     1
102
RTVSPropertyOp19
 70
     1
102
RTVSPropertyOp20
 70
     1
102
RTVSPropertyOp21
 70
     1
102
RTVSPropertyOp22
 70
     1
102
RTVSPropertyOp23
 70
     1
102
RTVSPropertyOp24
 70
     1
102
RTVSPropertyOp25
 70
     1
102
RTVSPropertyOp26
 70
     1
102
RTVSPropertyOp27
 70
     1
102
RTVSPropertyOp28
 70
     1
102
RTVSPropertyOp29
 70
     1
102
RTVSPropertyOp30
 70
     1
102
RTVSPropertyOp31
 70
     1
102
RTVSPropertyOp32
 70
     1
  0
XRECORD
  5
35E
102
{ACAD_REACTORS
330
35D
102
}
330
35D
100
AcDbXrecord
280
     1
102
RTVSPropertyOp0
 70
     1
102
RTVSPropertyOp1
 70
     1
102
RTVSPropertyOp2
 70
     1
102
RTVSPropertyOp3
 70
     1
102
RTVSPropertyOp4
 70
     1
102
RTVSPropertyOp5
 70
     1
102
RTVSPropertyOp6
 70
     1
102
RTVSPropertyOp7
 70
     1
102
RTVSPropertyOp8
 70
     1
102
RTVSPropertyOp9
 70
     1
102
RTVSPropertyOp10
 70
     1
102
RTVSPropertyOp11
 70
     1
102
RTVSPropertyOp12
 70
     1
102
RTVSPropertyOp13
 70
     1
102
RTVSPropertyOp14
 70
     1
102
RTVSPropertyOp15
 70
     1
102
RTVSPropertyOp16
 70
     1
102
RTVSPropertyOp17
 70
     1
102
RTVSPropertyOp18
 70
     1
102
RTVSPropertyOp19
 70
     1
102
RTVSPropertyOp20
 70
     1
102
RTVSPropertyOp21
 70
     1
102
RTVSPropertyOp22
 70
     1
102
RTVSPropertyOp23
 70
     1
102
RTVSPropertyOp24
 70
     1
102
RTVSPropertyOp25
 70
     1
102
RTVSPropertyOp26
 70
     1
102
RTVSPropertyOp27
 70
     1
102
RTVSPropertyOp28
 70
     1
102
RTVSPropertyOp29
 70
     1
102
RTVSPropertyOp30
 70
     1
102
RTVSPropertyOp31
 70
     1
102
RTVSPropertyOp32
 70
     1
  0
XRECORD
  5
352
102
{ACAD_REACTORS
330
351
102
}
330
351
100
AcDbXrecord
280
     1
102
RTVSPropertyOp0
 70
     1
102
RTVSPropertyOp1
 70
     1
102
RTVSPropertyOp2
 70
     1
102
RTVSPropertyOp3
 70
     1
102
RTVSPropertyOp4
 70
     1
102
RTVSPropertyOp5
 70
     1
102
RTVSPropertyOp6
 70
     1
102
RTVSPropertyOp7
 70
     1
102
RTVSPropertyOp8
 70
     1
102
RTVSPropertyOp9
 70
     1
102
RTVSPropertyOp10
 70
     1
102
RTVSPropertyOp11
 70
     1
102
RTVSPropertyOp12
 70
     1
102
RTVSPropertyOp13
 70
     1
102
RTVSPropertyOp14
 70
     1
102
RTVSPropertyOp15
 70
     1
102
RTVSPropertyOp16
 70
     1
102
RTVSPropertyOp17
 70
     1
102
RTVSPropertyOp18
 70
     1
102
RTVSPropertyOp19
 70
     1
102
RTVSPropertyOp20
 70
     1
102
RTVSPropertyOp21
 70
     1
102
RTVSPropertyOp22
 70
     1
102
RTVSPropertyOp23
 70
     1
102
RTVSPropertyOp24
 70
     1
102
RTVSPropertyOp25
 70
     1
102
RTVSPropertyOp26
 70
     1
102
RTVSPropertyOp27
 70
     1
102
RTVSPropertyOp28
 70
     1
102
RTVSPropertyOp29
 70
     1
102
RTVSPropertyOp30
 70
     1
102
RTVSPropertyOp31
 70
     1
102
RTVSPropertyOp32
 70
     1
  0
XRECORD
  5
36A
102
{ACAD_REACTORS
330
369
102
}
330
369
100
AcDbXrecord
280
     1
102
RTVSPropertyOp0
 70
     1
102
RTVSPropertyOp1
 70
     1
102
RTVSPropertyOp2
 70
     1
102
RTVSPropertyOp3
 70
     1
102
RTVSPropertyOp4
 70
     1
102
RTVSPropertyOp5
 70
     1
102
RTVSPropertyOp6
 70
     1
102
RTVSPropertyOp7
 70
     1
102
RTVSPropertyOp8
 70
     1
102
RTVSPropertyOp9
 70
     1
102
RTVSPropertyOp10
 70
     1
102
RTVSPropertyOp11
 70
     1
102
RTVSPropertyOp12
 70
     1
102
RTVSPropertyOp13
 70
     1
102
RTVSPropertyOp14
 70
     1
102
RTVSPropertyOp15
 70
     1
102
RTVSPropertyOp16
 70
     1
102
RTVSPropertyOp17
 70
     1
102
RTVSPropertyOp18
 70
     1
102
RTVSPropertyOp19
 70
     1
102
RTVSPropertyOp20
 70
     1
102
RTVSPropertyOp21
 70
     1
102
RTVSPropertyOp22
 70
     1
102
RTVSPropertyOp23
 70
     1
102
RTVSPropertyOp24
 70
     1
102
RTVSPropertyOp25
 70
     1
102
RTVSPropertyOp26
 70
     1
102
RTVSPropertyOp27
 70
     1
102
RTVSPropertyOp28
 70
     1
102
RTVSPropertyOp29
 70
     1
102
RTVSPropertyOp30
 70
     1
102
RTVSPropertyOp31
 70
     1
102
RTVSPropertyOp32
 70
     1
  0
ENDSEC
  0
EOF
