  0
SECTION
  2
HEADER
  9
$ACADVER
  1
AC1009
  9
$DWGCODEPAGE
  3
dos932
  9
$INSBASE
 10
0.0
 20
0.0
 30
0.0
  9
$EXTMIN
 10
0.0
 20
0.0
 30
0.0
  9
$EXTMAX
 10
431.8
 20
279.4
 30
0.0
  9
$LIMMIN
 10
0.0
 20
0.0
  9
$LIMMAX
 10
431.8
 20
279.4
  9
$ORTHOMODE
 70
     0
  9
$REGENMODE
 70
     1
  9
$FILLMODE
 70
     1
  9
$QTEXTMODE
 70
     0
  9
$MIRRTEXT
 70
     1
  9
$DRAGMODE
 70
     2
  9
$LTSCALE
 40
1.0
  9
$OSMODE
 70
    37
  9
$ATTMODE
 70
     1
  9
$TEXTSIZE
 40
3.5
  9
$TRACEWID
 40
1.0
  9
$TEXTSTYLE
  7
STANDARD
  9
$CLAYER
  8
0
  9
$CELTYPE
  6
BYLAYER
  9
$CECOLOR
 62
   256
  9
$DIMSCALE
 40
1.0
  9
$DIMASZ
 40
3.0
  9
$DIMEXO
 40
0.01
  9
$DIMDLI
 40
3.75
  9
$DIMRND
 40
0.0
  9
$DIMDLE
 40
0.0
  9
$DIMEXE
 40
1.0
  9
$DIMTP
 40
0.0
  9
$DIMTM
 40
0.0
  9
$DIMTXT
 40
3.5
  9
$DIMCEN
 40
2.5
  9
$DIMTSZ
 40
0.0
  9
$DIMTOL
 70
     0
  9
$DIMLIM
 70
     0
  9
$DIMTIH
 70
     1
  9
$DIMTOH
 70
     1
  9
$DIMSE1
 70
     0
  9
$DIMSE2
 70
     0
  9
$DIMTAD
 70
     1
  9
$DIMZIN
 70
     0
  9
$DIMBLK
  1

  9
$DIMASO
 70
     1
  9
$DIMSHO
 70
     1
  9
$DIMPOST
  1

  9
$DIMAPOST
  1

  9
$DIMALT
 70
     0
  9
$DIMALTD
 70
     3
  9
$DIMALTF
 40
0.0393700787
  9
$DIMLFAC
 40
1.0
  9
$DIMTOFL
 70
     1
  9
$DIMTVP
 40
0.0
  9
$DIMTIX
 70
     0
  9
$DIMSOXD
 70
     0
  9
$DIMSAH
 70
     0
  9
$DIMBLK1
  1

  9
$DIMBLK2
  1

  9
$DIMSTYLE
  2
ISO-25
  9
$DIMCLRD
 70
     0
  9
$DIMCLRE
 70
     0
  9
$DIMCLRT
 70
     0
  9
$DIMTFAC
 40
1.0
  9
$DIMGAP
 40
1.524
  9
$LUNITS
 70
     2
  9
$LUPREC
 70
     4
  9
$SKETCHINC
 40
1.0
  9
$FILLETRAD
 40
10.0
  9
$AUNITS
 70
     0
  9
$AUPREC
 70
     2
  9
$MENU
  1
.
  9
$ELEVATION
 40
0.0
  9
$PELEVATION
 40
0.0
  9
$THICKNESS
 40
0.0
  9
$LIMCHECK
 70
     0
  9
$CHAMFERA
 40
0.0
  9
$CHAMFERB
 40
0.0
  9
$SKPOLY
 70
     0
  9
$TDCREATE
 40
2459920.578129444
  9
$TDUPDATE
 40
2459920.578130255
  9
$TDINDWG
 40
0.0000000116
  9
$TDUSRTIMER
 40
0.0000000116
  9
$USRTIMER
 70
     1
  9
$ANGBASE
 50
0.0
  9
$ANGDIR
 70
     0
  9
$PDMODE
 70
     0
  9
$PDSIZE
 40
-1.0
  9
$PLINEWID
 40
0.0
  9
$COORDS
 70
     1
  9
$SPLFRAME
 70
     0
  9
$SPLINETYPE
 70
     6
  9
$SPLINESEGS
 70
     8
  9
$ATTDIA
 70
     0
  9
$ATTREQ
 70
     1
  9
$HANDLING
 70
     1
  9
$HANDSEED
  5
526
  9
$SURFTAB1
 70
     6
  9
$SURFTAB2
 70
     6
  9
$SURFTYPE
 70
     6
  9
$SURFU
 70
     6
  9
$SURFV
 70
     6
  9
$UCSNAME
  2

  9
$UCSORG
 10
0.0
 20
0.0
 30
0.0
  9
$UCSXDIR
 10
1.0
 20
0.0
 30
0.0
  9
$UCSYDIR
 10
0.0
 20
1.0
 30
0.0
  9
$PUCSNAME
  2

  9
$PUCSORG
 10
0.0
 20
0.0
 30
0.0
  9
$PUCSXDIR
 10
1.0
 20
0.0
 30
0.0
  9
$PUCSYDIR
 10
0.0
 20
1.0
 30
0.0
  9
$USERI1
 70
     0
  9
$USERI2
 70
     0
  9
$USERI3
 70
     0
  9
$USERI4
 70
     0
  9
$USERI5
 70
     0
  9
$USERR1
 40
0.0
  9
$USERR2
 40
0.0
  9
$USERR3
 40
0.0
  9
$USERR4
 40
0.0
  9
$USERR5
 40
0.0
  9
$WORLDVIEW
 70
     1
  9
$SHADEDGE
 70
     3
  9
$SHADEDIF
 70
    70
  9
$TILEMODE
 70
     1
  9
$MAXACTVP
 70
    64
  9
$PLIMCHECK
 70
     0
  9
$PEXTMIN
 10
1.0000000000E+20
 20
1.0000000000E+20
 30
1.0000000000E+20
  9
$PEXTMAX
 10
-1.0000000000E+20
 20
-1.0000000000E+20
 30
-1.0000000000E+20
  9
$PLIMMIN
 10
0.0
 20
0.0
  9
$PLIMMAX
 10
420.0
 20
297.0
  9
$UNITMODE
 70
     0
  9
$VISRETAIN
 70
     1
  9
$PLINEGEN
 70
     0
  9
$PSLTSCALE
 70
     1
  0
ENDSEC
  0
SECTION
  2
TABLES
  0
TABLE
  2
VPORT
 70
     1
  0
VPORT
  2
*ACTIVE
 70
     0
 10
0.0
 20
0.0
 11
1.0
 21
1.0
 12
215.9
 22
139.7
 13
0.0
 23
0.0
 14
10.0
 24
10.0
 15
10.0
 25
10.0
 16
0.0
 26
0.0
 36
1.0
 17
0.0
 27
0.0
 37
0.0
 40
279.4
 41
1.5454545455
 42
50.0
 43
0.0
 44
0.0
 50
0.0
 51
0.0
 71
     0
 72
  2000
 73
     1
 74
     3
 75
     0
 76
     0
 77
     0
 78
     0
  0
ENDTAB
  0
TABLE
  2
LTYPE
 70
     6
  0
LTYPE
  2
CONTINUOUS
 70
     0
  3
Solid line
 72
    65
 73
     0
 40
0.0
  0
LTYPE
  2
HIDDEN
 70
     0
  3
Hidden __ __ __ __ __ __ __ __ __ __ __ __ __ __
 72
    65
 73
     2
 40
1.905
 49
1.27
 49
-0.635
  0
LTYPE
  2
PHANTOM
 70
     0
  3
Phantom ______  __  __  ______  __  __  ______
 72
    65
 73
     6
 40
12.7
 49
6.35
 49
-1.27
 49
1.27
 49
-1.27
 49
1.27
 49
-1.27
  0
LTYPE
  2
CENTER
 70
     0
  3
Center ____ _ ____ _ ____ _ ____ _ ____ _ ____
 72
    65
 73
     4
 40
10.16
 49
6.35
 49
-1.27
 49
1.27
 49
-1.27
  0
LTYPE
  2
CENTERX2
 70
     0
  3
Center (2x) ________  __  ________  __  _____
 72
    65
 73
     4
 40
20.32
 49
12.7
 49
-2.54
 49
2.54
 49
-2.54
  0
LTYPE
  2
DOT2
 70
     0
  3
Dot (.5x) ........................................
 72
    65
 73
     2
 40
0.635
 49
0.0
 49
-0.635
  0
ENDTAB
  0
TABLE
  2
LAYER
 70
     3
  0
LAYER
  2
0
 70
     0
 62
     7
  6
CONTINUOUS
  0
LAYER
  2
DIM
 70
     0
 62
     7
  6
CONTINUOUS
  0
LAYER
  2
TXT
 70
     0
 62
     7
  6
CONTINUOUS
  0
ENDTAB
  0
TABLE
  2
STYLE
 70
     1
  0
STYLE
  2
STANDARD
 70
     0
 40
0.0
 41
1.0
 50
0.0
 71
     0
 42
3.5
  3
txt
  4
bigfont
  0
ENDTAB
  0
TABLE
  2
VIEW
 70
     0
  0
ENDTAB
  0
TABLE
  2
UCS
 70
     0
  0
ENDTAB
  0
TABLE
  2
APPID
 70
     1
  0
APPID
  2
ACAD
 70
     0
  0
ENDTAB
  0
TABLE
  2
DIMSTYLE
 70
     1
  0
DIMSTYLE
  2
ISO-25
 70
     0
  3

  4

  5

  6

  7

 40
1.0
 41
2.5
 42
0.625
 43
3.75
 44
1.25
 45
0.0
 46
0.0
 47
0.0
 48
0.0
140
2.5
141
2.5
142
0.0
143
0.0393700787
144
1.0
145
0.0
146
1.0
147
0.625
 71
     0
 72
     0
 73
     0
 74
     0
 75
     0
 76
     0
 77
     1
 78
     8
170
     0
171
     3
172
     1
173
     0
174
     0
175
     0
176
     0
177
     0
178
     0
  0
ENDTAB
  0
ENDSEC
  0
SECTION
  2
BLOCKS
  0
BLOCK
  8
0
  2
$MODEL_SPACE
 70
     0
 10
0.0
 20
0.0
 30
0.0
  3
$MODEL_SPACE
  1

  0
ENDBLK
  5
21
  8
0
  0
BLOCK
 67
     1
  8
0
  2
$PAPER_SPACE
 70
     0
 10
0.0
 20
0.0
 30
0.0
  3
$PAPER_SPACE
  1

  0
ENDBLK
  5
1D
 67
     1
  8
0
  0
ENDSEC
  0
SECTION
  2
ENTITIES
  0
LINE
  5
75
  8
0
  6
CONTINUOUS
 62
     7
 10
336.3113299621
 20
103.0650897598
 30
0.0
 11
315.3113299621
 21
103.0650897598
 31
0.0
  0
LINE
  5
76
  8
0
  6
CONTINUOUS
 62
     7
 10
315.3113299621
 20
89.0650897598
 30
0.0
 11
336.3113299621
 21
89.0650897598
 31
0.0
  0
LINE
  5
77
  8
0
  6
CONTINUOUS
 62
     7
 10
315.3113299621
 20
114.0650897598
 30
0.0
 11
312.3113299621
 21
114.0650897598
 31
0.0
  0
LINE
  5
78
  8
0
  6
CONTINUOUS
 62
     7
 10
312.3113299621
 20
78.0650897598
 30
0.0
 11
315.3113299621
 21
78.0650897598
 31
0.0
  0
ARC
  5
79
  8
0
  6
CONTINUOUS
 62
     7
 10
347.2426782919
 20
96.0650897598
 30
0.0
 40
200.0000000000028
 50
187.1807557815
 51
188.6269265587
  0
ARC
  5
7A
  8
0
  6
CONTINUOUS
 62
     7
 10
347.2426782919
 20
96.0650897598
 30
0.0
 40
200.0000000000002
 50
171.3730734413
 51
172.8192442185
  0
LINE
  5
7B
  8
0
  6
CONTINUOUS
 62
     7
 10
161.1494317514
 20
55.0650897598
 30
0.0
 11
162.2113299621
 21
55.0650897598
 31
0.0
  0
LINE
  5
7C
  8
0
  6
CONTINUOUS
 62
     7
 10
150.2113299621
 20
55.0650897598
 30
0.0
 11
151.2113299621
 21
55.0650897598
 31
0.0
  0
LINE
  5
7D
  8
0
  6
CONTINUOUS
 62
     7
 10
151.2113299621
 20
55.0650897598
 30
0.0
 11
151.2113299621
 21
53.0650897598
 31
0.0
  0
LINE
  5
7E
  8
0
  6
CONTINUOUS
 62
     7
 10
161.2113299621
 20
53.0650897598
 30
0.0
 11
161.2113299621
 21
55.0650897598
 31
0.0
  0
LINE
  5
7F
  8
0
  6
CONTINUOUS
 62
     7
 10
153.2113299621
 20
53.0650897598
 30
0.0
 11
153.2113299621
 21
16.0650897598
 31
0.0
  0
LINE
  5
80
  8
0
  6
CONTINUOUS
 62
     7
 10
159.2113299621
 20
16.0650897598
 30
0.0
 11
159.2113299621
 21
53.0650897598
 31
0.0
  0
LINE
  5
81
  8
0
  6
CONTINUOUS
 62
     7
 10
197.2494317514
 20
55.0650897598
 30
0.0
 11
198.3113299621
 21
55.0650897598
 31
0.0
  0
LINE
  5
82
  8
0
  6
CONTINUOUS
 62
     7
 10
186.3113299621
 20
55.0650897598
 30
0.0
 11
187.3113299621
 21
55.0650897598
 31
0.0
  0
LINE
  5
83
  8
0
  6
CONTINUOUS
 62
     7
 10
187.3113299621
 20
55.0650897598
 30
0.0
 11
187.3113299621
 21
53.0650897598
 31
0.0
  0
LINE
  5
84
  8
0
  6
CONTINUOUS
 62
     7
 10
197.3113299621
 20
53.0650897598
 30
0.0
 11
197.3113299621
 21
55.0650897598
 31
0.0
  0
LINE
  5
85
  8
0
  6
CONTINUOUS
 62
     7
 10
189.3113299621
 20
53.0650897598
 30
0.0
 11
189.3113299621
 21
16.0650897598
 31
0.0
  0
LINE
  5
86
  8
0
  6
CONTINUOUS
 62
     7
 10
195.3113299621
 20
16.0650897598
 30
0.0
 11
195.3113299621
 21
53.0650897598
 31
0.0
  0
LINE
  5
87
  8
0
  6
CONTINUOUS
 62
     7
 10
232.5334583207
 20
55.0758840811
 30
0.0
 11
244.8241577873
 21
61.0713472355
 31
0.0
  0
LINE
  5
88
  8
0
  6
CONTINUOUS
 62
     7
 10
230.4962481589
 20
55.0650897598
 30
0.0
 11
232.5113299621
 21
55.0650897598
 31
0.0
  0
LINE
  5
89
  8
0
  6
CONTINUOUS
 62
     7
 10
216.3113299621
 20
55.0650897598
 30
0.0
 11
220.0613299621
 21
55.0650897598
 31
0.0
  0
LINE
  5
8A
  8
0
  6
CONTINUOUS
 62
     7
 10
220.0613299621
 20
55.0650897598
 30
0.0
 11
220.0613299621
 21
53.0650897598
 31
0.0
  0
LINE
  5
8B
  8
0
  6
CONTINUOUS
 62
     7
 10
230.5613299621
 20
53.0650897598
 30
0.0
 11
230.5613299621
 21
55.0650897598
 31
0.0
  0
LINE
  5
8C
  8
0
  6
CONTINUOUS
 62
     7
 10
221.5613299621
 20
53.0650897598
 30
0.0
 11
221.5613299621
 21
51.0650897598
 31
0.0
  0
LINE
  5
8D
  8
0
  6
CONTINUOUS
 62
     7
 10
229.0613299621
 20
51.0650897598
 30
0.0
 11
229.0613299621
 21
53.0650897598
 31
0.0
  0
LINE
  5
8E
  8
0
  6
CONTINUOUS
 62
     7
 10
228.5613299621
 20
16.0650897598
 30
0.0
 11
228.5613299621
 21
51.0650897598
 31
0.0
  0
LINE
  5
8F
  8
0
  6
CONTINUOUS
 62
     7
 10
222.0613299621
 20
51.0650897598
 30
0.0
 11
222.0613299621
 21
16.0650897598
 31
0.0
  0
ARC
  5
90
  8
0
  6
CONTINUOUS
 62
     7
 10
221.5113299621
 20
61.8650897598
 30
0.0
 40
2.200000000000025
 50
186.5249788441
 51
353.4750211559
  0
ARC
  5
91
  8
0
  6
CONTINUOUS
 62
     7
 10
221.5113299621
 20
61.8650897598
 30
0.0
 40
3.500000000000014
 50
184.0960437582
 51
355.9039562418
  0
LINE
  5
92
  8
0
  6
CONTINUOUS
 62
     7
 10
218.0202699511
 20
61.6150897598
 30
0.0
 11
219.3255806626
 21
61.6150897598
 31
0.0
  0
LINE
  5
93
  8
0
  6
CONTINUOUS
 62
     7
 10
223.6970792615
 20
61.6150897598
 30
0.0
 11
225.002389973
 21
61.6150897598
 31
0.0
  0
ARC
  5
94
  8
0
  6
CONTINUOUS
 62
     7
 10
221.5113299621
 20
61.8650897598
 30
0.0
 40
2.200000000000026
 50
6.5249788441
 51
173.4750211559
  0
LINE
  5
95
  8
0
  6
CONTINUOUS
 62
     7
 10
219.3255806626
 20
62.1150897598
 30
0.0
 11
218.0202699511
 21
62.1150897598
 31
0.0
  0
ARC
  5
96
  8
0
  6
CONTINUOUS
 62
     7
 10
221.5113299621
 20
61.8650897598
 30
0.0
 40
3.500000000000014
 50
4.0960437582
 51
175.9039562418
  0
LINE
  5
97
  8
0
  6
CONTINUOUS
 62
     7
 10
225.002389973
 20
62.1150897598
 30
0.0
 11
223.6970792615
 21
62.1150897598
 31
0.0
  0
ARC
  5
98
  8
0
  6
CONTINUOUS
 62
     7
 10
222.7613299621
 20
60.6150897598
 30
0.0
 40
1.0
 50
90.0
 51
180.0
  0
LINE
  5
99
  8
0
  6
CONTINUOUS
 62
     7
 10
221.7613299621
 20
59.7650897598
 30
0.0
 11
221.7613299621
 21
60.6150897598
 31
0.0
  0
LINE
  5
9A
  8
0
  6
CONTINUOUS
 62
     7
 10
221.2613299621
 20
59.7650897598
 30
0.0
 11
221.7613299621
 21
59.7650897598
 31
0.0
  0
LINE
  5
9B
  8
0
  6
CONTINUOUS
 62
     7
 10
221.2613299621
 20
60.6150897598
 30
0.0
 11
221.2613299621
 21
59.7650897598
 31
0.0
  0
ARC
  5
9C
  8
0
  6
CONTINUOUS
 62
     7
 10
220.2613299621
 20
60.6150897598
 30
0.0
 40
1.0
 50
0.0
 51
90.0
  0
LINE
  5
9D
  8
0
  6
CONTINUOUS
 62
     7
 10
219.3255806626
 20
61.6150897598
 30
0.0
 11
220.2613299621
 21
61.6150897598
 31
0.0
  0
LINE
  5
9E
  8
0
  6
CONTINUOUS
 62
     7
 10
222.7613299621
 20
61.6150897598
 30
0.0
 11
223.6970792615
 21
61.6150897598
 31
0.0
  0
ARC
  5
9F
  8
0
  6
CONTINUOUS
 62
     7
 10
222.7613299621
 20
63.1150897598
 30
0.0
 40
1.0
 50
180.0
 51
270.0
  0
ARC
  5
A0
  8
0
  6
CONTINUOUS
 62
     7
 10
220.2613299621
 20
63.1150897598
 30
0.0
 40
1.0
 50
270.0
 51
0.0
  0
LINE
  5
A1
  8
0
  6
CONTINUOUS
 62
     7
 10
221.2613299621
 20
63.9650897598
 30
0.0
 11
221.2613299621
 21
63.1150897598
 31
0.0
  0
LINE
  5
A2
  8
0
  6
CONTINUOUS
 62
     7
 10
221.7613299621
 20
63.9650897598
 30
0.0
 11
221.2613299621
 21
63.9650897598
 31
0.0
  0
LINE
  5
A3
  8
0
  6
CONTINUOUS
 62
     7
 10
221.7613299621
 20
63.1150897598
 30
0.0
 11
221.7613299621
 21
63.9650897598
 31
0.0
  0
LINE
  5
A4
  8
0
  6
CONTINUOUS
 62
     7
 10
223.6970792615
 20
62.1150897598
 30
0.0
 11
222.7613299621
 21
62.1150897598
 31
0.0
  0
LINE
  5
A5
  8
0
  6
CONTINUOUS
 62
     7
 10
220.2613299621
 20
62.1150897598
 30
0.0
 11
219.3255806626
 21
62.1150897598
 31
0.0
  0
ARC
  5
A6
  8
0
  6
CONTINUOUS
 62
     7
 10
221.5113299621
 20
61.8650897598
 30
0.0
 40
3.500000000000014
 50
355.9039562418
 51
4.0960437582
  0
ARC
  5
A7
  8
0
  6
CONTINUOUS
 62
     7
 10
221.5113299621
 20
61.8650897598
 30
0.0
 40
3.500000000000014
 50
175.9039562418
 51
184.0960437582
  0
LINE
  5
A8
  8
0
  6
CONTINUOUS
 62
     7
 10
336.3113299621
 20
103.0650897598
 30
0.0
 11
336.3113299621
 21
89.0650897598
 31
0.0
  0
LINE
  5
A9
  8
0
  6
CONTINUOUS
 62
     7
 10
315.3113299621
 20
114.0650897598
 30
0.0
 11
315.3113299621
 21
78.0650897598
 31
0.0
  0
ARC
  5
AA
  8
0
  6
CONTINUOUS
 62
     7
 10
342.9929298172
 20
99.5660730383
 30
0.0
 40
194.33870893031
 50
172.1630310192
 51
173.8547356961
  0
ARC
  5
AB
  8
0
  6
CONTINUOUS
 62
     7
 10
163.0157002124
 20
118.296528462
 30
0.0
 40
13.40605894115946
 50
171.1027494039
 51
187.7437214029
  0
ARC
  5
AC
  8
0
  6
CONTINUOUS
 62
     7
 10
162.3206921055
 20
121.6737306843
 30
0.0
 40
13.61422622506878
 50
202.3799170447
 51
206.6600140755
  0
LINE
  5
AD
  8
0
  6
CONTINUOUS
 62
     7
 10
150.153865824
 20
112.0650897598
 30
0.0
 11
150.153865824
 21
115.5650897598
 31
0.0
  0
ARC
  5
AE
  8
0
  6
CONTINUOUS
 62
     7
 10
347.2426782919
 20
96.0650897598
 30
0.0
 40
197.7371993328539
 50
175.3588106327
 51
184.6411893673
  0
LINE
  5
AF
  8
0
  6
CONTINUOUS
 62
     7
 10
150.153865824
 20
76.5650897598
 30
0.0
 11
150.153865824
 21
80.0650897598
 31
0.0
  0
ARC
  5
B0
  8
0
  6
CONTINUOUS
 62
     7
 10
162.3206921056
 20
70.4564488353
 30
0.0
 40
13.61422622514705
 50
153.3399859245
 51
157.6200829553
  0
ARC
  5
B1
  8
0
  6
CONTINUOUS
 62
     7
 10
161.1504358548
 20
73.8148738494
 30
0.0
 40
11.5634857328666
 50
170.9186540211
 51
190.2348751722
  0
ARC
  5
B2
  8
0
  6
CONTINUOUS
 62
     7
 10
342.9929297828
 20
92.5641064769
 30
0.0
 40
194.3387088956153
 50
186.1452643037
 51
187.8369689809
  0
LINE
  5
B3
  8
0
  6
CONTINUOUS
 62
     7
 10
149.5054789591
 20
66.0650897598
 30
0.0
 11
150.4693315195
 21
66.0650897598
 31
0.0
  0
LINE
  5
B4
  8
0
  6
CONTINUOUS
 62
     7
 10
150.4693315195
 20
126.0650897598
 30
0.0
 11
149.5054789591
 21
126.0650897598
 31
0.0
  0
LINE
  5
B5
  8
0
  6
CONTINUOUS
 62
     7
 10
148.8113299621
 20
121.0650897598
 30
0.0
 11
148.8113299621
 21
71.0650897598
 31
0.0
  0
LINE
  5
B6
  8
0
  6
CONTINUOUS
 62
     7
 10
150.153865824
 20
112.0650897598
 30
0.0
 11
162.7113299621
 21
112.0650897598
 31
0.0
  0
LINE
  5
B7
  8
0
  6
CONTINUOUS
 62
     7
 10
162.7113299621
 20
80.0650897598
 30
0.0
 11
162.7113299621
 21
112.0650897598
 31
0.0
  0
LINE
  5
B8
  8
0
  6
CONTINUOUS
 62
     7
 10
150.153865824
 20
80.0650897598
 30
0.0
 11
162.7113299621
 21
80.0650897598
 31
0.0
  0
LINE
  5
B9
  8
0
  6
CONTINUOUS
 62
     7
 10
150.153865824
 20
115.5650897598
 30
0.0
 11
162.7113299621
 21
115.5650897598
 31
0.0
  0
LINE
  5
BA
  8
0
  6
CONTINUOUS
 62
     7
 10
162.7113299621
 20
112.0650897598
 30
0.0
 11
162.7113299621
 21
115.5650897598
 31
0.0
  0
LINE
  5
BB
  8
0
  6
CONTINUOUS
 62
     7
 10
150.153865824
 20
76.5650897598
 30
0.0
 11
162.7113299621
 21
76.5650897598
 31
0.0
  0
LINE
  5
BC
  8
0
  6
CONTINUOUS
 62
     7
 10
162.7113299621
 20
76.5650897598
 30
0.0
 11
162.7113299621
 21
80.0650897598
 31
0.0
  0
LINE
  5
BD
  8
0
  6
CONTINUOUS
 62
     7
 10
149.7318955642
 20
116.4901646
 30
0.0
 11
162.7113299621
 21
116.4901646
 31
0.0
  0
LINE
  5
BE
  8
0
  6
CONTINUOUS
 62
     7
 10
162.7113299621
 20
115.5650897598
 30
0.0
 11
162.7113299621
 21
116.4901646
 31
0.0
  0
LINE
  5
BF
  8
0
  6
CONTINUOUS
 62
     7
 10
149.7318955642
 20
75.6400149196
 30
0.0
 11
162.7113299621
 21
75.6400149196
 31
0.0
  0
LINE
  5
C0
  8
0
  6
CONTINUOUS
 62
     7
 10
162.7113299621
 20
75.6400149196
 30
0.0
 11
162.7113299621
 21
76.5650897598
 31
0.0
  0
LINE
  5
C1
  8
0
  6
CONTINUOUS
 62
     7
 10
149.7709525097
 20
71.7602300622
 30
0.0
 11
162.7113299621
 21
71.7602300622
 31
0.0
  0
LINE
  5
C2
  8
0
  6
CONTINUOUS
 62
     7
 10
162.7113299621
 20
71.7602300622
 30
0.0
 11
162.7113299621
 21
75.6400149196
 31
0.0
  0
LINE
  5
C3
  8
0
  6
CONTINUOUS
 62
     7
 10
149.7709525097
 20
120.3699494574
 30
0.0
 11
162.7113299621
 21
120.3699494574
 31
0.0
  0
LINE
  5
C4
  8
0
  6
CONTINUOUS
 62
     7
 10
162.7113299621
 20
116.4901646
 30
0.0
 11
162.7113299621
 21
120.3699494574
 31
0.0
  0
LINE
  5
C5
  8
0
  6
CONTINUOUS
 62
     7
 10
150.4693315195
 20
66.0650897598
 30
0.0
 11
162.7113299621
 21
66.0650897598
 31
0.0
  0
LINE
  5
C6
  8
0
  6
CONTINUOUS
 62
     7
 10
162.7113299621
 20
66.0650897598
 30
0.0
 11
162.7113299621
 21
71.7602300622
 31
0.0
  0
LINE
  5
C7
  8
0
  6
CONTINUOUS
 62
     7
 10
150.4693315195
 20
126.0650897598
 30
0.0
 11
162.7113299621
 21
126.0650897598
 31
0.0
  0
LINE
  5
C8
  8
0
  6
CONTINUOUS
 62
     7
 10
162.7113299621
 20
120.3699494574
 30
0.0
 11
162.7113299621
 21
126.0650897598
 31
0.0
  0
LINE
  5
C9
  8
0
  6
CONTINUOUS
 62
     7
 10
150.2113299621
 20
55.0650897598
 30
0.0
 11
150.2113299621
 21
56.4903511774
 31
0.0
  0
LINE
  5
CA
  8
0
  6
CONTINUOUS
 62
     7
 10
150.2113299621
 20
56.4903511774
 30
0.0
 11
162.2113299621
 21
56.4903511774
 31
0.0
  0
LINE
  5
CB
  8
0
  6
CONTINUOUS
 62
     7
 10
162.2113299621
 20
55.0650897598
 30
0.0
 11
162.2113299621
 21
56.4903511774
 31
0.0
  0
ARC
  5
CC
  8
0
  6
CONTINUOUS
 62
     7
 10
156.2111649605
 20
-4.8217595332
 30
0.0
 40
60.09520004342637
 50
85.2864580262
 51
94.7724438483
  0
LINE
  5
CD
  8
0
  6
CONTINUOUS
 62
     7
 10
162.2113299621
 20
56.4903511774
 30
0.0
 11
162.2113299621
 21
66.0650897598
 31
0.0
  0
LINE
  5
CE
  8
0
  6
CONTINUOUS
 62
     7
 10
150.2113299621
 20
56.4903511774
 30
0.0
 11
150.2113299621
 21
66.0650897598
 31
0.0
  0
LINE
  5
CF
  8
0
  6
CONTINUOUS
 62
     7
 10
151.2113299621
 20
53.0650897598
 30
0.0
 11
161.2113299621
 21
53.0650897598
 31
0.0
  0
LINE
  5
D0
  8
0
  6
CONTINUOUS
 62
     7
 10
159.2113299621
 20
16.0650897598
 30
0.0
 11
153.2113299621
 21
16.0650897598
 31
0.0
  0
LINE
  5
D1
  8
0
  6
CONTINUOUS
 62
     7
 10
173.5113299621
 20
80.0650897598
 30
0.0
 11
162.7113299621
 21
80.0650897598
 31
0.0
  0
LINE
  5
D2
  8
0
  6
CONTINUOUS
 62
     7
 10
173.5113299621
 20
76.5650897598
 30
0.0
 11
173.5113299621
 21
80.0650897598
 31
0.0
  0
LINE
  5
D3
  8
0
  6
CONTINUOUS
 62
     7
 10
173.5113299621
 20
76.5650897598
 30
0.0
 11
162.7113299621
 21
76.5650897598
 31
0.0
  0
LINE
  5
D4
  8
0
  6
CONTINUOUS
 62
     7
 10
173.5113299621
 20
112.0650897598
 30
0.0
 11
162.7113299621
 21
112.0650897598
 31
0.0
  0
LINE
  5
D5
  8
0
  6
CONTINUOUS
 62
     7
 10
173.5113299621
 20
80.0650897598
 30
0.0
 11
173.5113299621
 21
112.0650897598
 31
0.0
  0
LINE
  5
D6
  8
0
  6
CONTINUOUS
 62
     7
 10
173.5113299621
 20
115.5650897598
 30
0.0
 11
162.7113299621
 21
115.5650897598
 31
0.0
  0
LINE
  5
D7
  8
0
  6
CONTINUOUS
 62
     7
 10
173.5113299621
 20
112.0650897598
 30
0.0
 11
173.5113299621
 21
115.5650897598
 31
0.0
  0
LINE
  5
D8
  8
0
  6
CONTINUOUS
 62
     7
 10
173.5113299621
 20
116.4901646
 30
0.0
 11
162.7113299621
 21
116.4901646
 31
0.0
  0
LINE
  5
D9
  8
0
  6
CONTINUOUS
 62
     7
 10
173.5113299621
 20
115.5650897598
 30
0.0
 11
173.5113299621
 21
116.4901646
 31
0.0
  0
LINE
  5
DA
  8
0
  6
CONTINUOUS
 62
     7
 10
173.5113299621
 20
75.6400149196
 30
0.0
 11
162.7113299621
 21
75.6400149196
 31
0.0
  0
LINE
  5
DB
  8
0
  6
CONTINUOUS
 62
     7
 10
173.5113299621
 20
75.6400149196
 30
0.0
 11
173.5113299621
 21
76.5650897598
 31
0.0
  0
LINE
  5
DC
  8
0
  6
CONTINUOUS
 62
     7
 10
173.5113299621
 20
71.7602300622
 30
0.0
 11
162.7113299621
 21
71.7602300622
 31
0.0
  0
LINE
  5
DD
  8
0
  6
CONTINUOUS
 62
     7
 10
173.5113299621
 20
71.7602300622
 30
0.0
 11
173.5113299621
 21
75.6400149196
 31
0.0
  0
LINE
  5
DE
  8
0
  6
CONTINUOUS
 62
     7
 10
173.5113299621
 20
120.3699494574
 30
0.0
 11
162.7113299621
 21
120.3699494574
 31
0.0
  0
LINE
  5
DF
  8
0
  6
CONTINUOUS
 62
     7
 10
173.5113299621
 20
116.4901646
 30
0.0
 11
173.5113299621
 21
120.3699494574
 31
0.0
  0
LINE
  5
E0
  8
0
  6
CONTINUOUS
 62
     7
 10
173.5113299621
 20
66.0650897598
 30
0.0
 11
162.7113299621
 21
66.0650897598
 31
0.0
  0
LINE
  5
E1
  8
0
  6
CONTINUOUS
 62
     7
 10
173.5113299621
 20
66.0650897598
 30
0.0
 11
173.5113299621
 21
71.7602300622
 31
0.0
  0
LINE
  5
E2
  8
0
  6
CONTINUOUS
 62
     7
 10
173.5113299621
 20
126.0650897598
 30
0.0
 11
162.7113299621
 21
126.0650897598
 31
0.0
  0
LINE
  5
E3
  8
0
  6
CONTINUOUS
 62
     7
 10
173.5113299621
 20
120.3699494574
 30
0.0
 11
173.5113299621
 21
126.0650897598
 31
0.0
  0
LINE
  5
E4
  8
0
  6
CONTINUOUS
 62
     7
 10
215.3113299621
 20
112.0650897598
 30
0.0
 11
173.5113299621
 21
112.0650897598
 31
0.0
  0
LINE
  5
E5
  8
0
  6
CONTINUOUS
 62
     7
 10
215.3113299621
 20
115.5650897598
 30
0.0
 11
173.5113299621
 21
115.5650897598
 31
0.0
  0
LINE
  5
E6
  8
0
  6
CONTINUOUS
 62
     7
 10
215.3113299621
 20
115.5650897598
 30
0.0
 11
215.3113299621
 21
112.0650897598
 31
0.0
  0
LINE
  5
E7
  8
0
  6
CONTINUOUS
 62
     7
 10
215.3113299621
 20
80.0650897598
 30
0.0
 11
173.5113299621
 21
80.0650897598
 31
0.0
  0
LINE
  5
E8
  8
0
  6
CONTINUOUS
 62
     7
 10
215.3113299621
 20
112.0650897598
 30
0.0
 11
215.3113299621
 21
80.0650897598
 31
0.0
  0
LINE
  5
E9
  8
0
  6
CONTINUOUS
 62
     7
 10
215.3113299621
 20
76.5650897598
 30
0.0
 11
173.5113299621
 21
76.5650897598
 31
0.0
  0
LINE
  5
EA
  8
0
  6
CONTINUOUS
 62
     7
 10
215.3113299621
 20
80.0650897598
 30
0.0
 11
215.3113299621
 21
76.5650897598
 31
0.0
  0
LINE
  5
EB
  8
0
  6
CONTINUOUS
 62
     7
 10
215.3113299621
 20
75.6400149196
 30
0.0
 11
173.5113299621
 21
75.6400149196
 31
0.0
  0
LINE
  5
EC
  8
0
  6
CONTINUOUS
 62
     7
 10
215.3113299621
 20
76.5650897598
 30
0.0
 11
215.3113299621
 21
75.6400149196
 31
0.0
  0
LINE
  5
ED
  8
0
  6
CONTINUOUS
 62
     7
 10
215.3113299621
 20
116.4901646
 30
0.0
 11
173.5113299621
 21
116.4901646
 31
0.0
  0
LINE
  5
EE
  8
0
  6
CONTINUOUS
 62
     7
 10
215.3113299621
 20
116.4901646
 30
0.0
 11
215.3113299621
 21
115.5650897598
 31
0.0
  0
LINE
  5
EF
  8
0
  6
CONTINUOUS
 62
     7
 10
215.3113299621
 20
120.3699494574
 30
0.0
 11
173.5113299621
 21
120.3699494574
 31
0.0
  0
LINE
  5
F0
  8
0
  6
CONTINUOUS
 62
     7
 10
215.3113299621
 20
120.3699494574
 30
0.0
 11
215.3113299621
 21
116.4901646
 31
0.0
  0
LINE
  5
F1
  8
0
  6
CONTINUOUS
 62
     7
 10
215.3113299621
 20
71.7602300622
 30
0.0
 11
173.5113299621
 21
71.7602300622
 31
0.0
  0
LINE
  5
F2
  8
0
  6
CONTINUOUS
 62
     7
 10
215.3113299621
 20
75.6400149196
 30
0.0
 11
215.3113299621
 21
71.7602300622
 31
0.0
  0
LINE
  5
F3
  8
0
  6
CONTINUOUS
 62
     7
 10
215.3113299621
 20
66.0650897598
 30
0.0
 11
173.5113299621
 21
66.0650897598
 31
0.0
  0
LINE
  5
F4
  8
0
  6
CONTINUOUS
 62
     7
 10
215.3113299621
 20
71.7602300622
 30
0.0
 11
215.3113299621
 21
66.0650897598
 31
0.0
  0
LINE
  5
F5
  8
0
  6
CONTINUOUS
 62
     7
 10
215.3113299621
 20
126.0650897598
 30
0.0
 11
173.5113299621
 21
126.0650897598
 31
0.0
  0
LINE
  5
F6
  8
0
  6
CONTINUOUS
 62
     7
 10
215.3113299621
 20
126.0650897598
 30
0.0
 11
215.3113299621
 21
120.3699494574
 31
0.0
  0
LINE
  5
F7
  8
0
  6
CONTINUOUS
 62
     7
 10
186.3113299621
 20
56.4903511774
 30
0.0
 11
198.3113299621
 21
56.4903511774
 31
0.0
  0
LINE
  5
F8
  8
0
  6
CONTINUOUS
 62
     7
 10
198.3113299621
 20
55.0650897598
 30
0.0
 11
198.3113299621
 21
56.4903511774
 31
0.0
  0
ARC
  5
F9
  8
0
  6
CONTINUOUS
 62
     7
 10
192.3111649605
 20
-4.8217595333
 30
0.0
 40
60.09520004342937
 50
85.2864580262
 51
94.7724438483
  0
LINE
  5
FA
  8
0
  6
CONTINUOUS
 62
     7
 10
186.3113299621
 20
55.0650897598
 30
0.0
 11
186.3113299621
 21
56.4903511774
 31
0.0
  0
LINE
  5
FB
  8
0
  6
CONTINUOUS
 62
     7
 10
198.3113299621
 20
56.4903511774
 30
0.0
 11
198.3113299621
 21
66.0650897598
 31
0.0
  0
LINE
  5
FC
  8
0
  6
CONTINUOUS
 62
     7
 10
186.3113299621
 20
56.4903511774
 30
0.0
 11
186.3113299621
 21
66.0650897598
 31
0.0
  0
LINE
  5
FD
  8
0
  6
CONTINUOUS
 62
     7
 10
187.3113299621
 20
53.0650897598
 30
0.0
 11
197.3113299621
 21
53.0650897598
 31
0.0
  0
LINE
  5
FE
  8
0
  6
CONTINUOUS
 62
     7
 10
195.3113299621
 20
16.0650897598
 30
0.0
 11
189.3113299621
 21
16.0650897598
 31
0.0
  0
LINE
  5
FF
  8
0
  6
CONTINUOUS
 62
     7
 10
218.3113299621
 20
112.0650897598
 30
0.0
 11
215.3113299621
 21
112.0650897598
 31
0.0
  0
LINE
  5
100
  8
0
  6
CONTINUOUS
 62
     7
 10
218.3113299621
 20
80.0650897598
 30
0.0
 11
218.3113299621
 21
112.0650897598
 31
0.0
  0
LINE
  5
101
  8
0
  6
CONTINUOUS
 62
     7
 10
218.3113299621
 20
80.0650897598
 30
0.0
 11
215.3113299621
 21
80.0650897598
 31
0.0
  0
LINE
  5
102
  8
0
  6
CONTINUOUS
 62
     7
 10
218.3113299621
 20
76.5650897598
 30
0.0
 11
215.3113299621
 21
76.5650897598
 31
0.0
  0
LINE
  5
103
  8
0
  6
CONTINUOUS
 62
     7
 10
218.3113299621
 20
76.5650897598
 30
0.0
 11
218.3113299621
 21
80.0650897598
 31
0.0
  0
LINE
  5
104
  8
0
  6
CONTINUOUS
 62
     7
 10
218.3113299621
 20
115.5650897598
 30
0.0
 11
215.3113299621
 21
115.5650897598
 31
0.0
  0
LINE
  5
105
  8
0
  6
CONTINUOUS
 62
     7
 10
218.3113299621
 20
112.0650897598
 30
0.0
 11
218.3113299621
 21
115.5650897598
 31
0.0
  0
LINE
  5
106
  8
0
  6
CONTINUOUS
 62
     7
 10
218.3113299621
 20
75.6400149196
 30
0.0
 11
215.3113299621
 21
75.6400149196
 31
0.0
  0
LINE
  5
107
  8
0
  6
CONTINUOUS
 62
     7
 10
218.3113299621
 20
75.6400149196
 30
0.0
 11
218.3113299621
 21
76.5650897598
 31
0.0
  0
LINE
  5
108
  8
0
  6
CONTINUOUS
 62
     7
 10
218.3113299621
 20
116.4901646
 30
0.0
 11
215.3113299621
 21
116.4901646
 31
0.0
  0
LINE
  5
109
  8
0
  6
CONTINUOUS
 62
     7
 10
218.3113299621
 20
115.5650897598
 30
0.0
 11
218.3113299621
 21
116.4901646
 31
0.0
  0
LINE
  5
10A
  8
0
  6
CONTINUOUS
 62
     7
 10
218.3113299621
 20
120.3699494574
 30
0.0
 11
215.3113299621
 21
120.3699494574
 31
0.0
  0
LINE
  5
10B
  8
0
  6
CONTINUOUS
 62
     7
 10
218.3113299621
 20
116.4901646
 30
0.0
 11
218.3113299621
 21
120.3699494574
 31
0.0
  0
LINE
  5
10C
  8
0
  6
CONTINUOUS
 62
     7
 10
218.3113299621
 20
71.7602300622
 30
0.0
 11
215.3113299621
 21
71.7602300622
 31
0.0
  0
LINE
  5
10D
  8
0
  6
CONTINUOUS
 62
     7
 10
218.3113299621
 20
71.7602300622
 30
0.0
 11
218.3113299621
 21
75.6400149196
 31
0.0
  0
LINE
  5
10E
  8
0
  6
CONTINUOUS
 62
     7
 10
218.3113299621
 20
66.0650897598
 30
0.0
 11
215.3113299621
 21
66.0650897598
 31
0.0
  0
LINE
  5
10F
  8
0
  6
CONTINUOUS
 62
     7
 10
218.3113299621
 20
66.0650897598
 30
0.0
 11
218.3113299621
 21
71.7602300622
 31
0.0
  0
LINE
  5
110
  8
0
  6
CONTINUOUS
 62
     7
 10
218.3113299621
 20
126.0650897598
 30
0.0
 11
215.3113299621
 21
126.0650897598
 31
0.0
  0
LINE
  5
111
  8
0
  6
CONTINUOUS
 62
     7
 10
218.3113299621
 20
120.3699494574
 30
0.0
 11
218.3113299621
 21
126.0650897598
 31
0.0
  0
LINE
  5
112
  8
0
  6
CONTINUOUS
 62
     7
 10
299.3113299621
 20
80.0650897598
 30
0.0
 11
218.3113299621
 21
80.0650897598
 31
0.0
  0
LINE
  5
113
  8
0
  6
CONTINUOUS
 62
     7
 10
299.3113299621
 20
76.5650897598
 30
0.0
 11
299.3113299621
 21
80.0650897598
 31
0.0
  0
LINE
  5
114
  8
0
  6
CONTINUOUS
 62
     7
 10
299.3113299621
 20
76.5650897598
 30
0.0
 11
218.3113299621
 21
76.5650897598
 31
0.0
  0
LINE
  5
115
  8
0
  6
CONTINUOUS
 62
     7
 10
299.3113299621
 20
112.0650897598
 30
0.0
 11
218.3113299621
 21
112.0650897598
 31
0.0
  0
LINE
  5
116
  8
0
  6
CONTINUOUS
 62
     7
 10
299.3113299621
 20
112.0650897598
 30
0.0
 11
299.3113299621
 21
80.0650897598
 31
0.0
  0
LINE
  5
117
  8
0
  6
CONTINUOUS
 62
     7
 10
299.3113299621
 20
115.5650897598
 30
0.0
 11
218.3113299621
 21
115.5650897598
 31
0.0
  0
LINE
  5
118
  8
0
  6
CONTINUOUS
 62
     7
 10
299.3113299621
 20
115.5650897598
 30
0.0
 11
299.3113299621
 21
112.0650897598
 31
0.0
  0
LINE
  5
119
  8
0
  6
CONTINUOUS
 62
     7
 10
299.3113299621
 20
116.4901646
 30
0.0
 11
218.3113299621
 21
116.4901646
 31
0.0
  0
LINE
  5
11A
  8
0
  6
CONTINUOUS
 62
     7
 10
299.3113299621
 20
116.4901646
 30
0.0
 11
299.3113299621
 21
115.5650897598
 31
0.0
  0
LINE
  5
11B
  8
0
  6
CONTINUOUS
 62
     7
 10
299.3113299621
 20
75.6400149196
 30
0.0
 11
218.3113299621
 21
75.6400149196
 31
0.0
  0
LINE
  5
11C
  8
0
  6
CONTINUOUS
 62
     7
 10
299.3113299621
 20
75.6400149196
 30
0.0
 11
299.3113299621
 21
76.5650897598
 31
0.0
  0
LINE
  5
11D
  8
0
  6
CONTINUOUS
 62
     7
 10
299.3113299621
 20
120.3699494574
 30
0.0
 11
218.3113299621
 21
120.3699494574
 31
0.0
  0
LINE
  5
11E
  8
0
  6
CONTINUOUS
 62
     7
 10
299.3113299621
 20
120.3699494574
 30
0.0
 11
299.3113299621
 21
116.4901646
 31
0.0
  0
LINE
  5
11F
  8
0
  6
CONTINUOUS
 62
     7
 10
299.3113299621
 20
71.7602300622
 30
0.0
 11
218.3113299621
 21
71.7602300622
 31
0.0
  0
LINE
  5
120
  8
0
  6
CONTINUOUS
 62
     7
 10
299.3113299621
 20
71.7602300622
 30
0.0
 11
299.3113299621
 21
75.6400149196
 31
0.0
  0
LINE
  5
121
  8
0
  6
CONTINUOUS
 62
     7
 10
299.3113299621
 20
66.0650897598
 30
0.0
 11
218.3113299621
 21
66.0650897598
 31
0.0
  0
LINE
  5
122
  8
0
  6
CONTINUOUS
 62
     7
 10
299.3113299621
 20
66.0650897598
 30
0.0
 11
299.3113299621
 21
71.7602300622
 31
0.0
  0
LINE
  5
123
  8
0
  6
CONTINUOUS
 62
     7
 10
299.3113299621
 20
126.0650897598
 30
0.0
 11
218.3113299621
 21
126.0650897598
 31
0.0
  0
LINE
  5
124
  8
0
  6
CONTINUOUS
 62
     7
 10
299.3113299621
 20
126.0650897598
 30
0.0
 11
299.3113299621
 21
120.3699494574
 31
0.0
  0
CIRCLE
  5
125
  8
0
  6
CONTINUOUS
 62
     7
 10
230.5113299621
 20
61.8650897598
 30
0.0
 40
2.650000000000006
  0
CIRCLE
  5
126
  8
0
  6
CONTINUOUS
 62
     7
 10
230.5113299621
 20
61.8650897598
 30
0.0
 40
3.0
  0
LINE
  5
127
  8
0
  6
CONTINUOUS
 62
     7
 10
228.5113299621
 20
61.0250897598
 30
0.0
 11
232.5113299621
 21
61.0250897598
 31
0.0
  0
LINE
  5
128
  8
0
  6
CONTINUOUS
 62
     7
 10
230.3363299621
 20
63.9750897598
 30
0.0
 11
230.3363299621
 21
61.3750897598
 31
0.0
  0
LINE
  5
129
  8
0
  6
CONTINUOUS
 62
     7
 10
230.3363299621
 20
63.9750897598
 30
0.0
 11
230.6863299621
 21
63.9750897598
 31
0.0
  0
LINE
  5
12A
  8
0
  6
CONTINUOUS
 62
     7
 10
230.6863299621
 20
61.3750897598
 30
0.0
 11
232.5113299621
 21
61.3750897598
 31
0.0
  0
LINE
  5
12B
  8
0
  6
CONTINUOUS
 62
     7
 10
232.5113299621
 20
61.3750897598
 30
0.0
 11
232.5113299621
 21
61.0250897598
 31
0.0
  0
LINE
  5
12C
  8
0
  6
CONTINUOUS
 62
     7
 10
230.6863299621
 20
63.9750897598
 30
0.0
 11
230.6863299621
 21
61.3750897598
 31
0.0
  0
LINE
  5
12D
  8
0
  6
CONTINUOUS
 62
     7
 10
228.5113299621
 20
61.3750897598
 30
0.0
 11
228.5113299621
 21
61.0250897598
 31
0.0
  0
LINE
  5
12E
  8
0
  6
CONTINUOUS
 62
     7
 10
228.5113299621
 20
61.3750897598
 30
0.0
 11
230.3363299621
 21
61.3750897598
 31
0.0
  0
LINE
  5
12F
  8
0
  6
CONTINUOUS
 62
     7
 10
229.7113299621
 20
60.1150897598
 30
0.0
 11
229.7113299621
 21
59.7650897598
 31
0.0
  0
LINE
  5
130
  8
0
  6
CONTINUOUS
 62
     7
 10
229.7113299621
 20
60.1150897598
 30
0.0
 11
231.3113299621
 21
60.1150897598
 31
0.0
  0
LINE
  5
131
  8
0
  6
CONTINUOUS
 62
     7
 10
231.3113299621
 20
60.1150897598
 30
0.0
 11
231.3113299621
 21
59.7650897598
 31
0.0
  0
LINE
  5
132
  8
0
  6
CONTINUOUS
 62
     7
 10
229.7113299621
 20
59.7650897598
 30
0.0
 11
231.3113299621
 21
59.7650897598
 31
0.0
  0
LINE
  5
133
  8
0
  6
CONTINUOUS
 62
     7
 10
229.1113299621
 20
60.3950897598
 30
0.0
 11
231.9113299621
 21
60.3950897598
 31
0.0
  0
LINE
  5
134
  8
0
  6
CONTINUOUS
 62
     7
 10
229.1113299621
 20
60.7450897598
 30
0.0
 11
229.1113299621
 21
60.3950897598
 31
0.0
  0
LINE
  5
135
  8
0
  6
CONTINUOUS
 62
     7
 10
229.1113299621
 20
60.7450897598
 30
0.0
 11
231.9113299621
 21
60.7450897598
 31
0.0
  0
LINE
  5
136
  8
0
  6
CONTINUOUS
 62
     7
 10
231.9113299621
 20
60.7450897598
 30
0.0
 11
231.9113299621
 21
60.3950897598
 31
0.0
  0
LINE
  5
137
  8
0
  6
CONTINUOUS
 62
     7
 10
232.5113299621
 20
56.6035639501
 30
0.0
 11
232.5113299621
 21
55.0650897602
 31
0.0
  0
LINE
  5
138
  8
0
  6
CONTINUOUS
 62
     7
 10
240.8113299621
 20
60.6523444379
 30
0.0
 11
232.5113299621
 21
56.6035639501
 31
0.0
  0
POLYLINE
  5
139
  8
0
  6
CONTINUOUS
 62
     7
 66
     1
 10
0.0
 20
0.0
 30
0.0
 70
   128
  0
VERTEX
  5
404
  8
0
  6
CONTINUOUS
 62
     7
 10
244.8113299621
 20
61.8219466967
 30
0.0
  0
VERTEX
  5
405
  8
0
  6
CONTINUOUS
 62
     7
 10
244.6226691141
 20
61.9373835308
 30
0.0
  0
VERTEX
  5
406
  8
0
  6
CONTINUOUS
 62
     7
 10
244.0715782723
 20
61.8795225898
 30
0.0
  0
VERTEX
  5
407
  8
0
  6
CONTINUOUS
 62
     7
 10
243.2366713458
 20
61.6523015099
 30
0.0
  0
VERTEX
  5
408
  8
0
  6
CONTINUOUS
 62
     7
 10
242.1778016905
 20
61.2638673554
 30
0.0
  0
VERTEX
  5
409
  8
0
  6
CONTINUOUS
 62
     7
 10
240.8113299621
 20
60.6523444379
 30
0.0
  0
SEQEND
  5
50F
  8
0
  6
CONTINUOUS
 62
     7
  0
LINE
  5
13A
  8
0
  6
CONTINUOUS
 62
     7
 10
244.8113299621
 20
61.8219466967
 30
0.0
 11
244.8113299621
 21
61.0846208567
 31
0.0
  0
LINE
  5
13B
  8
0
  6
CONTINUOUS
 62
     7
 10
216.3113299621
 20
56.6035639501
 30
0.0
 11
232.5113299621
 21
56.6035639501
 31
0.0
  0
ARC
  5
13C
  8
0
  6
CONTINUOUS
 62
     7
 10
225.3111522199
 20
-4.8105263176
 30
0.0
 40
60.10532450945897
 50
85.0511233862
 51
95.0108111729
  0
LINE
  5
13D
  8
0
  6
CONTINUOUS
 62
     7
 10
216.3113299621
 20
55.0650897598
 30
0.0
 11
216.3113299621
 21
56.6035639501
 31
0.0
  0
LINE
  5
13E
  8
0
  6
CONTINUOUS
 62
     7
 10
240.8113299621
 20
60.6523444379
 30
0.0
 11
240.8113299621
 21
66.0650897598
 31
0.0
  0
LINE
  5
13F
  8
0
  6
CONTINUOUS
 62
     7
 10
244.8113299621
 20
66.0650897598
 30
0.0
 11
244.8113299621
 21
61.8219466967
 31
0.0
  0
LINE
  5
140
  8
0
  6
CONTINUOUS
 62
     7
 10
216.3113299621
 20
56.6035639501
 30
0.0
 11
216.3113299621
 21
66.0650897598
 31
0.0
  0
LINE
  5
141
  8
0
  6
CONTINUOUS
 62
     7
 10
220.0613299621
 20
53.0650897598
 30
0.0
 11
230.5613299621
 21
53.0650897598
 31
0.0
  0
LINE
  5
142
  8
0
  6
CONTINUOUS
 62
     7
 10
229.0613299621
 20
51.0650897598
 30
0.0
 11
221.5613299621
 21
51.0650897598
 31
0.0
  0
LINE
  5
143
  8
0
  6
CONTINUOUS
 62
     7
 10
222.0613299621
 20
16.0650897598
 30
0.0
 11
228.5613299621
 21
16.0650897598
 31
0.0
  0
LINE
  5
144
  8
0
  6
CONTINUOUS
 62
     7
 10
301.6090803597
 20
126.0650897598
 30
0.0
 11
312.3113299621
 21
126.0650897598
 31
0.0
  0
LINE
  5
145
  8
0
  6
CONTINUOUS
 62
     7
 10
312.3113299621
 20
126.0650897598
 30
0.0
 11
312.3113299621
 21
121.0650897598
 31
0.0
  0
LINE
  5
146
  8
0
  6
CONTINUOUS
 62
     7
 10
312.3113299621
 20
121.0650897598
 30
0.0
 11
301.6090803597
 21
121.0650897598
 31
0.0
  0
POLYLINE
  5
147
  8
0
  6
CONTINUOUS
 62
     7
 66
     1
 10
0.0
 20
0.0
 30
0.0
 70
   128
  0
VERTEX
  5
40A
  8
0
  6
CONTINUOUS
 62
     7
 10
301.6090803597
 20
121.0650897598
 30
0.0
  0
VERTEX
  5
40B
  8
0
  6
CONTINUOUS
 62
     7
 10
301.7830271271
 20
122.7063089823
 30
0.0
  0
VERTEX
  5
40C
  8
0
  6
CONTINUOUS
 62
     7
 10
301.8672651299
 20
124.1717117749
 30
0.0
  0
VERTEX
  5
40D
  8
0
  6
CONTINUOUS
 62
     7
 10
301.8517789324
 20
125.2827764889
 30
0.0
  0
VERTEX
  5
40E
  8
0
  6
CONTINUOUS
 62
     7
 10
301.7402862443
 20
125.9269320876
 30
0.0
  0
VERTEX
  5
40F
  8
0
  6
CONTINUOUS
 62
     7
 10
301.6090803597
 20
126.0650897598
 30
0.0
  0
SEQEND
  5
510
  8
0
  6
CONTINUOUS
 62
     7
  0
POLYLINE
  5
148
  8
0
  6
CONTINUOUS
 62
     7
 66
     1
 10
0.0
 20
0.0
 30
0.0
 70
   128
  0
VERTEX
  5
410
  8
0
  6
CONTINUOUS
 62
     7
 10
300.9604245144
 20
68.0083641044
 30
0.0
  0
VERTEX
  5
411
  8
0
  6
CONTINUOUS
 62
     7
 10
301.2191557285
 20
67.1718092133
 30
0.0
  0
VERTEX
  5
412
  8
0
  6
CONTINUOUS
 62
     7
 10
301.4485344878
 20
66.7847132711
 30
0.0
  0
VERTEX
  5
413
  8
0
  6
CONTINUOUS
 62
     7
 10
301.6204298383
 20
66.8950603455
 30
0.0
  0
VERTEX
  5
414
  8
0
  6
CONTINUOUS
 62
     7
 10
301.7147776788
 20
67.4798539163
 30
0.0
  0
VERTEX
  5
415
  8
0
  6
CONTINUOUS
 62
     7
 10
301.7233860446
 20
68.4572486689
 30
0.0
  0
VERTEX
  5
416
  8
0
  6
CONTINUOUS
 62
     7
 10
301.6478439787
 20
69.7125111379
 30
0.0
  0
VERTEX
  5
417
  8
0
  6
CONTINUOUS
 62
     7
 10
301.4969468659
 20
71.1146569639
 30
0.0
  0
VERTEX
  5
418
  8
0
  6
CONTINUOUS
 62
     7
 10
301.2855913777
 20
72.5210801145
 30
0.0
  0
VERTEX
  5
419
  8
0
  6
CONTINUOUS
 62
     7
 10
301.0351195692
 20
73.7796366931
 30
0.0
  0
VERTEX
  5
41A
  8
0
  6
CONTINUOUS
 62
     7
 10
300.773253163
 20
74.7398096392
 30
0.0
  0
VERTEX
  5
41B
  8
0
  6
CONTINUOUS
 62
     7
 10
300.531564857
 20
75.2772102602
 30
0.0
  0
VERTEX
  5
41C
  8
0
  6
CONTINUOUS
 62
     7
 10
300.340036368
 20
75.3228563872
 30
0.0
  0
VERTEX
  5
41D
  8
0
  6
CONTINUOUS
 62
     7
 10
300.2209619825
 20
74.8793734078
 30
0.0
  0
VERTEX
  5
41E
  8
0
  6
CONTINUOUS
 62
     7
 10
300.1856755352
 20
74.0130711554
 30
0.0
  0
VERTEX
  5
41F
  8
0
  6
CONTINUOUS
 62
     7
 10
300.235285613
 20
72.83062923
 30
0.0
  0
VERTEX
  5
420
  8
0
  6
CONTINUOUS
 62
     7
 10
300.3632157217
 20
71.4590994698
 30
0.0
  0
VERTEX
  5
421
  8
0
  6
CONTINUOUS
 62
     7
 10
300.5567753248
 20
70.0379251471
 30
0.0
  0
VERTEX
  5
422
  8
0
  6
CONTINUOUS
 62
     7
 10
300.7970579208
 20
68.7169592727
 30
0.0
  0
VERTEX
  5
423
  8
0
  6
CONTINUOUS
 62
     7
 10
300.9604245144
 20
68.0083641044
 30
0.0
  0
SEQEND
  5
511
  8
0
  6
CONTINUOUS
 62
     7
  0
ARC
  5
149
  8
0
  6
CONTINUOUS
 62
     7
 10
493.5097843422
 20
92.5641064817
 30
0.0
 40
194.338708928149
 50
186.145264304
 51
187.836968981
  0
ARC
  5
14A
  8
0
  6
CONTINUOUS
 62
     7
 10
313.5325547396
 20
73.8336510577
 30
0.0
 40
13.40605894112526
 50
172.2562785972
 51
188.8972505963
  0
ARC
  5
14B
  8
0
  6
CONTINUOUS
 62
     7
 10
312.8375466325
 20
70.4564488354
 30
0.0
 40
13.61422622488641
 50
153.3399859246
 51
157.6200829553
  0
LINE
  5
14C
  8
0
  6
CONTINUOUS
 62
     7
 10
300.6707203512
 20
80.0650897597
 30
0.0
 11
300.6707203512
 21
76.5650897598
 31
0.0
  0
ARC
  5
14D
  8
0
  6
CONTINUOUS
 62
     7
 10
497.7595328165
 20
96.0650897601
 30
0.0
 40
197.737199330325
 50
184.6411893675
 51
187.2633690637
  0
POLYLINE
  5
14E
  8
0
  6
CONTINUOUS
 62
     7
 66
     1
 10
0.0
 20
0.0
 30
0.0
 70
   128
  0
VERTEX
  5
424
  8
0
  6
CONTINUOUS
 62
     7
 10
301.6090803598
 20
66.0650897598
 30
0.0
  0
VERTEX
  5
425
  8
0
  6
CONTINUOUS
 62
     7
 10
301.7830271272
 20
66.3421246463
 30
0.0
  0
VERTEX
  5
426
  8
0
  6
CONTINUOUS
 62
     7
 10
301.86726513
 20
67.1473225825
 30
0.0
  0
VERTEX
  5
427
  8
0
  6
CONTINUOUS
 62
     7
 10
301.8517789325
 20
68.3797371469
 30
0.0
  0
VERTEX
  5
428
  8
0
  6
CONTINUOUS
 62
     7
 10
301.7402862444
 20
69.8978326418
 30
0.0
  0
VERTEX
  5
429
  8
0
  6
CONTINUOUS
 62
     7
 10
301.6090803597
 20
71.0650897598
 30
0.0
  0
SEQEND
  5
512
  8
0
  6
CONTINUOUS
 62
     7
  0
LINE
  5
14F
  8
0
  6
CONTINUOUS
 62
     7
 10
300.9861860467
 20
66.0650897598
 30
0.0
 11
301.6090803598
 21
66.0650897598
 31
0.0
  0
POLYLINE
  5
150
  8
0
  6
CONTINUOUS
 62
     7
 66
     1
 10
0.0
 20
0.0
 30
0.0
 70
   128
  0
VERTEX
  5
42A
  8
0
  6
CONTINUOUS
 62
     7
 10
300.18532925
 20
118.0245304615
 30
0.0
  0
VERTEX
  5
42B
  8
0
  6
CONTINUOUS
 62
     7
 10
300.2276700129
 20
117.1971710112
 30
0.0
  0
VERTEX
  5
42C
  8
0
  6
CONTINUOUS
 62
     7
 10
300.3495309412
 20
116.796031441
 30
0.0
  0
VERTEX
  5
42D
  8
0
  6
CONTINUOUS
 62
     7
 10
300.5381368167
 20
116.8619901233
 30
0.0
  0
VERTEX
  5
42E
  8
0
  6
CONTINUOUS
 62
     7
 10
300.7753392011
 20
117.3965948044
 30
0.0
  0
VERTEX
  5
42F
  8
0
  6
CONTINUOUS
 62
     7
 10
301.0361566676
 20
118.3550444572
 30
0.0
  0
VERTEX
  5
430
  8
0
  6
CONTINUOUS
 62
     7
 10
301.2901751004
 20
119.6356617936
 30
0.0
  0
VERTEX
  5
431
  8
0
  6
CONTINUOUS
 62
     7
 10
301.50579534
 20
121.0847451931
 30
0.0
  0
VERTEX
  5
432
  8
0
  6
CONTINUOUS
 62
     7
 10
301.6565689394
 20
122.5222735277
 30
0.0
  0
VERTEX
  5
433
  8
0
  6
CONTINUOUS
 62
     7
 10
301.7262432111
 20
123.7785030476
 30
0.0
  0
VERTEX
  5
434
  8
0
  6
CONTINUOUS
 62
     7
 10
301.7097564546
 20
124.7205162205
 30
0.0
  0
VERTEX
  5
435
  8
0
  6
CONTINUOUS
 62
     7
 10
301.6110295289
 20
125.2583223943
 30
0.0
  0
VERTEX
  5
436
  8
0
  6
CONTINUOUS
 62
     7
 10
301.4406665666
 20
125.3397232175
 30
0.0
  0
VERTEX
  5
437
  8
0
  6
CONTINUOUS
 62
     7
 10
301.2153848078
 20
124.9488637431
 30
0.0
  0
VERTEX
  5
438
  8
0
  6
CONTINUOUS
 62
     7
 10
300.9584731053
 20
124.1141659123
 30
0.0
  0
VERTEX
  5
439
  8
0
  6
CONTINUOUS
 62
     7
 10
300.6991823801
 20
122.9193228998
 30
0.0
  0
VERTEX
  5
43A
  8
0
  6
CONTINUOUS
 62
     7
 10
300.4692782348
 20
121.5039453788
 30
0.0
  0
VERTEX
  5
43B
  8
0
  6
CONTINUOUS
 62
     7
 10
300.2970623349
 20
120.0436695671
 30
0.0
  0
VERTEX
  5
43C
  8
0
  6
CONTINUOUS
 62
     7
 10
300.2017770687
 20
118.7148144628
 30
0.0
  0
VERTEX
  5
43D
  8
0
  6
CONTINUOUS
 62
     7
 10
300.18532925
 20
118.0245304615
 30
0.0
  0
SEQEND
  5
513
  8
0
  6
CONTINUOUS
 62
     7
  0
LINE
  5
151
  8
0
  6
CONTINUOUS
 62
     7
 10
300.6707203512
 20
115.5650897598
 30
0.0
 11
300.6707203511
 21
112.0650897598
 31
0.0
  0
ARC
  5
152
  8
0
  6
CONTINUOUS
 62
     7
 10
312.8375465836
 20
121.6737306629
 30
0.0
 40
13.61422617165984
 50
202.3799170399
 51
206.6600140875
  0
ARC
  5
153
  8
0
  6
CONTINUOUS
 62
     7
 10
311.6672903819
 20
118.3153056702
 30
0.0
 40
11.56348573284679
 50
169.7651248278
 51
189.081345979
  0
ARC
  5
154
  8
0
  6
CONTINUOUS
 62
     7
 10
493.5097843424
 20
99.5660730385
 30
0.0
 40
194.3387089283922
 50
172.1630310191
 51
173.8547356961
  0
LINE
  5
155
  8
0
  6
CONTINUOUS
 62
     7
 10
301.6090803597
 20
126.0650897598
 30
0.0
 11
300.9861860466
 21
126.0650897598
 31
0.0
  0
ARC
  5
156
  8
0
  6
CONTINUOUS
 62
     7
 10
497.7595328165
 20
96.0650897601
 30
0.0
 40
197.737199330325
 50
172.7366309365
 51
175.3588106327
  0
LINE
  5
157
  8
0
  6
CONTINUOUS
 62
     7
 10
301.6090803597
 20
71.0650897598
 30
0.0
 11
312.3113299621
 21
71.0650897598
 31
0.0
  0
LINE
  5
158
  8
0
  6
CONTINUOUS
 62
     7
 10
312.3113299621
 20
66.0650897598
 30
0.0
 11
301.6090803598
 21
66.0650897598
 31
0.0
  0
LINE
  5
159
  8
0
  6
CONTINUOUS
 62
     7
 10
312.3113299621
 20
71.0650897598
 30
0.0
 11
312.3113299621
 21
66.0650897598
 31
0.0
  0
LINE
  5
15A
  8
0
  6
CONTINUOUS
 62
     7
 10
300.6707203512
 20
76.5650897598
 30
0.0
 11
299.3113299621
 21
76.5650897598
 31
0.0
  0
LINE
  5
15B
  8
0
  6
CONTINUOUS
 62
     7
 10
300.6707203512
 20
80.0650897597
 30
0.0
 11
299.3113299621
 21
80.0650897598
 31
0.0
  0
LINE
  5
15C
  8
0
  6
CONTINUOUS
 62
     7
 10
300.6707203511
 20
112.0650897598
 30
0.0
 11
299.3113299621
 21
112.0650897598
 31
0.0
  0
LINE
  5
15D
  8
0
  6
CONTINUOUS
 62
     7
 10
312.3113299621
 20
71.0650897598
 30
0.0
 11
312.3113299621
 21
121.0650897598
 31
0.0
  0
LINE
  5
15E
  8
0
  6
CONTINUOUS
 62
     7
 10
300.6707203512
 20
115.5650897598
 30
0.0
 11
299.3113299621
 21
115.5650897598
 31
0.0
  0
LINE
  5
15F
  8
0
  6
CONTINUOUS
 62
     7
 10
300.2487500914
 20
75.6400149196
 30
0.0
 11
299.3113299621
 21
75.6400149196
 31
0.0
  0
LINE
  5
160
  8
0
  6
CONTINUOUS
 62
     7
 10
300.2487500913
 20
116.4901646
 30
0.0
 11
299.3113299621
 21
116.4901646
 31
0.0
  0
LINE
  5
161
  8
0
  6
CONTINUOUS
 62
     7
 10
300.2878070368
 20
120.3699494574
 30
0.0
 11
299.3113299621
 21
120.3699494574
 31
0.0
  0
LINE
  5
162
  8
0
  6
CONTINUOUS
 62
     7
 10
300.2878070369
 20
71.7602300622
 30
0.0
 11
299.3113299621
 21
71.7602300622
 31
0.0
  0
LINE
  5
163
  8
0
  6
CONTINUOUS
 62
     7
 10
300.9861860467
 20
66.0650897598
 30
0.0
 11
299.3113299621
 21
66.0650897598
 31
0.0
  0
LINE
  5
164
  8
0
  6
CONTINUOUS
 62
     7
 10
300.9861860466
 20
126.0650897598
 30
0.0
 11
299.3113299621
 21
126.0650897598
 31
0.0
  0
ARC
  5
165
  8
0
  6
CONTINUOUS
 62
     7
 10
104.1168091024
 20
64.0650897598
 30
0.0
 40
1.300000000000011
 50
0.0
 51
90.0
  0
ARC
  5
166
  8
0
  6
CONTINUOUS
 62
     7
 10
104.1168091024
 20
59.6650897598
 30
0.0
 40
1.299999999999997
 50
270.0
 51
0.0
  0
LINE
  5
167
  8
0
  6
CONTINUOUS
 62
     7
 10
103.0168091024
 20
58.3650897598
 30
0.0
 11
104.1168091024
 21
58.3650897598
 31
0.0
  0
LINE
  5
168
  8
0
  6
CONTINUOUS
 62
     7
 10
104.1168091024
 20
65.3650897598
 30
0.0
 11
103.0168091024
 21
65.3650897598
 31
0.0
  0
LINE
  5
169
  8
0
  6
CONTINUOUS
 62
     7
 10
81.9168091024
 20
55.2685314644
 30
0.0
 11
81.9168091024
 21
53.0650897598
 31
0.0
  0
LINE
  5
16A
  8
0
  6
CONTINUOUS
 62
     7
 10
91.9168091024
 20
53.0650897598
 30
0.0
 11
91.9168091024
 21
55.2734341183
 31
0.0
  0
LINE
  5
16B
  8
0
  6
CONTINUOUS
 62
     7
 10
83.9168091024
 20
53.0650897598
 30
0.0
 11
83.9168091024
 21
16.0650897598
 31
0.0
  0
LINE
  5
16C
  8
0
  6
CONTINUOUS
 62
     7
 10
89.9168091024
 20
16.0650897598
 30
0.0
 11
89.9168091024
 21
53.0650897598
 31
0.0
  0
LINE
  5
16D
  8
0
  6
CONTINUOUS
 62
     7
 10
100.4168091024
 20
58.3650897598
 30
0.0
 11
103.0168091024
 21
58.3650897598
 31
0.0
  0
LINE
  5
16E
  8
0
  6
CONTINUOUS
 62
     7
 10
103.0168091024
 20
65.3650897598
 30
0.0
 11
100.4168091024
 21
65.3650897598
 31
0.0
  0
LINE
  5
16F
  8
0
  6
CONTINUOUS
 62
     7
 10
81.6668091024
 20
55.2894284026
 30
0.0
 11
81.6668091024
 21
53.0650897598
 31
0.0
  0
LINE
  5
170
  8
0
  6
CONTINUOUS
 62
     7
 10
92.1668091024
 20
53.0650897598
 30
0.0
 11
92.1668091024
 21
55.2948708813
 31
0.0
  0
LINE
  5
171
  8
0
  6
CONTINUOUS
 62
     7
 10
83.1668091024
 20
53.0650897598
 30
0.0
 11
83.1668091024
 21
51.0650897598
 31
0.0
  0
LINE
  5
172
  8
0
  6
CONTINUOUS
 62
     7
 10
90.6668091024
 20
51.0650897598
 30
0.0
 11
90.6668091024
 21
53.0650897598
 31
0.0
  0
LINE
  5
173
  8
0
  6
CONTINUOUS
 62
     7
 10
90.1668091024
 20
16.0650897598
 30
0.0
 11
90.1668091024
 21
51.0650897598
 31
0.0
  0
LINE
  5
174
  8
0
  6
CONTINUOUS
 62
     7
 10
83.6668091024
 20
51.0650897598
 30
0.0
 11
83.6668091024
 21
16.0650897598
 31
0.0
  0
LINE
  5
175
  8
0
  6
CONTINUOUS
 62
     7
 10
105.4168091024
 20
64.0650897598
 30
0.0
 11
105.4168091024
 21
62.1150897598
 31
0.0
  0
LINE
  5
176
  8
0
  6
CONTINUOUS
 62
     7
 10
105.4168091024
 20
62.1150897598
 30
0.0
 11
104.1168091024
 21
62.1150897598
 31
0.0
  0
LINE
  5
177
  8
0
  6
CONTINUOUS
 62
     7
 10
105.4168091024
 20
61.6150897598
 30
0.0
 11
105.4168091024
 21
59.6650897598
 31
0.0
  0
LINE
  5
178
  8
0
  6
CONTINUOUS
 62
     7
 10
104.1168091024
 20
61.6150897598
 30
0.0
 11
105.4168091024
 21
61.6150897598
 31
0.0
  0
LINE
  5
179
  8
0
  6
CONTINUOUS
 62
     7
 10
103.0168091024
 20
65.3650897598
 30
0.0
 11
103.0168091024
 21
58.3650897598
 31
0.0
  0
LINE
  5
17A
  8
0
  6
CONTINUOUS
 62
     7
 10
104.1168091024
 20
62.1150897598
 30
0.0
 11
104.1168091024
 21
61.6150897598
 31
0.0
  0
CIRCLE
  5
17B
  8
0
  6
CONTINUOUS
 62
     7
 10
86.9168091024
 20
96.0650897598
 30
0.0
 40
25.00000000002451
  0
LINE
  5
17C
  8
0
  6
CONTINUOUS
 62
     7
 10
107.2684997366
 20
120.3699494574
 30
0.0
 11
106.4168091024
 21
126.0650897598
 31
0.0
  0
ARC
  5
17D
  8
0
  6
CONTINUOUS
 62
     7
 10
111.9168091024
 20
121.0650897598
 30
0.0
 40
4.700000000000019
 50
188.5053750292
 51
256.7522683717
  0
LINE
  5
17E
  8
0
  6
CONTINUOUS
 62
     7
 10
114.7690980568
 20
115.5650897598
 30
0.0
 11
110.839748388
 21
116.4901646
 31
0.0
  0
ARC
  5
17F
  8
0
  6
CONTINUOUS
 62
     7
 10
86.9168091024
 20
96.0650897598
 30
0.0
 40
34.0
 50
28.0724869359
 51
34.9967109205
  0
LINE
  5
180
  8
0
  6
CONTINUOUS
 62
     7
 10
116.9168091024
 20
80.0650897598
 30
0.0
 11
116.9168091024
 21
112.0650897598
 31
0.0
  0
ARC
  5
181
  8
0
  6
CONTINUOUS
 62
     7
 10
86.9168091024
 20
96.0650897598
 30
0.0
 40
34.00000000000001
 50
325.0032890795
 51
331.9275130641
  0
LINE
  5
182
  8
0
  6
CONTINUOUS
 62
     7
 10
110.839748388
 20
75.6400149196
 30
0.0
 11
114.7690980568
 21
76.5650897598
 31
0.0
  0
ARC
  5
183
  8
0
  6
CONTINUOUS
 62
     7
 10
111.9168091024
 20
71.0650897598
 30
0.0
 40
4.700000000000003
 50
103.2477316283
 51
171.4946249708
  0
LINE
  5
184
  8
0
  6
CONTINUOUS
 62
     7
 10
106.4168091024
 20
66.0650897598
 30
0.0
 11
107.2684997366
 21
71.7602300622
 31
0.0
  0
LINE
  5
185
  8
0
  6
CONTINUOUS
 62
     7
 10
67.4168091024
 20
66.0650897598
 30
0.0
 11
106.4168091024
 21
66.0650897598
 31
0.0
  0
LINE
  5
186
  8
0
  6
CONTINUOUS
 62
     7
 10
66.5651184682
 20
71.7602300622
 30
0.0
 11
67.4168091024
 21
66.0650897598
 31
0.0
  0
ARC
  5
187
  8
0
  6
CONTINUOUS
 62
     7
 10
61.9168091024
 20
71.0650897598
 30
0.0
 40
4.699999999999937
 50
8.5053750292
 51
76.7522683717
  0
LINE
  5
188
  8
0
  6
CONTINUOUS
 62
     7
 10
59.064520148
 20
76.5650897598
 30
0.0
 11
62.9938698168
 21
75.6400149196
 31
0.0
  0
ARC
  5
189
  8
0
  6
CONTINUOUS
 62
     7
 10
86.9168091024
 20
96.0650897598
 30
0.0
 40
33.99999999999999
 50
208.0724869359
 51
214.9967109205
  0
LINE
  5
18A
  8
0
  6
CONTINUOUS
 62
     7
 10
56.9168091024
 20
112.0650897598
 30
0.0
 11
56.9168091024
 21
80.0650897598
 31
0.0
  0
ARC
  5
18B
  8
0
  6
CONTINUOUS
 62
     7
 10
86.9168091024
 20
96.0650897598
 30
0.0
 40
33.99999999999999
 50
145.0032890795
 51
151.9275130641
  0
LINE
  5
18C
  8
0
  6
CONTINUOUS
 62
     7
 10
62.9938698168
 20
116.4901646
 30
0.0
 11
59.064520148
 21
115.5650897598
 31
0.0
  0
ARC
  5
18D
  8
0
  6
CONTINUOUS
 62
     7
 10
61.9168091024
 20
121.0650897598
 30
0.0
 40
4.699999999999962
 50
283.2477316283
 51
351.4946249708
  0
LINE
  5
18E
  8
0
  6
CONTINUOUS
 62
     7
 10
67.4168091024
 20
126.0650897598
 30
0.0
 11
66.5651184682
 21
120.3699494574
 31
0.0
  0
LINE
  5
18F
  8
0
  6
CONTINUOUS
 62
     7
 10
106.4168091024
 20
126.0650897598
 30
0.0
 11
67.4168091024
 21
126.0650897598
 31
0.0
  0
LINE
  5
190
  8
0
  6
CONTINUOUS
 62
     7
 10
73.9168091024
 20
56.4903511774
 30
0.0
 11
73.9168091024
 21
66.0650897598
 31
0.0
  0
LINE
  5
191
  8
0
  6
CONTINUOUS
 62
     7
 10
99.9168091024
 20
56.4903511774
 30
0.0
 11
99.9168091024
 21
66.0650897598
 31
0.0
  0
ARC
  5
192
  8
0
  6
CONTINUOUS
 62
     7
 10
86.9168091024
 20
115.0650897598
 30
0.0
 40
60.0
 50
257.4866746371
 51
282.5133253629
  0
LINE
  5
193
  8
0
  6
CONTINUOUS
 62
     7
 10
86.9168091024
 20
53.0650897598
 30
0.0
 11
91.9168091024
 21
53.0650897598
 31
0.0
  0
LINE
  5
194
  8
0
  6
CONTINUOUS
 62
     7
 10
81.9168091024
 20
53.0650897598
 30
0.0
 11
86.9168091024
 21
53.0650897598
 31
0.0
  0
LINE
  5
195
  8
0
  6
CONTINUOUS
 62
     7
 10
89.9168091024
 20
16.0650897598
 30
0.0
 11
83.9168091024
 21
16.0650897598
 31
0.0
  0
LINE
  5
196
  8
0
  6
CONTINUOUS
 62
     7
 10
100.4168091024
 20
56.6035639501
 30
0.0
 11
100.4168091024
 21
66.0650897598
 31
0.0
  0
LINE
  5
197
  8
0
  6
CONTINUOUS
 62
     7
 10
73.4168091024
 20
56.6035639501
 30
0.0
 11
73.9168091024
 21
56.4903511774
 31
0.0
  0
LINE
  5
198
  8
0
  6
CONTINUOUS
 62
     7
 10
99.9168091024
 20
56.4903511774
 30
0.0
 11
100.4168091024
 21
56.6035639501
 31
0.0
  0
LINE
  5
199
  8
0
  6
CONTINUOUS
 62
     7
 10
73.4168091024
 20
56.6035639501
 30
0.0
 11
73.4168091024
 21
66.0650897598
 31
0.0
  0
LINE
  5
19A
  8
0
  6
CONTINUOUS
 62
     7
 10
91.9168091024
 20
53.0650897598
 30
0.0
 11
92.1668091024
 21
53.0650897598
 31
0.0
  0
LINE
  5
19B
  8
0
  6
CONTINUOUS
 62
     7
 10
81.6668091024
 20
53.0650897598
 30
0.0
 11
81.9168091024
 21
53.0650897598
 31
0.0
  0
LINE
  5
19C
  8
0
  6
CONTINUOUS
 62
     7
 10
90.6668091024
 20
51.0650897598
 30
0.0
 11
89.9168091024
 21
51.0650897598
 31
0.0
  0
LINE
  5
19D
  8
0
  6
CONTINUOUS
 62
     7
 10
83.9168091024
 20
51.0650897598
 30
0.0
 11
83.1668091024
 21
51.0650897598
 31
0.0
  0
LINE
  5
19E
  8
0
  6
CONTINUOUS
 62
     7
 10
83.6668091024
 20
16.0650897598
 30
0.0
 11
83.9168091024
 21
16.0650897598
 31
0.0
  0
LINE
  5
19F
  8
0
  6
CONTINUOUS
 62
     7
 10
89.9168091024
 20
16.0650897598
 30
0.0
 11
90.1668091024
 21
16.0650897598
 31
0.0
  0
CIRCLE
  5
1A0
  8
0
  6
CONTINUOUS
 62
     7
 10
111.9168091024
 20
121.0650897598
 30
0.0
 40
4.299999999999971
  0
ARC
  5
1A1
  8
0
  6
CONTINUOUS
 62
     7
 10
111.9168091024
 20
121.0650897598
 30
0.0
 40
4.999999999999972
 50
0.0
 51
90.0
  0
LINE
  5
1A2
  8
0
  6
CONTINUOUS
 62
     7
 10
111.9168091024
 20
126.0650897598
 30
0.0
 11
106.4168091024
 21
126.0650897598
 31
0.0
  0
LINE
  5
1A3
  8
0
  6
CONTINUOUS
 62
     7
 10
116.9168091024
 20
112.0650897598
 30
0.0
 11
116.9168091024
 21
121.0650897598
 31
0.0
  0
CIRCLE
  5
1A4
  8
0
  6
CONTINUOUS
 62
     7
 10
61.9168091024
 20
71.0650897598
 30
0.0
 40
4.300000000000072
  0
ARC
  5
1A5
  8
0
  6
CONTINUOUS
 62
     7
 10
61.9168091024
 20
71.0650897598
 30
0.0
 40
4.999999999999957
 50
180.0
 51
270.0
  0
LINE
  5
1A6
  8
0
  6
CONTINUOUS
 62
     7
 10
61.9168091024
 20
66.0650897598
 30
0.0
 11
67.4168091024
 21
66.0650897598
 31
0.0
  0
LINE
  5
1A7
  8
0
  6
CONTINUOUS
 62
     7
 10
56.9168091024
 20
80.0650897598
 30
0.0
 11
56.9168091024
 21
71.0650897598
 31
0.0
  0
CIRCLE
  5
1A8
  8
0
  6
CONTINUOUS
 62
     7
 10
61.9168091024
 20
121.0650897598
 30
0.0
 40
4.300000000000207
  0
ARC
  5
1A9
  8
0
  6
CONTINUOUS
 62
     7
 10
61.9168091024
 20
121.0650897598
 30
0.0
 40
4.999999999999915
 50
90.0
 51
180.0
  0
LINE
  5
1AA
  8
0
  6
CONTINUOUS
 62
     7
 10
56.9168091024
 20
121.0650897598
 30
0.0
 11
56.9168091024
 21
112.0650897597
 31
0.0
  0
LINE
  5
1AB
  8
0
  6
CONTINUOUS
 62
     7
 10
67.4168091024
 20
126.0650897598
 30
0.0
 11
61.9168091024
 21
126.0650897598
 31
0.0
  0
CIRCLE
  5
1AC
  8
0
  6
CONTINUOUS
 62
     7
 10
111.9168091024
 20
71.0650897598
 30
0.0
 40
4.300000000000053
  0
ARC
  5
1AD
  8
0
  6
CONTINUOUS
 62
     7
 10
111.9168091024
 20
71.0650897598
 30
0.0
 40
4.999999999999957
 50
270.0
 51
0.0
  0
LINE
  5
1AE
  8
0
  6
CONTINUOUS
 62
     7
 10
106.4168091024
 20
66.0650897598
 30
0.0
 11
111.9168091024
 21
66.0650897598
 31
0.0
  0
LINE
  5
1AF
  8
0
  6
CONTINUOUS
 62
     7
 10
116.9168091024
 20
71.0650897598
 30
0.0
 11
116.9168091024
 21
80.0650897597
 31
0.0
  0
CIRCLE
  5
1B0
  8
0
  6
CONTINUOUS
 62
     7
 10
61.9168091024
 20
121.0650897598
 30
0.0
 40
2.250000000000007
  0
CIRCLE
  5
1B1
  8
0
  6
CONTINUOUS
 62
     7
 10
111.9168091024
 20
121.0650897598
 30
0.0
 40
2.25
  0
CIRCLE
  5
1B2
  8
0
  6
CONTINUOUS
 62
     7
 10
111.9168091024
 20
71.0650897598
 30
0.0
 40
2.249999999999986
  0
CIRCLE
  5
1B3
  8
0
  6
CONTINUOUS
 62
     7
 10
61.9168091024
 20
71.0650897598
 30
0.0
 40
2.250000000000007
  0
LINE
  5
1B4
  8
0
  6
CONTINUOUS
 62
     8
 10
104.1168091024
 20
62.1150897598
 30
0.0
 11
104.1168091024
 21
65.3650897598
 31
0.0
  0
LINE
  5
1B5
  8
0
  6
CONTINUOUS
 62
     8
 10
104.1168091024
 20
58.3650897598
 30
0.0
 11
104.1168091024
 21
61.6150897598
 31
0.0
  0
ARC
  5
1B6
  8
0
  6
CONTINUOUS
 62
     7
 10
393.9762275601
 20
59.6650897598
 30
0.0
 40
1.299999999999997
 50
180.0
 51
270.0
  0
ARC
  5
1B7
  8
0
  6
CONTINUOUS
 62
     7
 10
393.9762275601
 20
64.0650897598
 30
0.0
 40
1.300000000000011
 50
90.0
 51
180.0
  0
LINE
  5
1B8
  8
0
  6
CONTINUOUS
 62
     7
 10
395.0762275601
 20
65.3650897598
 30
0.0
 11
393.9762275601
 21
65.3650897598
 31
0.0
  0
LINE
  5
1B9
  8
0
  6
CONTINUOUS
 62
     7
 10
393.9762275601
 20
58.3650897598
 30
0.0
 11
395.0762275601
 21
58.3650897598
 31
0.0
  0
LINE
  5
1BA
  8
0
  6
CONTINUOUS
 62
     7
 10
397.6762275601
 20
64.8650897598
 30
0.0
 11
397.3762275601
 21
64.8650897598
 31
0.0
  0
LINE
  5
1BB
  8
0
  6
CONTINUOUS
 62
     7
 10
397.3762275601
 20
58.8650897598
 30
0.0
 11
397.6762275601
 21
58.8650897598
 31
0.0
  0
LINE
  5
1BC
  8
0
  6
CONTINUOUS
 62
     7
 10
405.92622756
 20
55.2948708813
 30
0.0
 11
405.92622756
 21
53.0650897598
 31
0.0
  0
LINE
  5
1BD
  8
0
  6
CONTINUOUS
 62
     7
 10
416.4262275601
 20
53.0650897598
 30
0.0
 11
416.4262275601
 21
55.2894284026
 31
0.0
  0
LINE
  5
1BE
  8
0
  6
CONTINUOUS
 62
     7
 10
407.4262275601
 20
53.0650897598
 30
0.0
 11
407.4262275601
 21
51.0650897598
 31
0.0
  0
LINE
  5
1BF
  8
0
  6
CONTINUOUS
 62
     7
 10
414.9262275601
 20
51.0650897598
 30
0.0
 11
414.9262275601
 21
53.0650897598
 31
0.0
  0
LINE
  5
1C0
  8
0
  6
CONTINUOUS
 62
     7
 10
414.4262275601
 20
16.0650897598
 30
0.0
 11
414.4262275601
 21
51.0650897598
 31
0.0
  0
LINE
  5
1C1
  8
0
  6
CONTINUOUS
 62
     7
 10
407.9262275601
 20
51.0650897598
 30
0.0
 11
407.9262275601
 21
16.0650897598
 31
0.0
  0
LINE
  5
1C2
  8
0
  6
CONTINUOUS
 62
     7
 10
397.6762275601
 20
65.3650897598
 30
0.0
 11
395.0762275601
 21
65.3650897598
 31
0.0
  0
LINE
  5
1C3
  8
0
  6
CONTINUOUS
 62
     7
 10
395.0762275601
 20
58.3650897598
 30
0.0
 11
397.6762275601
 21
58.3650897598
 31
0.0
  0
LINE
  5
1C4
  8
0
  6
CONTINUOUS
 62
     7
 10
392.6762275601
 20
59.6650897598
 30
0.0
 11
392.6762275601
 21
61.6150897598
 31
0.0
  0
LINE
  5
1C5
  8
0
  6
CONTINUOUS
 62
     7
 10
392.6762275601
 20
61.6150897598
 30
0.0
 11
393.9762275601
 21
61.6150897598
 31
0.0
  0
LINE
  5
1C6
  8
0
  6
CONTINUOUS
 62
     7
 10
392.6762275601
 20
62.1150897598
 30
0.0
 11
392.6762275601
 21
64.0650897598
 31
0.0
  0
LINE
  5
1C7
  8
0
  6
CONTINUOUS
 62
     7
 10
393.9762275601
 20
62.1150897598
 30
0.0
 11
392.6762275601
 21
62.1150897598
 31
0.0
  0
LINE
  5
1C8
  8
0
  6
CONTINUOUS
 62
     7
 10
395.0762275601
 20
61.8650897598
 30
0.0
 11
395.0762275601
 21
65.3650897598
 31
0.0
  0
LINE
  5
1C9
  8
0
  6
CONTINUOUS
 62
     7
 10
395.0762275601
 20
58.3650897598
 30
0.0
 11
395.0762275601
 21
61.8650897598
 31
0.0
  0
LINE
  5
1CA
  8
0
  6
CONTINUOUS
 62
     7
 10
393.9762275601
 20
61.6150897598
 30
0.0
 11
393.9762275601
 21
62.1150897598
 31
0.0
  0
CIRCLE
  5
1CB
  8
0
  6
CONTINUOUS
 62
     7
 10
411.1762275601
 20
96.0650897598
 30
0.0
 40
7.0
  0
CIRCLE
  5
1CC
  8
0
  6
CONTINUOUS
 62
     7
 10
411.1762275601
 20
96.0650897598
 30
0.0
 40
17.99999999999994
  0
ARC
  5
1CD
  8
0
  6
CONTINUOUS
 62
     7
 10
411.1762275601
 20
115.0650897598
 30
0.0
 40
59.99999999999999
 50
256.9971218371
 51
283.0028781629
  0
LINE
  5
1CE
  8
0
  6
CONTINUOUS
 62
     7
 10
397.6762275601
 20
60.6523444379
 30
0.0
 11
397.6762275601
 21
56.6035639501
 31
0.0
  0
POLYLINE
  5
1CF
  8
0
  6
CONTINUOUS
 62
     7
 66
     1
 10
0.0
 20
0.0
 30
0.0
 70
   128
  0
VERTEX
  5
43E
  8
0
  6
CONTINUOUS
 62
     7
 10
401.67622756
 20
61.8219466967
 30
0.0
  0
VERTEX
  5
43F
  8
0
  6
CONTINUOUS
 62
     7
 10
400.462269625
 20
61.9373835308
 30
0.0
  0
VERTEX
  5
440
  8
0
  6
CONTINUOUS
 62
     7
 10
399.3587330173
 20
61.8795225898
 30
0.0
  0
VERTEX
  5
441
  8
0
  6
CONTINUOUS
 62
     7
 10
398.4953913221
 20
61.6523015099
 30
0.0
  0
VERTEX
  5
442
  8
0
  6
CONTINUOUS
 62
     7
 10
397.9168718951
 20
61.2638673554
 30
0.0
  0
VERTEX
  5
443
  8
0
  6
CONTINUOUS
 62
     7
 10
397.6762275601
 20
60.6523444379
 30
0.0
  0
SEQEND
  5
514
  8
0
  6
CONTINUOUS
 62
     7
  0
ARC
  5
1D0
  8
0
  6
CONTINUOUS
 62
     7
 10
411.1762275601
 20
121.0755735614
 30
0.0
 40
60.01035157894869
 50
260.891414695
 51
279.108585305
  0
POLYLINE
  5
1D1
  8
0
  6
CONTINUOUS
 62
     7
 66
     1
 10
0.0
 20
0.0
 30
0.0
 70
   128
  0
VERTEX
  5
444
  8
0
  6
CONTINUOUS
 62
     7
 10
424.6762275601
 20
60.6523444379
 30
0.0
  0
VERTEX
  5
445
  8
0
  6
CONTINUOUS
 62
     7
 10
424.4382321417
 20
61.2609019524
 30
0.0
  0
VERTEX
  5
446
  8
0
  6
CONTINUOUS
 62
     7
 10
424.1339365327
 20
61.510164853
 30
0.0
  0
VERTEX
  5
447
  8
0
  6
CONTINUOUS
 62
     7
 10
423.7093784181
 20
61.7095075435
 30
0.0
  0
VERTEX
  5
448
  8
0
  6
CONTINUOUS
 62
     7
 10
422.6628124755
 20
61.9172141872
 30
0.0
  0
VERTEX
  5
449
  8
0
  6
CONTINUOUS
 62
     7
 10
421.4904521641
 20
61.9174125323
 30
0.0
  0
VERTEX
  5
44A
  8
0
  6
CONTINUOUS
 62
     7
 10
420.6762275601
 20
61.8219466967
 30
0.0
  0
SEQEND
  5
515
  8
0
  6
CONTINUOUS
 62
     7
  0
LINE
  5
1D2
  8
0
  6
CONTINUOUS
 62
     7
 10
424.6762275601
 20
60.6523444379
 30
0.0
 11
424.6762275601
 21
56.6035639501
 31
0.0
  0
LINE
  5
1D3
  8
0
  6
CONTINUOUS
 62
     7
 10
420.6762275601
 20
61.8219466967
 30
0.0
 11
420.6762275601
 21
66.0650897598
 31
0.0
  0
LINE
  5
1D4
  8
0
  6
CONTINUOUS
 62
     7
 10
424.6762275601
 20
66.0650897598
 30
0.0
 11
424.6762275601
 21
60.6523444379
 31
0.0
  0
LINE
  5
1D5
  8
0
  6
CONTINUOUS
 62
     7
 10
401.6762275601
 20
66.0650897598
 30
0.0
 11
401.67622756
 21
61.8219466967
 31
0.0
  0
LINE
  5
1D6
  8
0
  6
CONTINUOUS
 62
     7
 10
397.6762275601
 20
60.6523444379
 30
0.0
 11
397.6762275601
 21
66.0650897598
 31
0.0
  0
LINE
  5
1D7
  8
0
  6
CONTINUOUS
 62
     7
 10
397.3762275601
 20
61.8650897598
 30
0.0
 11
397.3762275601
 21
64.8650897598
 31
0.0
  0
LINE
  5
1D8
  8
0
  6
CONTINUOUS
 62
     7
 10
397.3762275601
 20
58.8650897598
 30
0.0
 11
397.3762275601
 21
61.8650897598
 31
0.0
  0
LINE
  5
1D9
  8
0
  6
CONTINUOUS
 62
     7
 10
405.92622756
 20
53.0650897598
 30
0.0
 11
416.4262275601
 21
53.0650897598
 31
0.0
  0
LINE
  5
1DA
  8
0
  6
CONTINUOUS
 62
     7
 10
411.1762275601
 20
51.0650897598
 30
0.0
 11
407.4262275601
 21
51.0650897598
 31
0.0
  0
LINE
  5
1DB
  8
0
  6
CONTINUOUS
 62
     7
 10
414.9262275601
 20
51.0650897598
 30
0.0
 11
411.1762275601
 21
51.0650897598
 31
0.0
  0
LINE
  5
1DC
  8
0
  6
CONTINUOUS
 62
     7
 10
411.1762275601
 20
16.0650897598
 30
0.0
 11
414.4262275601
 21
16.0650897598
 31
0.0
  0
LINE
  5
1DD
  8
0
  6
CONTINUOUS
 62
     7
 10
407.9262275601
 20
16.0650897598
 30
0.0
 11
411.1762275601
 21
16.0650897598
 31
0.0
  0
LINE
  5
1DE
  8
0
  6
CONTINUOUS
 62
     7
 10
436.1762275601
 20
66.0650897598
 30
0.0
 11
386.1762275601
 21
66.0650897598
 31
0.0
  0
ARC
  5
1DF
  8
0
  6
CONTINUOUS
 62
     7
 10
386.1762275601
 20
71.0650897598
 30
0.0
 40
5.0
 50
180.0
 51
270.0
  0
LINE
  5
1E0
  8
0
  6
CONTINUOUS
 62
     7
 10
381.1762275601
 20
71.0650897598
 30
0.0
 11
381.1762275601
 21
121.0650897598
 31
0.0
  0
ARC
  5
1E1
  8
0
  6
CONTINUOUS
 62
     7
 10
386.1762275601
 20
121.0650897598
 30
0.0
 40
5.000000000000014
 50
90.0
 51
180.0
  0
LINE
  5
1E2
  8
0
  6
CONTINUOUS
 62
     7
 10
386.1762275601
 20
126.0650897598
 30
0.0
 11
436.1762275601
 21
126.0650897598
 31
0.0
  0
CIRCLE
  5
1E3
  8
0
  6
CONTINUOUS
 62
     7
 10
386.1762275601
 20
121.0650897598
 30
0.0
 40
2.25
  0
CIRCLE
  5
1E4
  8
0
  6
CONTINUOUS
 62
     7
 10
386.1762275601
 20
71.0650897598
 30
0.0
 40
2.25
  0
CIRCLE
  5
1E5
  8
0
  6
CONTINUOUS
 62
     7
 10
436.1762275601
 20
71.0650897598
 30
0.0
 40
2.25
  0
CIRCLE
  5
1E6
  8
0
  6
CONTINUOUS
 62
     7
 10
436.1762275601
 20
121.0650897598
 30
0.0
 40
2.25
  0
LINE
  5
1E7
  8
0
  6
CONTINUOUS
 62
     7
 10
441.1762275601
 20
121.0650897598
 30
0.0
 11
441.1762275601
 21
71.0650897598
 31
0.0
  0
ARC
  5
1E8
  8
0
  6
CONTINUOUS
 62
     7
 10
436.1762275601
 20
71.0650897598
 30
0.0
 40
5.0
 50
270.0
 51
0.0
  0
ARC
  5
1E9
  8
0
  6
CONTINUOUS
 62
     7
 10
436.1762275601
 20
121.0650897598
 30
0.0
 40
5.000000000000014
 50
0.0
 51
90.0
  0
LINE
  5
1EA
  8
0
  6
CONTINUOUS
 62
     8
 10
393.9762275601
 20
61.6150897598
 30
0.0
 11
393.9762275601
 21
58.3650897598
 31
0.0
  0
LINE
  5
1EB
  8
0
  6
CONTINUOUS
 62
     8
 10
393.9762275601
 20
65.3650897598
 30
0.0
 11
393.9762275601
 21
62.1150897598
 31
0.0
  0
LINE
  5
1EC
  8
0
  6
CONTINUOUS
 62
     7
 10
336.3113299621
 20
199.8425158028
 30
0.0
 11
315.3113299621
 21
199.8425158028
 31
0.0
  0
LINE
  5
1ED
  8
0
  6
CONTINUOUS
 62
     7
 10
315.3113299621
 20
185.8425158028
 30
0.0
 11
336.3113299621
 21
185.8425158028
 31
0.0
  0
LINE
  5
1EE
  8
0
  6
CONTINUOUS
 62
     7
 10
315.3113299621
 20
210.8425158028
 30
0.0
 11
312.3113299621
 21
210.8425158028
 31
0.0
  0
LINE
  5
1EF
  8
0
  6
CONTINUOUS
 62
     7
 10
312.3113299621
 20
174.8425158028
 30
0.0
 11
315.3113299621
 21
174.8425158028
 31
0.0
  0
ARC
  5
1F0
  8
0
  6
CONTINUOUS
 62
     7
 10
347.2426782919
 20
192.8425158028
 30
0.0
 40
200.0000000000007
 50
187.1807557815
 51
188.6269265587
  0
ARC
  5
1F1
  8
0
  6
CONTINUOUS
 62
     7
 10
347.2426782919
 20
192.8425158028
 30
0.0
 40
200.0000000000024
 50
171.3730734413
 51
172.8192442185
  0
LINE
  5
1F2
  8
0
  6
CONTINUOUS
 62
     7
 10
336.3113299621
 20
199.8425158028
 30
0.0
 11
336.3113299621
 21
185.8425158028
 31
0.0
  0
LINE
  5
1F3
  8
0
  6
CONTINUOUS
 62
     7
 10
315.3113299621
 20
210.8425158028
 30
0.0
 11
315.3113299621
 21
174.8425158028
 31
0.0
  0
ARC
  5
1F4
  8
0
  6
CONTINUOUS
 62
     7
 10
157.2187294225
 20
167.0958897396
 30
0.0
 40
9.196450903804857
 50
137.2154734587
 51
144.0816094039
  0
ARC
  5
1F5
  8
0
  6
CONTINUOUS
 62
     7
 10
158.2631920511
 20
170.6121119287
 30
0.0
 40
8.6975683881381
 50
167.5255387518
 51
191.2212811184
  0
ARC
  5
1F6
  8
0
  6
CONTINUOUS
 62
     7
 10
336.9932195346
 20
187.0421137489
 30
0.0
 40
188.1362001605232
 50
185.5276837197
 51
186.7312467553
  0
LINE
  5
1F7
  8
0
  6
CONTINUOUS
 62
     7
 10
150.153865824
 20
162.8425158028
 30
0.0
 11
150.153865824
 21
164.9902268484
 31
0.0
  0
LINE
  5
1F8
  8
0
  6
CONTINUOUS
 62
     7
 10
149.5054789591
 20
162.8425158028
 30
0.0
 11
150.153865824
 21
162.8425158028
 31
0.0
  0
LINE
  5
1F9
  8
0
  6
CONTINUOUS
 62
     7
 10
150.153865824
 20
222.8425158028
 30
0.0
 11
149.5054789591
 21
222.8425158028
 31
0.0
  0
LINE
  5
1FA
  8
0
  6
CONTINUOUS
 62
     7
 10
150.153865824
 20
220.6948047572
 30
0.0
 11
150.153865824
 21
222.8425158028
 31
0.0
  0
ARC
  5
1FB
  8
0
  6
CONTINUOUS
 62
     7
 10
336.993219533
 20
198.6429178568
 30
0.0
 40
188.1362001589095
 50
173.2687532446
 51
174.4723162803
  0
ARC
  5
1FC
  8
0
  6
CONTINUOUS
 62
     7
 10
159.9716598056
 20
215.0916043271
 30
0.0
 40
10.37567097064251
 50
170.7162120636
 51
190.5369680661
  0
ARC
  5
1FD
  8
0
  6
CONTINUOUS
 62
     7
 10
157.218729422
 20
218.5891418655
 30
0.0
 40
9.196450903064742
 50
215.9183905957
 51
222.7845265414
  0
ARC
  5
1FE
  8
0
  6
CONTINUOUS
 62
     7
 10
347.2426782919
 20
192.8425158028
 30
0.0
 40
197.7371993328577
 50
174.3405358619
 51
185.6594641381
  0
LINE
  5
1FF
  8
0
  6
CONTINUOUS
 62
     7
 10
148.8113299621
 20
217.8425158028
 30
0.0
 11
148.8113299621
 21
167.8425158028
 31
0.0
  0
LINE
  5
200
  8
0
  6
CONTINUOUS
 62
     7
 10
149.7709525097
 20
213.194206437
 30
0.0
 11
162.7113299621
 21
213.194206437
 31
0.0
  0
LINE
  5
201
  8
0
  6
CONTINUOUS
 62
     7
 10
150.4693315195
 20
212.3425158028
 30
0.0
 11
162.7113299621
 21
212.3425158028
 31
0.0
  0
LINE
  5
202
  8
0
  6
CONTINUOUS
 62
     7
 10
162.7113299621
 20
212.3425158028
 30
0.0
 11
162.7113299621
 21
213.194206437
 31
0.0
  0
LINE
  5
203
  8
0
  6
CONTINUOUS
 62
     7
 10
150.4693315195
 20
173.3425158028
 30
0.0
 11
162.7113299621
 21
173.3425158028
 31
0.0
  0
LINE
  5
204
  8
0
  6
CONTINUOUS
 62
     7
 10
162.7113299621
 20
173.3425158028
 30
0.0
 11
162.7113299621
 21
212.3425158028
 31
0.0
  0
LINE
  5
205
  8
0
  6
CONTINUOUS
 62
     7
 10
149.7709525097
 20
172.4908251686
 30
0.0
 11
162.7113299621
 21
172.4908251686
 31
0.0
  0
LINE
  5
206
  8
0
  6
CONTINUOUS
 62
     7
 10
162.7113299621
 20
172.4908251686
 30
0.0
 11
162.7113299621
 21
173.3425158028
 31
0.0
  0
LINE
  5
207
  8
0
  6
CONTINUOUS
 62
     7
 10
149.7318955642
 20
216.7654550884
 30
0.0
 11
162.7113299621
 21
216.7654550884
 31
0.0
  0
LINE
  5
208
  8
0
  6
CONTINUOUS
 62
     7
 10
162.7113299621
 20
213.194206437
 30
0.0
 11
162.7113299621
 21
216.7654550884
 31
0.0
  0
LINE
  5
209
  8
0
  6
CONTINUOUS
 62
     7
 10
149.7318955642
 20
168.9195765171
 30
0.0
 11
162.7113299621
 21
168.9195765171
 31
0.0
  0
LINE
  5
20A
  8
0
  6
CONTINUOUS
 62
     7
 10
162.7113299621
 20
168.9195765171
 30
0.0
 11
162.7113299621
 21
172.4908251686
 31
0.0
  0
LINE
  5
20B
  8
0
  6
CONTINUOUS
 62
     7
 10
150.153865824
 20
220.6948047572
 30
0.0
 11
162.7113299621
 21
220.6948047572
 31
0.0
  0
LINE
  5
20C
  8
0
  6
CONTINUOUS
 62
     7
 10
162.7113299621
 20
216.7654550884
 30
0.0
 11
162.7113299621
 21
220.6948047572
 31
0.0
  0
LINE
  5
20D
  8
0
  6
CONTINUOUS
 62
     7
 10
150.153865824
 20
164.9902268484
 30
0.0
 11
162.7113299621
 21
164.9902268484
 31
0.0
  0
LINE
  5
20E
  8
0
  6
CONTINUOUS
 62
     7
 10
162.7113299621
 20
164.9902268484
 30
0.0
 11
162.7113299621
 21
168.9195765171
 31
0.0
  0
LINE
  5
20F
  8
0
  6
CONTINUOUS
 62
     7
 10
150.153865824
 20
222.8425158028
 30
0.0
 11
162.7113299621
 21
222.8425158028
 31
0.0
  0
LINE
  5
210
  8
0
  6
CONTINUOUS
 62
     7
 10
162.7113299621
 20
220.6948047572
 30
0.0
 11
162.7113299621
 21
222.8425158028
 31
0.0
  0
LINE
  5
211
  8
0
  6
CONTINUOUS
 62
     7
 10
150.153865824
 20
162.8425158028
 30
0.0
 11
162.7113299621
 21
162.8425158028
 31
0.0
  0
LINE
  5
212
  8
0
  6
CONTINUOUS
 62
     7
 10
162.7113299621
 20
162.8425158028
 30
0.0
 11
162.7113299621
 21
164.9902268484
 31
0.0
  0
LINE
  5
213
  8
0
  6
CONTINUOUS
 62
     7
 10
173.5113299621
 20
212.3425158028
 30
0.0
 11
162.7113299621
 21
212.3425158028
 31
0.0
  0
LINE
  5
214
  8
0
  6
CONTINUOUS
 62
     7
 10
173.5113299621
 20
173.3425158028
 30
0.0
 11
162.7113299621
 21
173.3425158028
 31
0.0
  0
LINE
  5
215
  8
0
  6
CONTINUOUS
 62
     7
 10
173.5113299621
 20
173.3425158028
 30
0.0
 11
173.5113299621
 21
212.3425158028
 31
0.0
  0
LINE
  5
216
  8
0
  6
CONTINUOUS
 62
     7
 10
173.5113299621
 20
213.194206437
 30
0.0
 11
162.7113299621
 21
213.194206437
 31
0.0
  0
LINE
  5
217
  8
0
  6
CONTINUOUS
 62
     7
 10
173.5113299621
 20
212.3425158028
 30
0.0
 11
173.5113299621
 21
213.194206437
 31
0.0
  0
LINE
  5
218
  8
0
  6
CONTINUOUS
 62
     7
 10
173.5113299621
 20
172.4908251686
 30
0.0
 11
162.7113299621
 21
172.4908251686
 31
0.0
  0
LINE
  5
219
  8
0
  6
CONTINUOUS
 62
     7
 10
173.5113299621
 20
172.4908251686
 30
0.0
 11
173.5113299621
 21
173.3425158028
 31
0.0
  0
LINE
  5
21A
  8
0
  6
CONTINUOUS
 62
     7
 10
173.5113299621
 20
216.7654550884
 30
0.0
 11
162.7113299621
 21
216.7654550884
 31
0.0
  0
LINE
  5
21B
  8
0
  6
CONTINUOUS
 62
     7
 10
173.5113299621
 20
213.194206437
 30
0.0
 11
173.5113299621
 21
216.7654550884
 31
0.0
  0
LINE
  5
21C
  8
0
  6
CONTINUOUS
 62
     7
 10
173.5113299621
 20
168.9195765171
 30
0.0
 11
162.7113299621
 21
168.9195765171
 31
0.0
  0
LINE
  5
21D
  8
0
  6
CONTINUOUS
 62
     7
 10
173.5113299621
 20
168.9195765171
 30
0.0
 11
173.5113299621
 21
172.4908251686
 31
0.0
  0
LINE
  5
21E
  8
0
  6
CONTINUOUS
 62
     7
 10
173.5113299621
 20
220.6948047572
 30
0.0
 11
162.7113299621
 21
220.6948047572
 31
0.0
  0
LINE
  5
21F
  8
0
  6
CONTINUOUS
 62
     7
 10
173.5113299621
 20
216.7654550884
 30
0.0
 11
173.5113299621
 21
220.6948047572
 31
0.0
  0
LINE
  5
220
  8
0
  6
CONTINUOUS
 62
     7
 10
173.5113299621
 20
164.9902268484
 30
0.0
 11
162.7113299621
 21
164.9902268484
 31
0.0
  0
LINE
  5
221
  8
0
  6
CONTINUOUS
 62
     7
 10
173.5113299621
 20
164.9902268484
 30
0.0
 11
173.5113299621
 21
168.9195765171
 31
0.0
  0
LINE
  5
222
  8
0
  6
CONTINUOUS
 62
     7
 10
173.5113299621
 20
222.8425158028
 30
0.0
 11
162.7113299621
 21
222.8425158028
 31
0.0
  0
LINE
  5
223
  8
0
  6
CONTINUOUS
 62
     7
 10
173.5113299621
 20
220.6948047572
 30
0.0
 11
173.5113299621
 21
222.8425158028
 31
0.0
  0
LINE
  5
224
  8
0
  6
CONTINUOUS
 62
     7
 10
173.5113299621
 20
162.8425158028
 30
0.0
 11
162.7113299621
 21
162.8425158028
 31
0.0
  0
LINE
  5
225
  8
0
  6
CONTINUOUS
 62
     7
 10
173.5113299621
 20
162.8425158028
 30
0.0
 11
173.5113299621
 21
164.9902268484
 31
0.0
  0
LINE
  5
226
  8
0
  6
CONTINUOUS
 62
     7
 10
215.3113299621
 20
173.3425158028
 30
0.0
 11
173.5113299621
 21
173.3425158028
 31
0.0
  0
LINE
  5
227
  8
0
  6
CONTINUOUS
 62
     7
 10
215.3113299621
 20
212.3425158028
 30
0.0
 11
173.5113299621
 21
212.3425158028
 31
0.0
  0
LINE
  5
228
  8
0
  6
CONTINUOUS
 62
     7
 10
215.3113299621
 20
212.3425158028
 30
0.0
 11
215.3113299621
 21
173.3425158028
 31
0.0
  0
LINE
  5
229
  8
0
  6
CONTINUOUS
 62
     7
 10
215.3113299621
 20
213.194206437
 30
0.0
 11
173.5113299621
 21
213.194206437
 31
0.0
  0
LINE
  5
22A
  8
0
  6
CONTINUOUS
 62
     7
 10
215.3113299621
 20
213.194206437
 30
0.0
 11
215.3113299621
 21
212.3425158028
 31
0.0
  0
LINE
  5
22B
  8
0
  6
CONTINUOUS
 62
     7
 10
215.3113299621
 20
172.4908251686
 30
0.0
 11
173.5113299621
 21
172.4908251686
 31
0.0
  0
LINE
  5
22C
  8
0
  6
CONTINUOUS
 62
     7
 10
215.3113299621
 20
173.3425158028
 30
0.0
 11
215.3113299621
 21
172.4908251686
 31
0.0
  0
LINE
  5
22D
  8
0
  6
CONTINUOUS
 62
     7
 10
215.3113299621
 20
216.7654550884
 30
0.0
 11
173.5113299621
 21
216.7654550884
 31
0.0
  0
LINE
  5
22E
  8
0
  6
CONTINUOUS
 62
     7
 10
215.3113299621
 20
216.7654550884
 30
0.0
 11
215.3113299621
 21
213.194206437
 31
0.0
  0
LINE
  5
22F
  8
0
  6
CONTINUOUS
 62
     7
 10
215.3113299621
 20
168.9195765171
 30
0.0
 11
173.5113299621
 21
168.9195765171
 31
0.0
  0
LINE
  5
230
  8
0
  6
CONTINUOUS
 62
     7
 10
215.3113299621
 20
172.4908251686
 30
0.0
 11
215.3113299621
 21
168.9195765171
 31
0.0
  0
LINE
  5
231
  8
0
  6
CONTINUOUS
 62
     7
 10
215.3113299621
 20
220.6948047572
 30
0.0
 11
173.5113299621
 21
220.6948047572
 31
0.0
  0
LINE
  5
232
  8
0
  6
CONTINUOUS
 62
     7
 10
215.3113299621
 20
220.6948047572
 30
0.0
 11
215.3113299621
 21
216.7654550884
 31
0.0
  0
LINE
  5
233
  8
0
  6
CONTINUOUS
 62
     7
 10
215.3113299621
 20
164.9902268484
 30
0.0
 11
173.5113299621
 21
164.9902268484
 31
0.0
  0
LINE
  5
234
  8
0
  6
CONTINUOUS
 62
     7
 10
215.3113299621
 20
168.9195765171
 30
0.0
 11
215.3113299621
 21
164.9902268484
 31
0.0
  0
LINE
  5
235
  8
0
  6
CONTINUOUS
 62
     7
 10
215.3113299621
 20
222.8425158028
 30
0.0
 11
173.5113299621
 21
222.8425158028
 31
0.0
  0
LINE
  5
236
  8
0
  6
CONTINUOUS
 62
     7
 10
215.3113299621
 20
222.8425158028
 30
0.0
 11
215.3113299621
 21
220.6948047572
 31
0.0
  0
LINE
  5
237
  8
0
  6
CONTINUOUS
 62
     7
 10
215.3113299621
 20
162.8425158028
 30
0.0
 11
173.5113299621
 21
162.8425158028
 31
0.0
  0
LINE
  5
238
  8
0
  6
CONTINUOUS
 62
     7
 10
215.3113299621
 20
164.9902268484
 30
0.0
 11
215.3113299621
 21
162.8425158028
 31
0.0
  0
LINE
  5
239
  8
0
  6
CONTINUOUS
 62
     7
 10
218.3113299621
 20
213.194206437
 30
0.0
 11
215.3113299621
 21
213.194206437
 31
0.0
  0
LINE
  5
23A
  8
0
  6
CONTINUOUS
 62
     7
 10
218.3113299621
 20
212.3425158028
 30
0.0
 11
215.3113299621
 21
212.3425158028
 31
0.0
  0
LINE
  5
23B
  8
0
  6
CONTINUOUS
 62
     7
 10
218.3113299621
 20
212.3425158028
 30
0.0
 11
218.3113299621
 21
213.194206437
 31
0.0
  0
LINE
  5
23C
  8
0
  6
CONTINUOUS
 62
     7
 10
218.3113299621
 20
173.3425158028
 30
0.0
 11
215.3113299621
 21
173.3425158028
 31
0.0
  0
LINE
  5
23D
  8
0
  6
CONTINUOUS
 62
     7
 10
218.3113299621
 20
173.3425158028
 30
0.0
 11
218.3113299621
 21
212.3425158028
 31
0.0
  0
LINE
  5
23E
  8
0
  6
CONTINUOUS
 62
     7
 10
218.3113299621
 20
172.4908251686
 30
0.0
 11
215.3113299621
 21
172.4908251686
 31
0.0
  0
LINE
  5
23F
  8
0
  6
CONTINUOUS
 62
     7
 10
218.3113299621
 20
172.4908251686
 30
0.0
 11
218.3113299621
 21
173.3425158028
 31
0.0
  0
LINE
  5
240
  8
0
  6
CONTINUOUS
 62
     7
 10
218.3113299621
 20
216.7654550884
 30
0.0
 11
215.3113299621
 21
216.7654550884
 31
0.0
  0
LINE
  5
241
  8
0
  6
CONTINUOUS
 62
     7
 10
218.3113299621
 20
213.194206437
 30
0.0
 11
218.3113299621
 21
216.7654550884
 31
0.0
  0
LINE
  5
242
  8
0
  6
CONTINUOUS
 62
     7
 10
218.3113299621
 20
168.9195765171
 30
0.0
 11
215.3113299621
 21
168.9195765171
 31
0.0
  0
LINE
  5
243
  8
0
  6
CONTINUOUS
 62
     7
 10
218.3113299621
 20
168.9195765171
 30
0.0
 11
218.3113299621
 21
172.4908251686
 31
0.0
  0
LINE
  5
244
  8
0
  6
CONTINUOUS
 62
     7
 10
218.3113299621
 20
220.6948047572
 30
0.0
 11
215.3113299621
 21
220.6948047572
 31
0.0
  0
LINE
  5
245
  8
0
  6
CONTINUOUS
 62
     7
 10
218.3113299621
 20
216.7654550884
 30
0.0
 11
218.3113299621
 21
220.6948047572
 31
0.0
  0
LINE
  5
246
  8
0
  6
CONTINUOUS
 62
     7
 10
218.3113299621
 20
164.9902268484
 30
0.0
 11
215.3113299621
 21
164.9902268484
 31
0.0
  0
LINE
  5
247
  8
0
  6
CONTINUOUS
 62
     7
 10
218.3113299621
 20
164.9902268484
 30
0.0
 11
218.3113299621
 21
168.9195765171
 31
0.0
  0
LINE
  5
248
  8
0
  6
CONTINUOUS
 62
     7
 10
218.3113299621
 20
222.8425158028
 30
0.0
 11
215.3113299621
 21
222.8425158028
 31
0.0
  0
LINE
  5
249
  8
0
  6
CONTINUOUS
 62
     7
 10
218.3113299621
 20
220.6948047572
 30
0.0
 11
218.3113299621
 21
222.8425158028
 31
0.0
  0
LINE
  5
24A
  8
0
  6
CONTINUOUS
 62
     7
 10
218.3113299621
 20
162.8425158028
 30
0.0
 11
215.3113299621
 21
162.8425158028
 31
0.0
  0
LINE
  5
24B
  8
0
  6
CONTINUOUS
 62
     7
 10
218.3113299621
 20
162.8425158028
 30
0.0
 11
218.3113299621
 21
164.9902268484
 31
0.0
  0
LINE
  5
24C
  8
0
  6
CONTINUOUS
 62
     7
 10
299.3113299621
 20
173.3425158028
 30
0.0
 11
218.3113299621
 21
173.3425158028
 31
0.0
  0
LINE
  5
24D
  8
0
  6
CONTINUOUS
 62
     7
 10
299.3113299621
 20
212.3425158028
 30
0.0
 11
218.3113299621
 21
212.3425158028
 31
0.0
  0
LINE
  5
24E
  8
0
  6
CONTINUOUS
 62
     7
 10
299.3113299621
 20
212.3425158028
 30
0.0
 11
299.3113299621
 21
173.3425158028
 31
0.0
  0
LINE
  5
24F
  8
0
  6
CONTINUOUS
 62
     7
 10
299.3113299621
 20
213.194206437
 30
0.0
 11
218.3113299621
 21
213.194206437
 31
0.0
  0
LINE
  5
250
  8
0
  6
CONTINUOUS
 62
     7
 10
299.3113299621
 20
212.3425158028
 30
0.0
 11
299.3113299621
 21
213.194206437
 31
0.0
  0
LINE
  5
251
  8
0
  6
CONTINUOUS
 62
     7
 10
299.3113299621
 20
172.4908251686
 30
0.0
 11
218.3113299621
 21
172.4908251686
 31
0.0
  0
LINE
  5
252
  8
0
  6
CONTINUOUS
 62
     7
 10
299.3113299621
 20
173.3425158028
 30
0.0
 11
299.3113299621
 21
172.4908251686
 31
0.0
  0
LINE
  5
253
  8
0
  6
CONTINUOUS
 62
     7
 10
299.3113299621
 20
216.7654550884
 30
0.0
 11
218.3113299621
 21
216.7654550884
 31
0.0
  0
LINE
  5
254
  8
0
  6
CONTINUOUS
 62
     7
 10
299.3113299621
 20
213.194206437
 30
0.0
 11
299.3113299621
 21
216.7654550884
 31
0.0
  0
LINE
  5
255
  8
0
  6
CONTINUOUS
 62
     7
 10
299.3113299621
 20
168.9195765171
 30
0.0
 11
218.3113299621
 21
168.9195765171
 31
0.0
  0
LINE
  5
256
  8
0
  6
CONTINUOUS
 62
     7
 10
299.3113299621
 20
172.4908251686
 30
0.0
 11
299.3113299621
 21
168.9195765171
 31
0.0
  0
LINE
  5
257
  8
0
  6
CONTINUOUS
 62
     7
 10
299.3113299621
 20
220.6948047572
 30
0.0
 11
218.3113299621
 21
220.6948047572
 31
0.0
  0
LINE
  5
258
  8
0
  6
CONTINUOUS
 62
     7
 10
299.3113299621
 20
216.7654550884
 30
0.0
 11
299.3113299621
 21
220.6948047572
 31
0.0
  0
LINE
  5
259
  8
0
  6
CONTINUOUS
 62
     7
 10
299.3113299621
 20
164.9902268484
 30
0.0
 11
218.3113299621
 21
164.9902268484
 31
0.0
  0
LINE
  5
25A
  8
0
  6
CONTINUOUS
 62
     7
 10
299.3113299621
 20
168.9195765171
 30
0.0
 11
299.3113299621
 21
164.9902268484
 31
0.0
  0
LINE
  5
25B
  8
0
  6
CONTINUOUS
 62
     7
 10
299.3113299621
 20
222.8425158028
 30
0.0
 11
218.3113299621
 21
222.8425158028
 31
0.0
  0
LINE
  5
25C
  8
0
  6
CONTINUOUS
 62
     7
 10
299.3113299621
 20
220.6948047572
 30
0.0
 11
299.3113299621
 21
222.8425158028
 31
0.0
  0
LINE
  5
25D
  8
0
  6
CONTINUOUS
 62
     7
 10
299.3113299621
 20
162.8425158028
 30
0.0
 11
218.3113299621
 21
162.8425158028
 31
0.0
  0
LINE
  5
25E
  8
0
  6
CONTINUOUS
 62
     7
 10
299.3113299621
 20
164.9902268484
 30
0.0
 11
299.3113299621
 21
162.8425158028
 31
0.0
  0
POLYLINE
  5
25F
  8
0
  6
CONTINUOUS
 62
     7
 66
     1
 10
0.0
 20
0.0
 30
0.0
 70
   128
  0
VERTEX
  5
44B
  8
0
  6
CONTINUOUS
 62
     7
 10
300.9604245144
 20
220.8992414582
 30
0.0
  0
VERTEX
  5
44C
  8
0
  6
CONTINUOUS
 62
     7
 10
300.7015413852
 20
219.7093134318
 30
0.0
  0
VERTEX
  5
44D
  8
0
  6
CONTINUOUS
 62
     7
 10
300.4716529246
 20
218.2983368516
 30
0.0
  0
VERTEX
  5
44E
  8
0
  6
CONTINUOUS
 62
     7
 10
300.2986413478
 20
216.8375589685
 30
0.0
  0
VERTEX
  5
44F
  8
0
  6
CONTINUOUS
 62
     7
 10
300.2023986274
 20
215.5062711207
 30
0.0
  0
VERTEX
  5
450
  8
0
  6
CONTINUOUS
 62
     7
 10
300.1911821526
 20
214.450777892
 30
0.0
  0
VERTEX
  5
451
  8
0
  6
CONTINUOUS
 62
     7
 10
300.2636920768
 20
213.7748335009
 30
0.0
  0
VERTEX
  5
452
  8
0
  6
CONTINUOUS
 62
     7
 10
300.4115596284
 20
213.5425196415
 30
0.0
  0
VERTEX
  5
453
  8
0
  6
CONTINUOUS
 62
     7
 10
300.620412172
 20
213.7817578594
 30
0.0
  0
VERTEX
  5
454
  8
0
  6
CONTINUOUS
 62
     7
 10
300.8694878583
 20
214.4794309287
 30
0.0
  0
VERTEX
  5
455
  8
0
  6
CONTINUOUS
 62
     7
 10
301.1315330027
 20
215.5705393653
 30
0.0
  0
VERTEX
  5
456
  8
0
  6
CONTINUOUS
 62
     7
 10
301.3750451538
 20
216.932724396
 30
0.0
  0
VERTEX
  5
457
  8
0
  6
CONTINUOUS
 62
     7
 10
301.5695562003
 20
218.3986987053
 30
0.0
  0
VERTEX
  5
458
  8
0
  6
CONTINUOUS
 62
     7
 10
301.6919456521
 20
219.7880390923
 30
0.0
  0
VERTEX
  5
459
  8
0
  6
CONTINUOUS
 62
     7
 10
301.730164476
 20
220.9424647685
 30
0.0
  0
VERTEX
  5
45A
  8
0
  6
CONTINUOUS
 62
     7
 10
301.6827640602
 20
221.7449888248
 30
0.0
  0
VERTEX
  5
45B
  8
0
  6
CONTINUOUS
 62
     7
 10
301.5562961849
 20
222.120108618
 30
0.0
  0
VERTEX
  5
45C
  8
0
  6
CONTINUOUS
 62
     7
 10
301.3635753759
 20
222.0285776262
 30
0.0
  0
VERTEX
  5
45D
  8
0
  6
CONTINUOUS
 62
     7
 10
301.1236750925
 20
221.4694080653
 30
0.0
  0
VERTEX
  5
45E
  8
0
  6
CONTINUOUS
 62
     7
 10
300.9604245144
 20
220.8992414582
 30
0.0
  0
SEQEND
  5
516
  8
0
  6
CONTINUOUS
 62
     7
  0
ARC
  5
260
  8
0
  6
CONTINUOUS
 62
     7
 10
307.7355839496
 20
218.5891418659
 30
0.0
 40
9.196450903730794
 50
215.918390596
 51
222.7845265413
  0
ARC
  5
261
  8
0
  6
CONTINUOUS
 62
     7
 10
308.7800465782
 20
215.0729196769
 30
0.0
 40
8.697568388118032
 50
168.7787188814
 51
192.4744612481
  0
ARC
  5
262
  8
0
  6
CONTINUOUS
 62
     7
 10
487.5100740587
 20
198.6429178564
 30
0.0
 40
188.1362001576007
 50
173.2687532445
 51
174.4723162801
  0
LINE
  5
263
  8
0
  6
CONTINUOUS
 62
     7
 10
300.6707203512
 20
222.8425158028
 30
0.0
 11
300.6707203512
 21
220.6948047572
 31
0.0
  0
LINE
  5
264
  8
0
  6
CONTINUOUS
 62
     7
 10
301.6090803598
 20
222.8425158028
 30
0.0
 11
300.6707203512
 21
222.8425158028
 31
0.0
  0
POLYLINE
  5
265
  8
0
  6
CONTINUOUS
 62
     7
 66
     1
 10
0.0
 20
0.0
 30
0.0
 70
   128
  0
VERTEX
  5
45F
  8
0
  6
CONTINUOUS
 62
     7
 10
301.6090803597
 20
217.8425158028
 30
0.0
  0
VERTEX
  5
460
  8
0
  6
CONTINUOUS
 62
     7
 10
301.7830271272
 20
219.4837350253
 30
0.0
  0
VERTEX
  5
461
  8
0
  6
CONTINUOUS
 62
     7
 10
301.86726513
 20
220.9491378179
 30
0.0
  0
VERTEX
  5
462
  8
0
  6
CONTINUOUS
 62
     7
 10
301.8517789325
 20
222.0602025319
 30
0.0
  0
VERTEX
  5
463
  8
0
  6
CONTINUOUS
 62
     7
 10
301.7402862444
 20
222.7043581306
 30
0.0
  0
VERTEX
  5
464
  8
0
  6
CONTINUOUS
 62
     7
 10
301.6090803598
 20
222.8425158028
 30
0.0
  0
SEQEND
  5
517
  8
0
  6
CONTINUOUS
 62
     7
  0
ARC
  5
266
  8
0
  6
CONTINUOUS
 62
     7
 10
497.7595328165
 20
192.8425158025
 30
0.0
 40
197.737199330325
 50
172.7366309363
 51
174.3405358617
  0
LINE
  5
267
  8
0
  6
CONTINUOUS
 62
     7
 10
301.6090803598
 20
222.8425158028
 30
0.0
 11
312.3113299621
 21
222.8425158028
 31
0.0
  0
LINE
  5
268
  8
0
  6
CONTINUOUS
 62
     7
 10
312.3113299621
 20
217.8425158028
 30
0.0
 11
301.6090803597
 21
217.8425158028
 31
0.0
  0
LINE
  5
269
  8
0
  6
CONTINUOUS
 62
     7
 10
312.3113299621
 20
222.8425158028
 30
0.0
 11
312.3113299621
 21
217.8425158028
 31
0.0
  0
LINE
  5
26A
  8
0
  6
CONTINUOUS
 62
     7
 10
301.6090803597
 20
167.8425158028
 30
0.0
 11
312.3113299621
 21
167.8425158028
 31
0.0
  0
ARC
  5
26B
  8
0
  6
CONTINUOUS
 62
     7
 10
497.7595328165
 20
192.8425158025
 30
0.0
 40
197.737199330325
 50
185.6594641381
 51
187.2633690635
  0
LINE
  5
26C
  8
0
  6
CONTINUOUS
 62
     7
 10
300.9861860466
 20
173.3425158028
 30
0.0
 11
299.3113299621
 21
173.3425158028
 31
0.0
  0
LINE
  5
26D
  8
0
  6
CONTINUOUS
 62
     7
 10
300.9861860467
 20
212.3425158028
 30
0.0
 11
299.3113299621
 21
212.3425158028
 31
0.0
  0
LINE
  5
26E
  8
0
  6
CONTINUOUS
 62
     7
 10
312.3113299621
 20
167.8425158028
 30
0.0
 11
312.3113299621
 21
217.8425158028
 31
0.0
  0
LINE
  5
26F
  8
0
  6
CONTINUOUS
 62
     7
 10
300.2878070368
 20
213.194206437
 30
0.0
 11
299.3113299621
 21
213.194206437
 31
0.0
  0
POLYLINE
  5
270
  8
0
  6
CONTINUOUS
 62
     7
 66
     1
 10
0.0
 20
0.0
 30
0.0
 70
   128
  0
VERTEX
  5
465
  8
0
  6
CONTINUOUS
 62
     7
 10
300.18532925
 20
170.8830748227
 30
0.0
  0
VERTEX
  5
466
  8
0
  6
CONTINUOUS
 62
     7
 10
300.2276700129
 20
169.7211335271
 30
0.0
  0
VERTEX
  5
467
  8
0
  6
CONTINUOUS
 62
     7
 10
300.3495309412
 20
168.357434312
 30
0.0
  0
VERTEX
  5
468
  8
0
  6
CONTINUOUS
 62
     7
 10
300.5381368167
 20
166.9347969885
 30
0.0
  0
VERTEX
  5
469
  8
0
  6
CONTINUOUS
 62
     7
 10
300.7753392011
 20
165.5992715534
 30
0.0
  0
VERTEX
  5
46A
  8
0
  6
CONTINUOUS
 62
     7
 10
301.0361566676
 20
164.5040049884
 30
0.0
  0
VERTEX
  5
46B
  8
0
  6
CONTINUOUS
 62
     7
 10
301.2901751004
 20
163.7870582837
 30
0.0
  0
VERTEX
  5
46C
  8
0
  6
CONTINUOUS
 62
     7
 10
301.50579534
 20
163.5425607258
 30
0.0
  0
VERTEX
  5
46D
  8
0
  6
CONTINUOUS
 62
     7
 10
301.6565689394
 20
163.7969484178
 30
0.0
  0
VERTEX
  5
46E
  8
0
  6
CONTINUOUS
 62
     7
 10
301.7262432111
 20
164.5067417802
 30
0.0
  0
VERTEX
  5
46F
  8
0
  6
CONTINUOUS
 62
     7
 10
301.7097564546
 20
165.5780385142
 30
0.0
  0
VERTEX
  5
470
  8
0
  6
CONTINUOUS
 62
     7
 10
301.6110295289
 20
166.8902552958
 30
0.0
  0
VERTEX
  5
471
  8
0
  6
CONTINUOUS
 62
     7
 10
301.4406665666
 20
168.3088941927
 30
0.0
  0
VERTEX
  5
472
  8
0
  6
CONTINUOUS
 62
     7
 10
301.2153848078
 20
169.6881321351
 30
0.0
  0
VERTEX
  5
473
  8
0
  6
CONTINUOUS
 62
     7
 10
300.9584731053
 20
170.8745340442
 30
0.0
  0
VERTEX
  5
474
  8
0
  6
CONTINUOUS
 62
     7
 10
300.6991823801
 20
171.722183245
 30
0.0
  0
VERTEX
  5
475
  8
0
  6
CONTINUOUS
 62
     7
 10
300.4692782348
 20
172.1200624999
 30
0.0
  0
VERTEX
  5
476
  8
0
  6
CONTINUOUS
 62
     7
 10
300.2970623349
 20
172.0194406034
 30
0.0
  0
VERTEX
  5
477
  8
0
  6
CONTINUOUS
 62
     7
 10
300.2017770687
 20
171.443377648
 30
0.0
  0
VERTEX
  5
478
  8
0
  6
CONTINUOUS
 62
     7
 10
300.18532925
 20
170.8830748227
 30
0.0
  0
SEQEND
  5
518
  8
0
  6
CONTINUOUS
 62
     7
  0
LINE
  5
271
  8
0
  6
CONTINUOUS
 62
     7
 10
300.6707203512
 20
164.9902268484
 30
0.0
 11
300.6707203511
 21
162.8425158028
 31
0.0
  0
ARC
  5
272
  8
0
  6
CONTINUOUS
 62
     7
 10
487.5100733114
 20
187.0421136716
 30
0.0
 40
188.136199406339
 50
185.5276837183
 51
186.7312467588
  0
ARC
  5
273
  8
0
  6
CONTINUOUS
 62
     7
 10
310.4885143327
 20
170.5934272784
 30
0.0
 40
10.37567097062494
 50
169.4630319339
 51
189.2837879364
  0
ARC
  5
274
  8
0
  6
CONTINUOUS
 62
     7
 10
307.7355839496
 20
167.0958897396
 30
0.0
 40
9.19645090375347
 50
137.2154734586
 51
144.0816094039
  0
POLYLINE
  5
275
  8
0
  6
CONTINUOUS
 62
     7
 66
     1
 10
0.0
 20
0.0
 30
0.0
 70
   128
  0
VERTEX
  5
479
  8
0
  6
CONTINUOUS
 62
     7
 10
301.6090803597
 20
162.8425158028
 30
0.0
  0
VERTEX
  5
47A
  8
0
  6
CONTINUOUS
 62
     7
 10
301.7830271271
 20
163.1195506892
 30
0.0
  0
VERTEX
  5
47B
  8
0
  6
CONTINUOUS
 62
     7
 10
301.8672651299
 20
163.9247486255
 30
0.0
  0
VERTEX
  5
47C
  8
0
  6
CONTINUOUS
 62
     7
 10
301.8517789324
 20
165.1571631899
 30
0.0
  0
VERTEX
  5
47D
  8
0
  6
CONTINUOUS
 62
     7
 10
301.7402862443
 20
166.6752586848
 30
0.0
  0
VERTEX
  5
47E
  8
0
  6
CONTINUOUS
 62
     7
 10
301.6090803597
 20
167.8425158028
 30
0.0
  0
SEQEND
  5
519
  8
0
  6
CONTINUOUS
 62
     7
  0
LINE
  5
276
  8
0
  6
CONTINUOUS
 62
     7
 10
300.6707203511
 20
162.8425158028
 30
0.0
 11
301.6090803597
 21
162.8425158028
 31
0.0
  0
LINE
  5
277
  8
0
  6
CONTINUOUS
 62
     7
 10
300.2878070368
 20
172.4908251686
 30
0.0
 11
299.3113299621
 21
172.4908251686
 31
0.0
  0
LINE
  5
278
  8
0
  6
CONTINUOUS
 62
     7
 10
312.3113299621
 20
162.8425158028
 30
0.0
 11
301.6090803597
 21
162.8425158028
 31
0.0
  0
LINE
  5
279
  8
0
  6
CONTINUOUS
 62
     7
 10
312.3113299621
 20
167.8425158028
 30
0.0
 11
312.3113299621
 21
162.8425158028
 31
0.0
  0
LINE
  5
27A
  8
0
  6
CONTINUOUS
 62
     7
 10
300.2487500913
 20
168.9195765171
 30
0.0
 11
299.3113299621
 21
168.9195765171
 31
0.0
  0
LINE
  5
27B
  8
0
  6
CONTINUOUS
 62
     7
 10
300.2487500914
 20
216.7654550884
 30
0.0
 11
299.3113299621
 21
216.7654550884
 31
0.0
  0
LINE
  5
27C
  8
0
  6
CONTINUOUS
 62
     7
 10
300.6707203512
 20
220.6948047572
 30
0.0
 11
299.3113299621
 21
220.6948047572
 31
0.0
  0
LINE
  5
27D
  8
0
  6
CONTINUOUS
 62
     7
 10
300.6707203512
 20
164.9902268484
 30
0.0
 11
299.3113299621
 21
164.9902268484
 31
0.0
  0
LINE
  5
27E
  8
0
  6
CONTINUOUS
 62
     7
 10
300.6707203512
 20
222.8425158028
 30
0.0
 11
299.3113299621
 21
222.8425158028
 31
0.0
  0
LINE
  5
27F
  8
0
  6
CONTINUOUS
 62
     7
 10
300.6707203511
 20
162.8425158028
 30
0.0
 11
299.3113299621
 21
162.8425158028
 31
0.0
  0
LINE
  5
280
  8
0
  6
CONTINUOUS
 62
     7
 10
336.3113299621
 20
291.9751058205
 30
0.0
 11
315.3113299621
 21
291.9751058205
 31
0.0
  0
LINE
  5
281
  8
0
  6
CONTINUOUS
 62
     7
 10
315.3113299621
 20
277.9751058205
 30
0.0
 11
336.3113299621
 21
277.9751058205
 31
0.0
  0
LINE
  5
282
  8
0
  6
CONTINUOUS
 62
     7
 10
315.3113299621
 20
302.9751058205
 30
0.0
 11
312.3113299621
 21
302.9751058205
 31
0.0
  0
LINE
  5
283
  8
0
  6
CONTINUOUS
 62
     7
 10
312.3113299621
 20
266.9751058205
 30
0.0
 11
315.3113299621
 21
266.9751058205
 31
0.0
  0
ARC
  5
284
  8
0
  6
CONTINUOUS
 62
     7
 10
347.2426782919
 20
284.9751058205
 30
0.0
 40
200.0000000000003
 50
187.1807557815
 51
188.6269265587
  0
ARC
  5
285
  8
0
  6
CONTINUOUS
 62
     7
 10
347.2426782919
 20
284.9751058205
 30
0.0
 40
200.0000000000028
 50
171.3730734413
 51
172.8192442185
  0
LINE
  5
286
  8
0
  6
CONTINUOUS
 62
     7
 10
151.2113299621
 20
325.9751058205
 30
0.0
 11
150.2113299621
 21
325.9751058205
 31
0.0
  0
LINE
  5
287
  8
0
  6
CONTINUOUS
 62
     7
 10
162.2113299621
 20
325.9751058205
 30
0.0
 11
161.1494317514
 21
325.9751058205
 31
0.0
  0
LINE
  5
288
  8
0
  6
CONTINUOUS
 62
     7
 10
161.2113299621
 20
325.970015434
 30
0.0
 11
161.2113299621
 21
327.9751058205
 31
0.0
  0
LINE
  5
289
  8
0
  6
CONTINUOUS
 62
     7
 10
151.2113299621
 20
327.9751058205
 30
0.0
 11
151.2113299621
 21
325.9751058205
 31
0.0
  0
LINE
  5
28A
  8
0
  6
CONTINUOUS
 62
     7
 10
159.2113299621
 20
327.9751058205
 30
0.0
 11
159.2113299621
 21
364.9751058205
 31
0.0
  0
LINE
  5
28B
  8
0
  6
CONTINUOUS
 62
     7
 10
153.2113299621
 20
364.9751058205
 30
0.0
 11
153.2113299621
 21
327.9751058205
 31
0.0
  0
LINE
  5
28C
  8
0
  6
CONTINUOUS
 62
     7
 10
187.3113299621
 20
325.9751058205
 30
0.0
 11
186.3113299621
 21
325.9751058205
 31
0.0
  0
LINE
  5
28D
  8
0
  6
CONTINUOUS
 62
     7
 10
198.3113299621
 20
325.9751058205
 30
0.0
 11
197.2494317514
 21
325.9751058205
 31
0.0
  0
LINE
  5
28E
  8
0
  6
CONTINUOUS
 62
     7
 10
197.3113299621
 20
325.970015434
 30
0.0
 11
197.3113299621
 21
327.9751058205
 31
0.0
  0
LINE
  5
28F
  8
0
  6
CONTINUOUS
 62
     7
 10
187.3113299621
 20
327.9751058205
 30
0.0
 11
187.3113299621
 21
325.9751058205
 31
0.0
  0
LINE
  5
290
  8
0
  6
CONTINUOUS
 62
     7
 10
195.3113299621
 20
327.9751058205
 30
0.0
 11
195.3113299621
 21
364.9751058205
 31
0.0
  0
LINE
  5
291
  8
0
  6
CONTINUOUS
 62
     7
 10
189.3113299621
 20
364.9751058205
 30
0.0
 11
189.3113299621
 21
327.9751058205
 31
0.0
  0
LINE
  5
292
  8
0
  6
CONTINUOUS
 62
     7
 10
244.8241577873
 20
319.9688483448
 30
0.0
 11
232.5334583207
 21
325.9643114992
 31
0.0
  0
LINE
  5
293
  8
0
  6
CONTINUOUS
 62
     7
 10
220.0613299621
 20
325.9751058205
 30
0.0
 11
216.3113299621
 21
325.9751058205
 31
0.0
  0
LINE
  5
294
  8
0
  6
CONTINUOUS
 62
     7
 10
232.5113299621
 20
325.9751058205
 30
0.0
 11
230.4962481589
 21
325.9751058205
 31
0.0
  0
LINE
  5
295
  8
0
  6
CONTINUOUS
 62
     7
 10
230.5613299621
 20
325.9694855047
 30
0.0
 11
230.5613299621
 21
327.9751058205
 31
0.0
  0
LINE
  5
296
  8
0
  6
CONTINUOUS
 62
     7
 10
220.0613299621
 20
327.9751058205
 30
0.0
 11
220.0613299621
 21
325.9751058205
 31
0.0
  0
LINE
  5
297
  8
0
  6
CONTINUOUS
 62
     7
 10
229.0613299621
 20
327.9751058205
 30
0.0
 11
229.0613299621
 21
329.9751058205
 31
0.0
  0
LINE
  5
298
  8
0
  6
CONTINUOUS
 62
     7
 10
221.5613299621
 20
329.9751058205
 30
0.0
 11
221.5613299621
 21
327.9751058205
 31
0.0
  0
LINE
  5
299
  8
0
  6
CONTINUOUS
 62
     7
 10
222.0613299621
 20
364.9751058205
 30
0.0
 11
222.0613299621
 21
329.9751058205
 31
0.0
  0
LINE
  5
29A
  8
0
  6
CONTINUOUS
 62
     7
 10
228.5613299621
 20
329.9751058205
 30
0.0
 11
228.5613299621
 21
364.9751058205
 31
0.0
  0
LINE
  5
29B
  8
0
  6
CONTINUOUS
 62
     7
 10
336.3113299621
 20
284.9751058205
 30
0.0
 11
336.3113299621
 21
277.9751058205
 31
0.0
  0
LINE
  5
29C
  8
0
  6
CONTINUOUS
 62
     7
 10
336.3113299621
 20
291.9751058205
 30
0.0
 11
336.3113299621
 21
284.9751058205
 31
0.0
  0
LINE
  5
29D
  8
0
  6
CONTINUOUS
 62
     7
 10
315.3113299621
 20
284.9751058205
 30
0.0
 11
315.3113299621
 21
266.9751058205
 31
0.0
  0
LINE
  5
29E
  8
0
  6
CONTINUOUS
 62
     7
 10
315.3113299621
 20
302.9751058205
 30
0.0
 11
315.3113299621
 21
284.9751058205
 31
0.0
  0
LINE
  5
29F
  8
0
  6
CONTINUOUS
 62
     7
 10
150.4693315195
 20
314.9751058205
 30
0.0
 11
149.5054789591
 21
314.9751058205
 31
0.0
  0
ARC
  5
2A0
  8
0
  6
CONTINUOUS
 62
     7
 10
342.9929298666
 20
288.4760890932
 30
0.0
 40
194.338708979972
 50
172.1630310195
 51
173.854735696
  0
ARC
  5
2A1
  8
0
  6
CONTINUOUS
 62
     7
 10
163.0157002124
 20
307.2065445226
 30
0.0
 40
13.40605894114569
 50
171.1027494039
 51
187.7437214029
  0
ARC
  5
2A2
  8
0
  6
CONTINUOUS
 62
     7
 10
162.3206921054
 20
310.5837467449
 30
0.0
 40
13.61422622500238
 50
202.3799170448
 51
206.6600140755
  0
LINE
  5
2A3
  8
0
  6
CONTINUOUS
 62
     7
 10
150.153865824
 20
300.9751058205
 30
0.0
 11
150.153865824
 21
304.4751058205
 31
0.0
  0
ARC
  5
2A4
  8
0
  6
CONTINUOUS
 62
     7
 10
347.2426782919
 20
284.9751058205
 30
0.0
 40
197.7371993328536
 50
175.3588106327
 51
184.6411893673
  0
LINE
  5
2A5
  8
0
  6
CONTINUOUS
 62
     7
 10
150.153865824
 20
265.4751058205
 30
0.0
 11
150.153865824
 21
268.9751058205
 31
0.0
  0
ARC
  5
2A6
  8
0
  6
CONTINUOUS
 62
     7
 10
162.3206921054
 20
259.366464896
 30
0.0
 40
13.61422622498233
 50
153.3399859245
 51
157.6200829552
  0
ARC
  5
2A7
  8
0
  6
CONTINUOUS
 62
     7
 10
161.1504358548
 20
262.72488991
 30
0.0
 40
11.56348573285325
 50
170.918654021
 51
190.2348751722
  0
ARC
  5
2A8
  8
0
  6
CONTINUOUS
 62
     7
 10
342.9929298025
 20
281.4741225401
 30
0.0
 40
194.3387089154656
 50
186.1452643038
 51
187.8369689809
  0
LINE
  5
2A9
  8
0
  6
CONTINUOUS
 62
     7
 10
149.5054789591
 20
254.9751058205
 30
0.0
 11
150.4693315195
 21
254.9751058205
 31
0.0
  0
LINE
  5
2AA
  8
0
  6
CONTINUOUS
 62
     7
 10
148.8113299621
 20
284.9751058205
 30
0.0
 11
148.8113299621
 21
259.9751058205
 31
0.0
  0
LINE
  5
2AB
  8
0
  6
CONTINUOUS
 62
     7
 10
148.8113299621
 20
309.9751058205
 30
0.0
 11
148.8113299621
 21
284.9751058205
 31
0.0
  0
LINE
  5
2AC
  8
0
  6
CONTINUOUS
 62
     7
 10
150.153865824
 20
304.4751058205
 30
0.0
 11
162.7113299621
 21
304.4751058205
 31
0.0
  0
LINE
  5
2AD
  8
0
  6
CONTINUOUS
 62
     7
 10
150.153865824
 20
300.9751058205
 30
0.0
 11
162.7113299621
 21
300.9751058205
 31
0.0
  0
LINE
  5
2AE
  8
0
  6
CONTINUOUS
 62
     7
 10
162.7113299621
 20
300.9751058205
 30
0.0
 11
162.7113299621
 21
304.4751058205
 31
0.0
  0
LINE
  5
2AF
  8
0
  6
CONTINUOUS
 62
     7
 10
150.153865824
 20
268.9751058205
 30
0.0
 11
162.7113299621
 21
268.9751058205
 31
0.0
  0
LINE
  5
2B0
  8
0
  6
CONTINUOUS
 62
     7
 10
162.7113299621
 20
268.9751058205
 30
0.0
 11
162.7113299621
 21
300.9751058205
 31
0.0
  0
LINE
  5
2B1
  8
0
  6
CONTINUOUS
 62
     7
 10
150.153865824
 20
265.4751058205
 30
0.0
 11
162.7113299621
 21
265.4751058205
 31
0.0
  0
LINE
  5
2B2
  8
0
  6
CONTINUOUS
 62
     7
 10
162.7113299621
 20
265.4751058205
 30
0.0
 11
162.7113299621
 21
268.9751058205
 31
0.0
  0
LINE
  5
2B3
  8
0
  6
CONTINUOUS
 62
     7
 10
149.7318955642
 20
305.4001806607
 30
0.0
 11
162.7113299621
 21
305.4001806607
 31
0.0
  0
LINE
  5
2B4
  8
0
  6
CONTINUOUS
 62
     7
 10
162.7113299621
 20
304.4751058205
 30
0.0
 11
162.7113299621
 21
305.4001806607
 31
0.0
  0
LINE
  5
2B5
  8
0
  6
CONTINUOUS
 62
     7
 10
149.7318955642
 20
264.5500309803
 30
0.0
 11
162.7113299621
 21
264.5500309803
 31
0.0
  0
LINE
  5
2B6
  8
0
  6
CONTINUOUS
 62
     7
 10
162.7113299621
 20
264.5500309803
 30
0.0
 11
162.7113299621
 21
265.4751058205
 31
0.0
  0
LINE
  5
2B7
  8
0
  6
CONTINUOUS
 62
     7
 10
149.7709525097
 20
260.6702461228
 30
0.0
 11
162.7113299621
 21
260.6702461228
 31
0.0
  0
LINE
  5
2B8
  8
0
  6
CONTINUOUS
 62
     7
 10
162.7113299621
 20
260.6702461228
 30
0.0
 11
162.7113299621
 21
264.5500309803
 31
0.0
  0
LINE
  5
2B9
  8
0
  6
CONTINUOUS
 62
     7
 10
149.7709525097
 20
309.2799655181
 30
0.0
 11
162.7113299621
 21
309.2799655181
 31
0.0
  0
LINE
  5
2BA
  8
0
  6
CONTINUOUS
 62
     7
 10
162.7113299621
 20
305.4001806607
 30
0.0
 11
162.7113299621
 21
309.2799655181
 31
0.0
  0
LINE
  5
2BB
  8
0
  6
CONTINUOUS
 62
     7
 10
150.4693315195
 20
314.9751058205
 30
0.0
 11
162.7113299621
 21
314.9751058205
 31
0.0
  0
LINE
  5
2BC
  8
0
  6
CONTINUOUS
 62
     7
 10
162.7113299621
 20
309.2799655181
 30
0.0
 11
162.7113299621
 21
314.9751058205
 31
0.0
  0
LINE
  5
2BD
  8
0
  6
CONTINUOUS
 62
     7
 10
150.4693315195
 20
254.9751058205
 30
0.0
 11
162.7113299621
 21
254.9751058205
 31
0.0
  0
LINE
  5
2BE
  8
0
  6
CONTINUOUS
 62
     7
 10
162.7113299621
 20
254.9751058205
 30
0.0
 11
162.7113299621
 21
260.6702461228
 31
0.0
  0
LINE
  5
2BF
  8
0
  6
CONTINUOUS
 62
     7
 10
162.2113299621
 20
324.5498444029
 30
0.0
 11
150.2113299621
 21
324.5498444029
 31
0.0
  0
POLYLINE
  5
2C0
  8
0
  6
CONTINUOUS
 62
     7
 66
     1
 10
0.0
 20
0.0
 30
0.0
 70
   128
  0
VERTEX
  5
47F
  8
0
  6
CONTINUOUS
 62
     7
 10
151.2113299621
 20
325.9751058205
 30
0.0
  0
VERTEX
  5
480
  8
0
  6
CONTINUOUS
 62
     7
 10
151.4920485301
 20
325.9523649879
 30
0.0
  0
VERTEX
  5
481
  8
0
  6
CONTINUOUS
 62
     7
 10
152.3020506541
 20
325.8940716386
 30
0.0
  0
VERTEX
  5
482
  8
0
  6
CONTINUOUS
 62
     7
 10
153.5532802138
 20
325.8254627824
 30
0.0
  0
VERTEX
  5
483
  8
0
  6
CONTINUOUS
 62
     7
 10
155.1068574743
 20
325.7766096433
 30
0.0
  0
VERTEX
  5
484
  8
0
  6
CONTINUOUS
 62
     7
 10
156.7819488305
 20
325.7691323273
 30
0.0
  0
VERTEX
  5
485
  8
0
  6
CONTINUOUS
 62
     7
 10
158.3886461115
 20
325.806040174
 30
0.0
  0
VERTEX
  5
486
  8
0
  6
CONTINUOUS
 62
     7
 10
159.7524920189
 20
325.8711810568
 30
0.0
  0
VERTEX
  5
487
  8
0
  6
CONTINUOUS
 62
     7
 10
160.7215147809
 20
325.9362746475
 30
0.0
  0
VERTEX
  5
488
  8
0
  6
CONTINUOUS
 62
     7
 10
161.1818436756
 20
325.9726558253
 30
0.0
  0
VERTEX
  5
489
  8
0
  6
CONTINUOUS
 62
     7
 10
161.1494317514
 20
325.9699974785
 30
0.0
  0
SEQEND
  5
51A
  8
0
  6
CONTINUOUS
 62
     7
  0
LINE
  5
2C1
  8
0
  6
CONTINUOUS
 62
     7
 10
150.2113299621
 20
324.5498444029
 30
0.0
 11
150.2113299621
 21
325.9751058205
 31
0.0
  0
LINE
  5
2C2
  8
0
  6
CONTINUOUS
 62
     7
 10
162.2113299621
 20
324.5498444029
 30
0.0
 11
162.2113299621
 21
325.9751058205
 31
0.0
  0
LINE
  5
2C3
  8
0
  6
CONTINUOUS
 62
     7
 10
150.2113299621
 20
324.5498444029
 30
0.0
 11
150.2113299621
 21
314.9751058205
 31
0.0
  0
LINE
  5
2C4
  8
0
  6
CONTINUOUS
 62
     7
 10
162.2113299621
 20
324.5498444029
 30
0.0
 11
162.2113299621
 21
314.9751058205
 31
0.0
  0
LINE
  5
2C5
  8
0
  6
CONTINUOUS
 62
     7
 10
161.2113299621
 20
327.9751058205
 30
0.0
 11
151.2113299621
 21
327.9751058205
 31
0.0
  0
LINE
  5
2C6
  8
0
  6
CONTINUOUS
 62
     7
 10
153.2113299621
 20
364.9751058205
 30
0.0
 11
159.2113299621
 21
364.9751058205
 31
0.0
  0
LINE
  5
2C7
  8
0
  6
CONTINUOUS
 62
     7
 10
173.5113299621
 20
304.4751058205
 30
0.0
 11
162.7113299621
 21
304.4751058205
 31
0.0
  0
LINE
  5
2C8
  8
0
  6
CONTINUOUS
 62
     7
 10
173.5113299621
 20
300.9751058205
 30
0.0
 11
162.7113299621
 21
300.9751058205
 31
0.0
  0
LINE
  5
2C9
  8
0
  6
CONTINUOUS
 62
     7
 10
173.5113299621
 20
300.9751058205
 30
0.0
 11
173.5113299621
 21
304.4751058205
 31
0.0
  0
LINE
  5
2CA
  8
0
  6
CONTINUOUS
 62
     7
 10
173.5113299621
 20
268.9751058205
 30
0.0
 11
162.7113299621
 21
268.9751058205
 31
0.0
  0
LINE
  5
2CB
  8
0
  6
CONTINUOUS
 62
     7
 10
173.5113299621
 20
268.9751058205
 30
0.0
 11
173.5113299621
 21
300.9751058205
 31
0.0
  0
LINE
  5
2CC
  8
0
  6
CONTINUOUS
 62
     7
 10
173.5113299621
 20
265.4751058205
 30
0.0
 11
162.7113299621
 21
265.4751058205
 31
0.0
  0
LINE
  5
2CD
  8
0
  6
CONTINUOUS
 62
     7
 10
173.5113299621
 20
265.4751058205
 30
0.0
 11
173.5113299621
 21
268.9751058205
 31
0.0
  0
LINE
  5
2CE
  8
0
  6
CONTINUOUS
 62
     7
 10
173.5113299621
 20
305.4001806607
 30
0.0
 11
162.7113299621
 21
305.4001806607
 31
0.0
  0
LINE
  5
2CF
  8
0
  6
CONTINUOUS
 62
     7
 10
173.5113299621
 20
304.4751058205
 30
0.0
 11
173.5113299621
 21
305.4001806607
 31
0.0
  0
LINE
  5
2D0
  8
0
  6
CONTINUOUS
 62
     7
 10
173.5113299621
 20
264.5500309803
 30
0.0
 11
162.7113299621
 21
264.5500309803
 31
0.0
  0
LINE
  5
2D1
  8
0
  6
CONTINUOUS
 62
     7
 10
173.5113299621
 20
264.5500309803
 30
0.0
 11
173.5113299621
 21
265.4751058205
 31
0.0
  0
LINE
  5
2D2
  8
0
  6
CONTINUOUS
 62
     7
 10
173.5113299621
 20
309.2799655181
 30
0.0
 11
162.7113299621
 21
309.2799655181
 31
0.0
  0
LINE
  5
2D3
  8
0
  6
CONTINUOUS
 62
     7
 10
173.5113299621
 20
305.4001806607
 30
0.0
 11
173.5113299621
 21
309.2799655181
 31
0.0
  0
LINE
  5
2D4
  8
0
  6
CONTINUOUS
 62
     7
 10
173.5113299621
 20
260.6702461228
 30
0.0
 11
162.7113299621
 21
260.6702461228
 31
0.0
  0
LINE
  5
2D5
  8
0
  6
CONTINUOUS
 62
     7
 10
173.5113299621
 20
260.6702461228
 30
0.0
 11
173.5113299621
 21
264.5500309803
 31
0.0
  0
LINE
  5
2D6
  8
0
  6
CONTINUOUS
 62
     7
 10
173.5113299621
 20
314.9751058205
 30
0.0
 11
162.7113299621
 21
314.9751058205
 31
0.0
  0
LINE
  5
2D7
  8
0
  6
CONTINUOUS
 62
     7
 10
173.5113299621
 20
309.2799655181
 30
0.0
 11
173.5113299621
 21
314.9751058205
 31
0.0
  0
LINE
  5
2D8
  8
0
  6
CONTINUOUS
 62
     7
 10
173.5113299621
 20
254.9751058205
 30
0.0
 11
162.7113299621
 21
254.9751058205
 31
0.0
  0
LINE
  5
2D9
  8
0
  6
CONTINUOUS
 62
     7
 10
173.5113299621
 20
254.9751058205
 30
0.0
 11
173.5113299621
 21
260.6702461228
 31
0.0
  0
LINE
  5
2DA
  8
0
  6
CONTINUOUS
 62
     7
 10
215.3113299621
 20
300.9751058205
 30
0.0
 11
173.5113299621
 21
300.9751058205
 31
0.0
  0
LINE
  5
2DB
  8
0
  6
CONTINUOUS
 62
     7
 10
215.3113299621
 20
304.4751058205
 30
0.0
 11
173.5113299621
 21
304.4751058205
 31
0.0
  0
LINE
  5
2DC
  8
0
  6
CONTINUOUS
 62
     7
 10
215.3113299621
 20
304.4751058205
 30
0.0
 11
215.3113299621
 21
300.9751058205
 31
0.0
  0
LINE
  5
2DD
  8
0
  6
CONTINUOUS
 62
     7
 10
215.3113299621
 20
268.9751058205
 30
0.0
 11
173.5113299621
 21
268.9751058205
 31
0.0
  0
LINE
  5
2DE
  8
0
  6
CONTINUOUS
 62
     7
 10
215.3113299621
 20
300.9751058205
 30
0.0
 11
215.3113299621
 21
268.9751058205
 31
0.0
  0
LINE
  5
2DF
  8
0
  6
CONTINUOUS
 62
     7
 10
215.3113299621
 20
265.4751058205
 30
0.0
 11
173.5113299621
 21
265.4751058205
 31
0.0
  0
LINE
  5
2E0
  8
0
  6
CONTINUOUS
 62
     7
 10
215.3113299621
 20
268.9751058205
 30
0.0
 11
215.3113299621
 21
265.4751058205
 31
0.0
  0
LINE
  5
2E1
  8
0
  6
CONTINUOUS
 62
     7
 10
215.3113299621
 20
305.4001806607
 30
0.0
 11
173.5113299621
 21
305.4001806607
 31
0.0
  0
LINE
  5
2E2
  8
0
  6
CONTINUOUS
 62
     7
 10
215.3113299621
 20
305.4001806607
 30
0.0
 11
215.3113299621
 21
304.4751058205
 31
0.0
  0
LINE
  5
2E3
  8
0
  6
CONTINUOUS
 62
     7
 10
215.3113299621
 20
264.5500309803
 30
0.0
 11
173.5113299621
 21
264.5500309803
 31
0.0
  0
LINE
  5
2E4
  8
0
  6
CONTINUOUS
 62
     7
 10
215.3113299621
 20
265.4751058205
 30
0.0
 11
215.3113299621
 21
264.5500309803
 31
0.0
  0
LINE
  5
2E5
  8
0
  6
CONTINUOUS
 62
     7
 10
215.3113299621
 20
309.2799655181
 30
0.0
 11
173.5113299621
 21
309.2799655181
 31
0.0
  0
LINE
  5
2E6
  8
0
  6
CONTINUOUS
 62
     7
 10
215.3113299621
 20
309.2799655181
 30
0.0
 11
215.3113299621
 21
305.4001806607
 31
0.0
  0
LINE
  5
2E7
  8
0
  6
CONTINUOUS
 62
     7
 10
215.3113299621
 20
260.6702461228
 30
0.0
 11
173.5113299621
 21
260.6702461228
 31
0.0
  0
LINE
  5
2E8
  8
0
  6
CONTINUOUS
 62
     7
 10
215.3113299621
 20
264.5500309803
 30
0.0
 11
215.3113299621
 21
260.6702461228
 31
0.0
  0
LINE
  5
2E9
  8
0
  6
CONTINUOUS
 62
     7
 10
215.3113299621
 20
314.9751058205
 30
0.0
 11
173.5113299621
 21
314.9751058205
 31
0.0
  0
LINE
  5
2EA
  8
0
  6
CONTINUOUS
 62
     7
 10
215.3113299621
 20
314.9751058205
 30
0.0
 11
215.3113299621
 21
309.2799655181
 31
0.0
  0
LINE
  5
2EB
  8
0
  6
CONTINUOUS
 62
     7
 10
215.3113299621
 20
254.9751058205
 30
0.0
 11
173.5113299621
 21
254.9751058205
 31
0.0
  0
LINE
  5
2EC
  8
0
  6
CONTINUOUS
 62
     7
 10
215.3113299621
 20
260.6702461228
 30
0.0
 11
215.3113299621
 21
254.9751058205
 31
0.0
  0
LINE
  5
2ED
  8
0
  6
CONTINUOUS
 62
     7
 10
198.3113299621
 20
324.5498444029
 30
0.0
 11
186.3113299621
 21
324.5498444029
 31
0.0
  0
LINE
  5
2EE
  8
0
  6
CONTINUOUS
 62
     7
 10
186.3113299621
 20
324.5498444029
 30
0.0
 11
186.3113299621
 21
325.9751058205
 31
0.0
  0
LINE
  5
2EF
  8
0
  6
CONTINUOUS
 62
     7
 10
198.3113299621
 20
324.5498444029
 30
0.0
 11
198.3113299621
 21
325.9751058205
 31
0.0
  0
POLYLINE
  5
2F0
  8
0
  6
CONTINUOUS
 62
     7
 66
     1
 10
0.0
 20
0.0
 30
0.0
 70
   128
  0
VERTEX
  5
48A
  8
0
  6
CONTINUOUS
 62
     7
 10
187.3113299621
 20
325.9751058205
 30
0.0
  0
VERTEX
  5
48B
  8
0
  6
CONTINUOUS
 62
     7
 10
187.5920485301
 20
325.9523649879
 30
0.0
  0
VERTEX
  5
48C
  8
0
  6
CONTINUOUS
 62
     7
 10
188.4020506541
 20
325.8940716386
 30
0.0
  0
VERTEX
  5
48D
  8
0
  6
CONTINUOUS
 62
     7
 10
189.6532802138
 20
325.8254627824
 30
0.0
  0
VERTEX
  5
48E
  8
0
  6
CONTINUOUS
 62
     7
 10
191.2068574743
 20
325.7766096433
 30
0.0
  0
VERTEX
  5
48F
  8
0
  6
CONTINUOUS
 62
     7
 10
192.8819488305
 20
325.7691323273
 30
0.0
  0
VERTEX
  5
490
  8
0
  6
CONTINUOUS
 62
     7
 10
194.4886461115
 20
325.806040174
 30
0.0
  0
VERTEX
  5
491
  8
0
  6
CONTINUOUS
 62
     7
 10
195.8524920189
 20
325.8711810568
 30
0.0
  0
VERTEX
  5
492
  8
0
  6
CONTINUOUS
 62
     7
 10
196.8215147809
 20
325.9362746475
 30
0.0
  0
VERTEX
  5
493
  8
0
  6
CONTINUOUS
 62
     7
 10
197.2818436756
 20
325.9726558253
 30
0.0
  0
VERTEX
  5
494
  8
0
  6
CONTINUOUS
 62
     7
 10
197.2494317514
 20
325.9699974785
 30
0.0
  0
SEQEND
  5
51B
  8
0
  6
CONTINUOUS
 62
     7
  0
LINE
  5
2F1
  8
0
  6
CONTINUOUS
 62
     7
 10
186.3113299621
 20
324.5498444029
 30
0.0
 11
186.3113299621
 21
314.9751058205
 31
0.0
  0
LINE
  5
2F2
  8
0
  6
CONTINUOUS
 62
     7
 10
198.3113299621
 20
324.5498444029
 30
0.0
 11
198.3113299621
 21
314.9751058205
 31
0.0
  0
LINE
  5
2F3
  8
0
  6
CONTINUOUS
 62
     7
 10
197.3113299621
 20
327.9751058205
 30
0.0
 11
187.3113299621
 21
327.9751058205
 31
0.0
  0
LINE
  5
2F4
  8
0
  6
CONTINUOUS
 62
     7
 10
189.3113299621
 20
364.9751058205
 30
0.0
 11
195.3113299621
 21
364.9751058205
 31
0.0
  0
LINE
  5
2F5
  8
0
  6
CONTINUOUS
 62
     7
 10
218.3113299621
 20
304.4751058205
 30
0.0
 11
215.3113299621
 21
304.4751058205
 31
0.0
  0
LINE
  5
2F6
  8
0
  6
CONTINUOUS
 62
     7
 10
218.3113299621
 20
300.9751058205
 30
0.0
 11
215.3113299621
 21
300.9751058205
 31
0.0
  0
LINE
  5
2F7
  8
0
  6
CONTINUOUS
 62
     7
 10
218.3113299621
 20
300.9751058205
 30
0.0
 11
218.3113299621
 21
304.4751058205
 31
0.0
  0
LINE
  5
2F8
  8
0
  6
CONTINUOUS
 62
     7
 10
218.3113299621
 20
268.9751058205
 30
0.0
 11
215.3113299621
 21
268.9751058205
 31
0.0
  0
LINE
  5
2F9
  8
0
  6
CONTINUOUS
 62
     7
 10
218.3113299621
 20
268.9751058205
 30
0.0
 11
218.3113299621
 21
300.9751058205
 31
0.0
  0
LINE
  5
2FA
  8
0
  6
CONTINUOUS
 62
     7
 10
218.3113299621
 20
265.4751058205
 30
0.0
 11
215.3113299621
 21
265.4751058205
 31
0.0
  0
LINE
  5
2FB
  8
0
  6
CONTINUOUS
 62
     7
 10
218.3113299621
 20
265.4751058205
 30
0.0
 11
218.3113299621
 21
268.9751058205
 31
0.0
  0
LINE
  5
2FC
  8
0
  6
CONTINUOUS
 62
     7
 10
218.3113299621
 20
305.4001806607
 30
0.0
 11
215.3113299621
 21
305.4001806607
 31
0.0
  0
LINE
  5
2FD
  8
0
  6
CONTINUOUS
 62
     7
 10
218.3113299621
 20
304.4751058205
 30
0.0
 11
218.3113299621
 21
305.4001806607
 31
0.0
  0
LINE
  5
2FE
  8
0
  6
CONTINUOUS
 62
     7
 10
218.3113299621
 20
264.5500309803
 30
0.0
 11
215.3113299621
 21
264.5500309803
 31
0.0
  0
LINE
  5
2FF
  8
0
  6
CONTINUOUS
 62
     7
 10
218.3113299621
 20
264.5500309803
 30
0.0
 11
218.3113299621
 21
265.4751058205
 31
0.0
  0
LINE
  5
300
  8
0
  6
CONTINUOUS
 62
     7
 10
218.3113299621
 20
309.2799655181
 30
0.0
 11
215.3113299621
 21
309.2799655181
 31
0.0
  0
LINE
  5
301
  8
0
  6
CONTINUOUS
 62
     7
 10
218.3113299621
 20
305.4001806607
 30
0.0
 11
218.3113299621
 21
309.2799655181
 31
0.0
  0
LINE
  5
302
  8
0
  6
CONTINUOUS
 62
     7
 10
218.3113299621
 20
260.6702461228
 30
0.0
 11
215.3113299621
 21
260.6702461228
 31
0.0
  0
LINE
  5
303
  8
0
  6
CONTINUOUS
 62
     7
 10
218.3113299621
 20
260.6702461228
 30
0.0
 11
218.3113299621
 21
264.5500309803
 31
0.0
  0
LINE
  5
304
  8
0
  6
CONTINUOUS
 62
     7
 10
218.3113299621
 20
314.9751058205
 30
0.0
 11
215.3113299621
 21
314.9751058205
 31
0.0
  0
LINE
  5
305
  8
0
  6
CONTINUOUS
 62
     7
 10
218.3113299621
 20
309.2799655181
 30
0.0
 11
218.3113299621
 21
314.9751058205
 31
0.0
  0
LINE
  5
306
  8
0
  6
CONTINUOUS
 62
     7
 10
218.3113299621
 20
254.9751058205
 30
0.0
 11
215.3113299621
 21
254.9751058205
 31
0.0
  0
LINE
  5
307
  8
0
  6
CONTINUOUS
 62
     7
 10
218.3113299621
 20
254.9751058205
 30
0.0
 11
218.3113299621
 21
260.6702461228
 31
0.0
  0
LINE
  5
308
  8
0
  6
CONTINUOUS
 62
     7
 10
299.3113299621
 20
304.4751058205
 30
0.0
 11
218.3113299621
 21
304.4751058205
 31
0.0
  0
LINE
  5
309
  8
0
  6
CONTINUOUS
 62
     7
 10
299.3113299621
 20
300.9751058205
 30
0.0
 11
218.3113299621
 21
300.9751058205
 31
0.0
  0
LINE
  5
30A
  8
0
  6
CONTINUOUS
 62
     7
 10
299.3113299621
 20
300.9751058205
 30
0.0
 11
299.3113299621
 21
304.4751058205
 31
0.0
  0
LINE
  5
30B
  8
0
  6
CONTINUOUS
 62
     7
 10
299.3113299621
 20
268.9751058205
 30
0.0
 11
218.3113299621
 21
268.9751058205
 31
0.0
  0
LINE
  5
30C
  8
0
  6
CONTINUOUS
 62
     7
 10
299.3113299621
 20
268.9751058205
 30
0.0
 11
299.3113299621
 21
300.9751058205
 31
0.0
  0
LINE
  5
30D
  8
0
  6
CONTINUOUS
 62
     7
 10
299.3113299621
 20
265.4751058205
 30
0.0
 11
218.3113299621
 21
265.4751058205
 31
0.0
  0
LINE
  5
30E
  8
0
  6
CONTINUOUS
 62
     7
 10
299.3113299621
 20
265.4751058205
 30
0.0
 11
299.3113299621
 21
268.9751058205
 31
0.0
  0
LINE
  5
30F
  8
0
  6
CONTINUOUS
 62
     7
 10
299.3113299621
 20
305.4001806607
 30
0.0
 11
218.3113299621
 21
305.4001806607
 31
0.0
  0
LINE
  5
310
  8
0
  6
CONTINUOUS
 62
     7
 10
299.3113299621
 20
304.4751058205
 30
0.0
 11
299.3113299621
 21
305.4001806607
 31
0.0
  0
LINE
  5
311
  8
0
  6
CONTINUOUS
 62
     7
 10
299.3113299621
 20
264.5500309803
 30
0.0
 11
218.3113299621
 21
264.5500309803
 31
0.0
  0
LINE
  5
312
  8
0
  6
CONTINUOUS
 62
     7
 10
299.3113299621
 20
264.5500309803
 30
0.0
 11
299.3113299621
 21
265.4751058205
 31
0.0
  0
LINE
  5
313
  8
0
  6
CONTINUOUS
 62
     7
 10
299.3113299621
 20
309.2799655181
 30
0.0
 11
218.3113299621
 21
309.2799655181
 31
0.0
  0
LINE
  5
314
  8
0
  6
CONTINUOUS
 62
     7
 10
299.3113299621
 20
305.4001806607
 30
0.0
 11
299.3113299621
 21
309.2799655181
 31
0.0
  0
LINE
  5
315
  8
0
  6
CONTINUOUS
 62
     7
 10
299.3113299621
 20
260.6702461228
 30
0.0
 11
218.3113299621
 21
260.6702461228
 31
0.0
  0
LINE
  5
316
  8
0
  6
CONTINUOUS
 62
     7
 10
299.3113299621
 20
260.6702461228
 30
0.0
 11
299.3113299621
 21
264.5500309803
 31
0.0
  0
LINE
  5
317
  8
0
  6
CONTINUOUS
 62
     7
 10
299.3113299621
 20
314.9751058205
 30
0.0
 11
218.3113299621
 21
314.9751058205
 31
0.0
  0
LINE
  5
318
  8
0
  6
CONTINUOUS
 62
     7
 10
299.3113299621
 20
309.2799655181
 30
0.0
 11
299.3113299621
 21
314.9751058205
 31
0.0
  0
LINE
  5
319
  8
0
  6
CONTINUOUS
 62
     7
 10
299.3113299621
 20
254.9751058205
 30
0.0
 11
218.3113299621
 21
254.9751058205
 31
0.0
  0
LINE
  5
31A
  8
0
  6
CONTINUOUS
 62
     7
 10
299.3113299621
 20
254.9751058205
 30
0.0
 11
299.3113299621
 21
260.6702461228
 31
0.0
  0
LINE
  5
31B
  8
0
  6
CONTINUOUS
 62
     7
 10
232.5113299621
 20
324.4366316302
 30
0.0
 11
232.5113299621
 21
325.9751058205
 31
0.0
  0
LINE
  5
31C
  8
0
  6
CONTINUOUS
 62
     7
 10
244.8113299621
 20
319.9425513031
 30
0.0
 11
244.8113299621
 21
319.2182488836
 31
0.0
  0
POLYLINE
  5
31D
  8
0
  6
CONTINUOUS
 62
     7
 66
     1
 10
0.0
 20
0.0
 30
0.0
 70
   128
  0
VERTEX
  5
495
  8
0
  6
CONTINUOUS
 62
     7
 10
240.8113299621
 20
320.3878511424
 30
0.0
  0
VERTEX
  5
496
  8
0
  6
CONTINUOUS
 62
     7
 10
242.1704920302
 20
319.7792936278
 30
0.0
  0
VERTEX
  5
497
  8
0
  6
CONTINUOUS
 62
     7
 10
242.8211950792
 20
319.5300307273
 30
0.0
  0
VERTEX
  5
498
  8
0
  6
CONTINUOUS
 62
     7
 10
243.4190101327
 20
319.3306880368
 30
0.0
  0
VERTEX
  5
499
  8
0
  6
CONTINUOUS
 62
     7
 10
244.2831422228
 20
319.1229813931
 30
0.0
  0
VERTEX
  5
49A
  8
0
  6
CONTINUOUS
 62
     7
 10
244.7275830558
 20
319.122783048
 30
0.0
  0
VERTEX
  5
49B
  8
0
  6
CONTINUOUS
 62
     7
 10
244.8113299621
 20
319.2182488836
 30
0.0
  0
SEQEND
  5
51C
  8
0
  6
CONTINUOUS
 62
     7
  0
LINE
  5
31E
  8
0
  6
CONTINUOUS
 62
     7
 10
240.8113299621
 20
320.3878511424
 30
0.0
 11
232.5113299621
 21
324.4366316302
 31
0.0
  0
LINE
  5
31F
  8
0
  6
CONTINUOUS
 62
     7
 10
232.5113299621
 20
324.4366316302
 30
0.0
 11
216.3113299621
 21
324.4366316302
 31
0.0
  0
LINE
  5
320
  8
0
  6
CONTINUOUS
 62
     7
 10
216.3113299621
 20
324.4366316302
 30
0.0
 11
216.3113299621
 21
325.9751058205
 31
0.0
  0
POLYLINE
  5
321
  8
0
  6
CONTINUOUS
 62
     7
 66
     1
 10
0.0
 20
0.0
 30
0.0
 70
   128
  0
VERTEX
  5
49C
  8
0
  6
CONTINUOUS
 62
     7
 10
220.0613299621
 20
325.9751058205
 30
0.0
  0
VERTEX
  5
49D
  8
0
  6
CONTINUOUS
 62
     7
 10
220.355962541
 20
325.9500436385
 30
0.0
  0
VERTEX
  5
49E
  8
0
  6
CONTINUOUS
 62
     7
 10
221.2060588046
 20
325.8857956118
 30
0.0
  0
VERTEX
  5
49F
  8
0
  6
CONTINUOUS
 62
     7
 10
222.5195520982
 20
325.8101417413
 30
0.0
  0
VERTEX
  5
4A0
  8
0
  6
CONTINUOUS
 62
     7
 10
224.1508938442
 20
325.7562409049
 30
0.0
  0
VERTEX
  5
4A1
  8
0
  6
CONTINUOUS
 62
     7
 10
225.9095883442
 20
325.7479710111
 30
0.0
  0
VERTEX
  5
4A2
  8
0
  6
CONTINUOUS
 62
     7
 10
227.5961282398
 20
325.7886310733
 30
0.0
  0
VERTEX
  5
4A3
  8
0
  6
CONTINUOUS
 62
     7
 10
229.0281085859
 20
325.860429092
 30
0.0
  0
VERTEX
  5
4A4
  8
0
  6
CONTINUOUS
 62
     7
 10
230.0461652797
 20
325.93222521
 30
0.0
  0
VERTEX
  5
4A5
  8
0
  6
CONTINUOUS
 62
     7
 10
230.5301716139
 20
325.9723874938
 30
0.0
  0
VERTEX
  5
4A6
  8
0
  6
CONTINUOUS
 62
     7
 10
230.4962481589
 20
325.969465945
 30
0.0
  0
SEQEND
  5
51D
  8
0
  6
CONTINUOUS
 62
     7
  0
LINE
  5
322
  8
0
  6
CONTINUOUS
 62
     7
 10
216.3113299621
 20
324.4366316302
 30
0.0
 11
216.3113299621
 21
314.9751058205
 31
0.0
  0
LINE
  5
323
  8
0
  6
CONTINUOUS
 62
     7
 10
240.8113299621
 20
314.9751058205
 30
0.0
 11
240.8113299621
 21
320.3878511424
 31
0.0
  0
LINE
  5
324
  8
0
  6
CONTINUOUS
 62
     7
 10
244.8113299621
 20
319.2182488836
 30
0.0
 11
244.8113299621
 21
314.9751058205
 31
0.0
  0
LINE
  5
325
  8
0
  6
CONTINUOUS
 62
     7
 10
230.5613299621
 20
327.9751058205
 30
0.0
 11
220.0613299621
 21
327.9751058205
 31
0.0
  0
LINE
  5
326
  8
0
  6
CONTINUOUS
 62
     7
 10
221.5613299621
 20
329.9751058205
 30
0.0
 11
229.0613299621
 21
329.9751058205
 31
0.0
  0
LINE
  5
327
  8
0
  6
CONTINUOUS
 62
     7
 10
228.5613299621
 20
364.9751058205
 30
0.0
 11
222.0613299621
 21
364.9751058205
 31
0.0
  0
POLYLINE
  5
328
  8
0
  6
CONTINUOUS
 62
     7
 66
     1
 10
0.0
 20
0.0
 30
0.0
 70
   128
  0
VERTEX
  5
4A7
  8
0
  6
CONTINUOUS
 62
     7
 10
301.7303153946
 20
313.0156649796
 30
0.0
  0
VERTEX
  5
4A8
  8
0
  6
CONTINUOUS
 62
     7
 10
301.6876640263
 20
313.8429217249
 30
0.0
  0
VERTEX
  5
4A9
  8
0
  6
CONTINUOUS
 62
     7
 10
301.5650179044
 20
314.2440997013
 30
0.0
  0
VERTEX
  5
4AA
  8
0
  6
CONTINUOUS
 62
     7
 10
301.375471854
 20
314.1783530283
 30
0.0
  0
VERTEX
  5
4AB
  8
0
  6
CONTINUOUS
 62
     7
 10
301.1375356006
 20
313.6438866666
 30
0.0
  0
VERTEX
  5
4AC
  8
0
  6
CONTINUOUS
 62
     7
 10
300.8765319135
 20
312.6853413203
 30
0.0
  0
VERTEX
  5
4AD
  8
0
  6
CONTINUOUS
 62
     7
 10
300.6230150687
 20
311.4046054605
 30
0.0
  0
VERTEX
  5
4AE
  8
0
  6
CONTINUOUS
 62
     7
 10
300.4083708795
 20
309.9556393784
 30
0.0
  0
VERTEX
  5
4AF
  8
0
  6
CONTINUOUS
 62
     7
 10
300.2585594506
 20
308.5183307686
 30
0.0
  0
VERTEX
  5
4B0
  8
0
  6
CONTINUOUS
 62
     7
 10
300.1893790301
 20
307.2620886629
 30
0.0
  0
VERTEX
  5
4B1
  8
0
  6
CONTINUOUS
 62
     7
 10
300.2057181623
 20
306.3198258435
 30
0.0
  0
VERTEX
  5
4B2
  8
0
  6
CONTINUOUS
 62
     7
 10
300.3037640969
 20
305.7818493569
 30
0.0
  0
VERTEX
  5
4B3
  8
0
  6
CONTINUOUS
 62
     7
 10
300.4731846397
 20
305.7005108892
 30
0.0
  0
VERTEX
  5
4B4
  8
0
  6
CONTINUOUS
 62
     7
 10
300.697617526
 20
306.0914569832
 30
0.0
  0
VERTEX
  5
4B5
  8
0
  6
CONTINUOUS
 62
     7
 10
300.9541397754
 20
306.9260313078
 30
0.0
  0
VERTEX
  5
4B6
  8
0
  6
CONTINUOUS
 62
     7
 10
301.2137259691
 20
308.1206574469
 30
0.0
  0
VERTEX
  5
4B7
  8
0
  6
CONTINUOUS
 62
     7
 10
301.4445129233
 20
309.5360399636
 30
0.0
  0
VERTEX
  5
4B8
  8
0
  6
CONTINUOUS
 62
     7
 10
301.6177683664
 20
310.9965521611
 30
0.0
  0
VERTEX
  5
4B9
  8
0
  6
CONTINUOUS
 62
     7
 10
301.7137463076
 20
312.3255385721
 30
0.0
  0
VERTEX
  5
4BA
  8
0
  6
CONTINUOUS
 62
     7
 10
301.7303153946
 20
313.0156649796
 30
0.0
  0
SEQEND
  5
51E
  8
0
  6
CONTINUOUS
 62
     7
  0
LINE
  5
329
  8
0
  6
CONTINUOUS
 62
     7
 10
300.6707203512
 20
304.4751058205
 30
0.0
 11
300.6707203513
 21
300.9751058205
 31
0.0
  0
ARC
  5
32A
  8
0
  6
CONTINUOUS
 62
     7
 10
312.8375466816
 20
310.5837467665
 30
0.0
 40
13.61422627850368
 50
202.3799170502
 51
206.660014064
  0
ARC
  5
32B
  8
0
  6
CONTINUOUS
 62
     7
 10
311.6672903817
 20
307.2253217309
 30
0.0
 40
11.5634857325841
 50
169.7651248276
 51
189.0813459792
  0
ARC
  5
32C
  8
0
  6
CONTINUOUS
 62
     7
 10
493.5097843424
 20
288.4760890987
 30
0.0
 40
194.3387089282947
 50
172.163031019
 51
173.854735696
  0
LINE
  5
32D
  8
0
  6
CONTINUOUS
 62
     7
 10
301.6090803598
 20
314.9751058205
 30
0.0
 11
300.9861860468
 21
314.9751058205
 31
0.0
  0
POLYLINE
  5
32E
  8
0
  6
CONTINUOUS
 62
     7
 66
     1
 10
0.0
 20
0.0
 30
0.0
 70
   128
  0
VERTEX
  5
4BB
  8
0
  6
CONTINUOUS
 62
     7
 10
301.6090803598
 20
309.9751058205
 30
0.0
  0
VERTEX
  5
4BC
  8
0
  6
CONTINUOUS
 62
     7
 10
301.7830271273
 20
311.616325043
 30
0.0
  0
VERTEX
  5
4BD
  8
0
  6
CONTINUOUS
 62
     7
 10
301.8672651301
 20
313.0817278356
 30
0.0
  0
VERTEX
  5
4BE
  8
0
  6
CONTINUOUS
 62
     7
 10
301.8517789325
 20
314.1927925496
 30
0.0
  0
VERTEX
  5
4BF
  8
0
  6
CONTINUOUS
 62
     7
 10
301.7402862445
 20
314.8369481483
 30
0.0
  0
VERTEX
  5
4C0
  8
0
  6
CONTINUOUS
 62
     7
 10
301.6090803598
 20
314.9751058205
 30
0.0
  0
SEQEND
  5
51F
  8
0
  6
CONTINUOUS
 62
     7
  0
ARC
  5
32F
  8
0
  6
CONTINUOUS
 62
     7
 10
497.7595328165
 20
284.9751058202
 30
0.0
 40
197.7371993302386
 50
172.7366309363
 51
175.3588106325
  0
LINE
  5
330
  8
0
  6
CONTINUOUS
 62
     7
 10
301.6090803598
 20
314.9751058205
 30
0.0
 11
312.3113299621
 21
314.9751058205
 31
0.0
  0
LINE
  5
331
  8
0
  6
CONTINUOUS
 62
     7
 10
312.3113299621
 20
309.9751058205
 30
0.0
 11
301.6090803598
 21
309.9751058205
 31
0.0
  0
LINE
  5
332
  8
0
  6
CONTINUOUS
 62
     7
 10
312.3113299621
 20
314.9751058205
 30
0.0
 11
312.3113299621
 21
309.9751058205
 31
0.0
  0
LINE
  5
333
  8
0
  6
CONTINUOUS
 62
     7
 10
300.6707203512
 20
268.9751058206
 30
0.0
 11
299.3113299621
 21
268.9751058205
 31
0.0
  0
LINE
  5
334
  8
0
  6
CONTINUOUS
 62
     7
 10
300.6707203513
 20
300.9751058205
 30
0.0
 11
299.3113299621
 21
300.9751058205
 31
0.0
  0
LINE
  5
335
  8
0
  6
CONTINUOUS
 62
     7
 10
301.6090803598
 20
259.9751058205
 30
0.0
 11
312.3113299621
 21
259.9751058205
 31
0.0
  0
ARC
  5
336
  8
0
  6
CONTINUOUS
 62
     7
 10
497.7595328165
 20
284.9751058202
 30
0.0
 40
197.7371993302488
 50
184.6411893673
 51
187.2633690635
  0
LINE
  5
337
  8
0
  6
CONTINUOUS
 62
     7
 10
312.3113299621
 20
259.9751058205
 30
0.0
 11
312.3113299621
 21
309.9751058205
 31
0.0
  0
LINE
  5
338
  8
0
  6
CONTINUOUS
 62
     7
 10
300.6707203512
 20
304.4751058205
 30
0.0
 11
299.3113299621
 21
304.4751058205
 31
0.0
  0
POLYLINE
  5
339
  8
0
  6
CONTINUOUS
 62
     7
 66
     1
 10
0.0
 20
0.0
 30
0.0
 70
   128
  0
VERTEX
  5
4C1
  8
0
  6
CONTINUOUS
 62
     7
 10
300.9604245144
 20
262.9994120661
 30
0.0
  0
VERTEX
  5
4C2
  8
0
  6
CONTINUOUS
 62
     7
 10
300.7015413852
 20
263.8487432083
 30
0.0
  0
VERTEX
  5
4C3
  8
0
  6
CONTINUOUS
 62
     7
 10
300.4716529246
 20
264.2508779345
 30
0.0
  0
VERTEX
  5
4C4
  8
0
  6
CONTINUOUS
 62
     7
 10
300.2986413478
 20
264.1560221986
 30
0.0
  0
VERTEX
  5
4C5
  8
0
  6
CONTINUOUS
 62
     7
 10
300.2023986274
 20
263.5850865387
 30
0.0
  0
VERTEX
  5
4C6
  8
0
  6
CONTINUOUS
 62
     7
 10
300.1911821526
 20
262.618231611
 30
0.0
  0
VERTEX
  5
4C7
  8
0
  6
CONTINUOUS
 62
     7
 10
300.2636920768
 20
261.3693657285
 30
0.0
  0
VERTEX
  5
4C8
  8
0
  6
CONTINUOUS
 62
     7
 10
300.4115596284
 20
259.9693601087
 30
0.0
  0
VERTEX
  5
4C9
  8
0
  6
CONTINUOUS
 62
     7
 10
300.620412172
 20
258.5608056667
 30
0.0
  0
VERTEX
  5
4CA
  8
0
  6
CONTINUOUS
 62
     7
 10
300.8694878583
 20
257.295617039
 30
0.0
  0
VERTEX
  5
4CB
  8
0
  6
CONTINUOUS
 62
     7
 10
301.1315330027
 20
256.3243356185
 30
0.0
  0
VERTEX
  5
4CC
  8
0
  6
CONTINUOUS
 62
     7
 10
301.3750451538
 20
255.7724543246
 30
0.0
  0
VERTEX
  5
4CD
  8
0
  6
CONTINUOUS
 62
     7
 10
301.5695562003
 20
255.7112272365
 30
0.0
  0
VERTEX
  5
4CE
  8
0
  6
CONTINUOUS
 62
     7
 10
301.6919456521
 20
256.1404038595
 30
0.0
  0
VERTEX
  5
4CF
  8
0
  6
CONTINUOUS
 62
     7
 10
301.730164476
 20
256.9951198456
 30
0.0
  0
VERTEX
  5
4D0
  8
0
  6
CONTINUOUS
 62
     7
 10
301.6827640602
 20
258.1693637812
 30
0.0
  0
VERTEX
  5
4D1
  8
0
  6
CONTINUOUS
 62
     7
 10
301.5562961849
 20
259.5366999504
 30
0.0
  0
VERTEX
  5
4D2
  8
0
  6
CONTINUOUS
 62
     7
 10
301.3635753759
 20
260.9584096448
 30
0.0
  0
VERTEX
  5
4D3
  8
0
  6
CONTINUOUS
 62
     7
 10
301.1236750925
 20
262.2850089604
 30
0.0
  0
VERTEX
  5
4D4
  8
0
  6
CONTINUOUS
 62
     7
 10
300.9604245144
 20
262.9994120661
 30
0.0
  0
SEQEND
  5
520
  8
0
  6
CONTINUOUS
 62
     7
  0
ARC
  5
33A
  8
0
  6
CONTINUOUS
 62
     7
 10
493.5097843427
 20
281.4741225418
 30
0.0
 40
194.3387089286319
 50
186.1452643039
 51
187.8369689809
  0
ARC
  5
33B
  8
0
  6
CONTINUOUS
 62
     7
 10
313.5325547393
 20
262.7436671183
 30
0.0
 40
13.40605894082724
 50
172.2562785967
 51
188.8972505962
  0
ARC
  5
33C
  8
0
  6
CONTINUOUS
 62
     7
 10
312.8375466326
 20
259.3664648959
 30
0.0
 40
13.61422622507561
 50
153.3399859239
 51
157.6200829546
  0
LINE
  5
33D
  8
0
  6
CONTINUOUS
 62
     7
 10
300.6707203512
 20
268.9751058206
 30
0.0
 11
300.6707203512
 21
265.4751058205
 31
0.0
  0
POLYLINE
  5
33E
  8
0
  6
CONTINUOUS
 62
     7
 66
     1
 10
0.0
 20
0.0
 30
0.0
 70
   128
  0
VERTEX
  5
4D5
  8
0
  6
CONTINUOUS
 62
     7
 10
301.6090803597
 20
254.9751058205
 30
0.0
  0
VERTEX
  5
4D6
  8
0
  6
CONTINUOUS
 62
     7
 10
301.7830271272
 20
255.2521407069
 30
0.0
  0
VERTEX
  5
4D7
  8
0
  6
CONTINUOUS
 62
     7
 10
301.86726513
 20
256.0573386432
 30
0.0
  0
VERTEX
  5
4D8
  8
0
  6
CONTINUOUS
 62
     7
 10
301.8517789325
 20
257.2897532076
 30
0.0
  0
VERTEX
  5
4D9
  8
0
  6
CONTINUOUS
 62
     7
 10
301.7402862444
 20
258.8078487025
 30
0.0
  0
VERTEX
  5
4DA
  8
0
  6
CONTINUOUS
 62
     7
 10
301.6090803598
 20
259.9751058205
 30
0.0
  0
SEQEND
  5
521
  8
0
  6
CONTINUOUS
 62
     7
  0
LINE
  5
33F
  8
0
  6
CONTINUOUS
 62
     7
 10
300.9861860467
 20
254.9751058205
 30
0.0
 11
301.6090803597
 21
254.9751058205
 31
0.0
  0
LINE
  5
340
  8
0
  6
CONTINUOUS
 62
     7
 10
300.6707203512
 20
265.4751058205
 30
0.0
 11
299.3113299621
 21
265.4751058205
 31
0.0
  0
LINE
  5
341
  8
0
  6
CONTINUOUS
 62
     7
 10
312.3113299621
 20
254.9751058205
 30
0.0
 11
301.6090803597
 21
254.9751058205
 31
0.0
  0
LINE
  5
342
  8
0
  6
CONTINUOUS
 62
     7
 10
312.3113299621
 20
259.9751058205
 30
0.0
 11
312.3113299621
 21
254.9751058205
 31
0.0
  0
LINE
  5
343
  8
0
  6
CONTINUOUS
 62
     7
 10
300.2487500914
 20
305.4001806607
 30
0.0
 11
299.3113299621
 21
305.4001806607
 31
0.0
  0
LINE
  5
344
  8
0
  6
CONTINUOUS
 62
     7
 10
300.2487500914
 20
264.5500309803
 30
0.0
 11
299.3113299621
 21
264.5500309803
 31
0.0
  0
LINE
  5
345
  8
0
  6
CONTINUOUS
 62
     7
 10
300.2878070369
 20
309.2799655181
 30
0.0
 11
299.3113299621
 21
309.2799655181
 31
0.0
  0
LINE
  5
346
  8
0
  6
CONTINUOUS
 62
     7
 10
300.2878070368
 20
260.6702461228
 30
0.0
 11
299.3113299621
 21
260.6702461228
 31
0.0
  0
LINE
  5
347
  8
0
  6
CONTINUOUS
 62
     7
 10
300.9861860468
 20
314.9751058205
 30
0.0
 11
299.3113299621
 21
314.9751058205
 31
0.0
  0
LINE
  5
348
  8
0
  6
CONTINUOUS
 62
     7
 10
300.9861860467
 20
254.9751058205
 30
0.0
 11
299.3113299621
 21
254.9751058205
 31
0.0
  0
LINE
  5
349
  8
0
  6
CONTINUOUS
 62
     7
 10
225.0113299621
 20
444.9252619489
 30
0.0
 11
225.0113299621
 21
446.0252619489
 31
0.0
  0
LINE
  5
34A
  8
0
  6
CONTINUOUS
 62
     7
 10
218.0113299621
 20
446.0252619489
 30
0.0
 11
218.0113299621
 21
444.9252619489
 31
0.0
  0
LINE
  5
34B
  8
0
  6
CONTINUOUS
 62
     7
 10
336.3113299621
 20
435.8252619489
 30
0.0
 11
315.3113299621
 21
435.8252619489
 31
0.0
  0
LINE
  5
34C
  8
0
  6
CONTINUOUS
 62
     7
 10
315.3113299621
 20
421.8252619489
 30
0.0
 11
336.3113299621
 21
421.8252619489
 31
0.0
  0
LINE
  5
34D
  8
0
  6
CONTINUOUS
 62
     7
 10
315.3113299621
 20
446.8252619489
 30
0.0
 11
312.3113299621
 21
446.8252619489
 31
0.0
  0
LINE
  5
34E
  8
0
  6
CONTINUOUS
 62
     7
 10
312.3113299621
 20
410.8252619489
 30
0.0
 11
315.3113299621
 21
410.8252619489
 31
0.0
  0
ARC
  5
34F
  8
0
  6
CONTINUOUS
 62
     7
 10
347.2426782919
 20
428.8252619489
 30
0.0
 40
200.0000000000024
 50
187.1807557815
 51
188.6269265587
  0
ARC
  5
350
  8
0
  6
CONTINUOUS
 62
     7
 10
347.2426782919
 20
428.8252619489
 30
0.0
 40
200.0000000000007
 50
171.3730734413
 51
172.8192442185
  0
LINE
  5
351
  8
0
  6
CONTINUOUS
 62
     7
 10
225.0113299621
 20
442.3252619489
 30
0.0
 11
225.0113299621
 21
444.9252619489
 31
0.0
  0
LINE
  5
352
  8
0
  6
CONTINUOUS
 62
     7
 10
218.0113299621
 20
444.9252619489
 30
0.0
 11
218.0113299621
 21
442.3252619489
 31
0.0
  0
LINE
  5
353
  8
0
  6
CONTINUOUS
 62
     7
 10
233.5113299621
 20
442.3252619489
 30
0.0
 11
233.5113299621
 21
442.6252619489
 31
0.0
  0
LINE
  5
354
  8
0
  6
CONTINUOUS
 62
     7
 10
227.5113299621
 20
442.6252619489
 30
0.0
 11
227.5113299621
 21
442.3252619489
 31
0.0
  0
LINE
  5
355
  8
0
  6
CONTINUOUS
 62
     7
 10
219.3255806626
 20
447.3252619489
 30
0.0
 11
223.6970792615
 21
447.3252619489
 31
0.0
  0
ARC
  5
356
  8
0
  6
CONTINUOUS
 62
     7
 10
223.7006596983
 20
446.0235354533
 30
0.0
 40
1.30173141962211
 50
0.0759918196
 51
90.1575933205
  0
LINE
  5
357
  8
0
  6
CONTINUOUS
 62
     7
 10
225.002389973
 20
446.0252619489
 30
0.0
 11
218.0202699511
 21
446.0252619489
 31
0.0
  0
ARC
  5
358
  8
0
  6
CONTINUOUS
 62
     7
 10
219.3227472142
 20
446.0227854133
 30
0.0
 40
1.302479617558963
 50
89.8753571572
 51
179.8910577026
  0
LINE
  5
359
  8
0
  6
CONTINUOUS
 62
     7
 10
218.0113299621
 20
444.9252619489
 30
0.0
 11
225.0113299621
 21
444.9252619489
 31
0.0
  0
LINE
  5
35A
  8
0
  6
CONTINUOUS
 62
     7
 10
225.002389973
 20
446.0252619489
 30
0.0
 11
225.0113299621
 21
446.0252619489
 31
0.0
  0
LINE
  5
35B
  8
0
  6
CONTINUOUS
 62
     7
 10
218.0113299621
 20
446.0252619489
 30
0.0
 11
218.0202699511
 21
446.0252619489
 31
0.0
  0
LINE
  5
35C
  8
0
  6
CONTINUOUS
 62
     7
 10
336.3113299621
 20
435.8252619489
 30
0.0
 11
336.3113299621
 21
421.8252619489
 31
0.0
  0
LINE
  5
35D
  8
0
  6
CONTINUOUS
 62
     7
 10
315.3113299621
 20
446.8252619489
 30
0.0
 11
315.3113299621
 21
410.8252619489
 31
0.0
  0
CIRCLE
  5
35E
  8
0
  6
CONTINUOUS
 62
     7
 10
156.2113299621
 20
428.8252619489
 30
0.0
 40
3.0
  0
CIRCLE
  5
35F
  8
0
  6
CONTINUOUS
 62
     7
 10
156.2113299621
 20
428.8252619489
 30
0.0
 40
5.000000000000028
  0
LINE
  5
360
  8
0
  6
CONTINUOUS
 62
     7
 10
162.2113299621
 20
415.8252619489
 30
0.0
 11
150.2113299621
 21
415.8252619489
 31
0.0
  0
LINE
  5
361
  8
0
  6
CONTINUOUS
 62
     7
 10
150.2113299621
 20
441.8252619489
 30
0.0
 11
162.2113299621
 21
441.8252619489
 31
0.0
  0
LINE
  5
362
  8
0
  6
CONTINUOUS
 62
     7
 10
162.2113299621
 20
415.8252619489
 30
0.0
 11
162.2113299621
 21
441.8252619489
 31
0.0
  0
LINE
  5
363
  8
0
  6
CONTINUOUS
 62
     7
 10
150.2113299621
 20
415.8252619489
 30
0.0
 11
150.2113299621
 21
441.8252619489
 31
0.0
  0
LINE
  5
364
  8
0
  6
CONTINUOUS
 62
     7
 10
150.153865824
 20
458.8252619489
 30
0.0
 11
149.5054789591
 21
458.8252619489
 31
0.0
  0
LINE
  5
365
  8
0
  6
CONTINUOUS
 62
     7
 10
150.153865824
 20
456.6775509033
 30
0.0
 11
150.153865824
 21
458.8252619489
 31
0.0
  0
ARC
  5
366
  8
0
  6
CONTINUOUS
 62
     7
 10
336.9932195355
 20
434.6256640027
 30
0.0
 40
188.1362001615066
 50
173.2687532447
 51
174.4723162803
  0
ARC
  5
367
  8
0
  6
CONTINUOUS
 62
     7
 10
159.9716598056
 20
451.0743504733
 30
0.0
 40
10.37567097062776
 50
170.7162120636
 51
190.5369680662
  0
ARC
  5
368
  8
0
  6
CONTINUOUS
 62
     7
 10
157.2187294212
 20
454.571888011
 30
0.0
 40
9.196450902089351
 50
215.9183905952
 51
222.7845265417
  0
ARC
  5
369
  8
0
  6
CONTINUOUS
 62
     7
 10
347.2426782919
 20
428.8252619489
 30
0.0
 40
197.7371993328577
 50
174.3405358619
 51
185.6594641381
  0
ARC
  5
36A
  8
0
  6
CONTINUOUS
 62
     7
 10
157.2187294243
 20
403.0786358844
 30
0.0
 40
9.196450906046136
 50
137.2154734599
 51
144.0816094034
  0
ARC
  5
36B
  8
0
  6
CONTINUOUS
 62
     7
 10
158.2631920511
 20
406.5948580748
 30
0.0
 40
8.697568388125706
 50
167.5255387518
 51
191.2212811185
  0
ARC
  5
36C
  8
0
  6
CONTINUOUS
 62
     7
 10
336.9932195337
 20
423.024859895
 30
0.0
 40
188.1362001596921
 50
185.5276837197
 51
186.7312467554
  0
LINE
  5
36D
  8
0
  6
CONTINUOUS
 62
     7
 10
150.153865824
 20
398.8252619489
 30
0.0
 11
150.153865824
 21
400.9729729945
 31
0.0
  0
LINE
  5
36E
  8
0
  6
CONTINUOUS
 62
     7
 10
149.5054789591
 20
398.8252619489
 30
0.0
 11
150.153865824
 21
398.8252619489
 31
0.0
  0
LINE
  5
36F
  8
0
  6
CONTINUOUS
 62
     7
 10
148.8113299621
 20
453.825261949
 30
0.0
 11
148.8113299621
 21
403.8252619489
 31
0.0
  0
LINE
  5
370
  8
0
  6
CONTINUOUS
 62
     7
 10
149.7709525097
 20
449.1769525831
 30
0.0
 11
162.7113299621
 21
449.1769525831
 31
0.0
  0
LINE
  5
371
  8
0
  6
CONTINUOUS
 62
     7
 10
150.4693315195
 20
448.3252619489
 30
0.0
 11
162.7113299621
 21
448.3252619489
 31
0.0
  0
LINE
  5
372
  8
0
  6
CONTINUOUS
 62
     7
 10
162.7113299621
 20
448.3252619489
 30
0.0
 11
162.7113299621
 21
449.1769525831
 31
0.0
  0
LINE
  5
373
  8
0
  6
CONTINUOUS
 62
     7
 10
150.4693315195
 20
409.3252619489
 30
0.0
 11
162.7113299621
 21
409.3252619489
 31
0.0
  0
LINE
  5
374
  8
0
  6
CONTINUOUS
 62
     7
 10
162.7113299621
 20
409.3252619489
 30
0.0
 11
162.7113299621
 21
448.3252619489
 31
0.0
  0
LINE
  5
375
  8
0
  6
CONTINUOUS
 62
     7
 10
149.7709525097
 20
408.4735713147
 30
0.0
 11
162.7113299621
 21
408.4735713147
 31
0.0
  0
LINE
  5
376
  8
0
  6
CONTINUOUS
 62
     7
 10
162.7113299621
 20
408.4735713147
 30
0.0
 11
162.7113299621
 21
409.3252619489
 31
0.0
  0
LINE
  5
377
  8
0
  6
CONTINUOUS
 62
     7
 10
149.7318955642
 20
452.7482012346
 30
0.0
 11
162.7113299621
 21
452.7482012346
 31
0.0
  0
LINE
  5
378
  8
0
  6
CONTINUOUS
 62
     7
 10
162.7113299621
 20
449.1769525831
 30
0.0
 11
162.7113299621
 21
452.7482012346
 31
0.0
  0
LINE
  5
379
  8
0
  6
CONTINUOUS
 62
     7
 10
149.7318955642
 20
404.9023226633
 30
0.0
 11
162.7113299621
 21
404.9023226633
 31
0.0
  0
LINE
  5
37A
  8
0
  6
CONTINUOUS
 62
     7
 10
162.7113299621
 20
404.9023226633
 30
0.0
 11
162.7113299621
 21
408.4735713147
 31
0.0
  0
LINE
  5
37B
  8
0
  6
CONTINUOUS
 62
     7
 10
150.153865824
 20
456.6775509033
 30
0.0
 11
162.7113299621
 21
456.6775509033
 31
0.0
  0
LINE
  5
37C
  8
0
  6
CONTINUOUS
 62
     7
 10
162.7113299621
 20
452.7482012346
 30
0.0
 11
162.7113299621
 21
456.6775509033
 31
0.0
  0
LINE
  5
37D
  8
0
  6
CONTINUOUS
 62
     7
 10
150.153865824
 20
400.9729729945
 30
0.0
 11
162.7113299621
 21
400.9729729945
 31
0.0
  0
LINE
  5
37E
  8
0
  6
CONTINUOUS
 62
     7
 10
162.7113299621
 20
400.9729729945
 30
0.0
 11
162.7113299621
 21
404.9023226633
 31
0.0
  0
LINE
  5
37F
  8
0
  6
CONTINUOUS
 62
     7
 10
150.153865824
 20
458.8252619489
 30
0.0
 11
162.7113299621
 21
458.8252619489
 31
0.0
  0
LINE
  5
380
  8
0
  6
CONTINUOUS
 62
     7
 10
162.7113299621
 20
456.6775509033
 30
0.0
 11
162.7113299621
 21
458.8252619489
 31
0.0
  0
LINE
  5
381
  8
0
  6
CONTINUOUS
 62
     7
 10
150.153865824
 20
398.8252619489
 30
0.0
 11
162.7113299621
 21
398.8252619489
 31
0.0
  0
LINE
  5
382
  8
0
  6
CONTINUOUS
 62
     7
 10
162.7113299621
 20
398.8252619489
 30
0.0
 11
162.7113299621
 21
400.9729729945
 31
0.0
  0
LINE
  5
383
  8
0
  6
CONTINUOUS
 62
     7
 10
173.5113299621
 20
449.1769525831
 30
0.0
 11
162.7113299621
 21
449.1769525831
 31
0.0
  0
LINE
  5
384
  8
0
  6
CONTINUOUS
 62
     7
 10
173.5113299621
 20
448.3252619489
 30
0.0
 11
162.7113299621
 21
448.3252619489
 31
0.0
  0
LINE
  5
385
  8
0
  6
CONTINUOUS
 62
     7
 10
173.5113299621
 20
448.3252619489
 30
0.0
 11
173.5113299621
 21
449.1769525831
 31
0.0
  0
LINE
  5
386
  8
0
  6
CONTINUOUS
 62
     7
 10
173.5113299621
 20
409.3252619489
 30
0.0
 11
162.7113299621
 21
409.3252619489
 31
0.0
  0
LINE
  5
387
  8
0
  6
CONTINUOUS
 62
     7
 10
173.5113299621
 20
409.3252619489
 30
0.0
 11
173.5113299621
 21
448.3252619489
 31
0.0
  0
LINE
  5
388
  8
0
  6
CONTINUOUS
 62
     7
 10
173.5113299621
 20
408.4735713147
 30
0.0
 11
162.7113299621
 21
408.4735713147
 31
0.0
  0
LINE
  5
389
  8
0
  6
CONTINUOUS
 62
     7
 10
173.5113299621
 20
408.4735713147
 30
0.0
 11
173.5113299621
 21
409.3252619489
 31
0.0
  0
LINE
  5
38A
  8
0
  6
CONTINUOUS
 62
     7
 10
173.5113299621
 20
452.7482012346
 30
0.0
 11
162.7113299621
 21
452.7482012346
 31
0.0
  0
LINE
  5
38B
  8
0
  6
CONTINUOUS
 62
     7
 10
173.5113299621
 20
449.1769525831
 30
0.0
 11
173.5113299621
 21
452.7482012346
 31
0.0
  0
LINE
  5
38C
  8
0
  6
CONTINUOUS
 62
     7
 10
173.5113299621
 20
404.9023226633
 30
0.0
 11
162.7113299621
 21
404.9023226633
 31
0.0
  0
LINE
  5
38D
  8
0
  6
CONTINUOUS
 62
     7
 10
173.5113299621
 20
404.9023226633
 30
0.0
 11
173.5113299621
 21
408.4735713147
 31
0.0
  0
LINE
  5
38E
  8
0
  6
CONTINUOUS
 62
     7
 10
173.5113299621
 20
456.6775509033
 30
0.0
 11
162.7113299621
 21
456.6775509033
 31
0.0
  0
LINE
  5
38F
  8
0
  6
CONTINUOUS
 62
     7
 10
173.5113299621
 20
452.7482012346
 30
0.0
 11
173.5113299621
 21
456.6775509033
 31
0.0
  0
LINE
  5
390
  8
0
  6
CONTINUOUS
 62
     7
 10
173.5113299621
 20
400.9729729945
 30
0.0
 11
162.7113299621
 21
400.9729729945
 31
0.0
  0
LINE
  5
391
  8
0
  6
CONTINUOUS
 62
     7
 10
173.5113299621
 20
400.9729729945
 30
0.0
 11
173.5113299621
 21
404.9023226633
 31
0.0
  0
LINE
  5
392
  8
0
  6
CONTINUOUS
 62
     7
 10
173.5113299621
 20
458.8252619489
 30
0.0
 11
162.7113299621
 21
458.8252619489
 31
0.0
  0
LINE
  5
393
  8
0
  6
CONTINUOUS
 62
     7
 10
173.5113299621
 20
456.6775509033
 30
0.0
 11
173.5113299621
 21
458.8252619489
 31
0.0
  0
LINE
  5
394
  8
0
  6
CONTINUOUS
 62
     7
 10
173.5113299621
 20
398.8252619489
 30
0.0
 11
162.7113299621
 21
398.8252619489
 31
0.0
  0
LINE
  5
395
  8
0
  6
CONTINUOUS
 62
     7
 10
173.5113299621
 20
398.8252619489
 30
0.0
 11
173.5113299621
 21
400.9729729945
 31
0.0
  0
CIRCLE
  5
396
  8
0
  6
CONTINUOUS
 62
     7
 10
192.3113299621
 20
428.8252619489
 30
0.0
 40
3.000000000000028
  0
CIRCLE
  5
397
  8
0
  6
CONTINUOUS
 62
     7
 10
192.3113299621
 20
428.8252619489
 30
0.0
 40
5.0
  0
LINE
  5
398
  8
0
  6
CONTINUOUS
 62
     7
 10
198.3113299621
 20
415.8252619489
 30
0.0
 11
186.3113299621
 21
415.8252619489
 31
0.0
  0
LINE
  5
399
  8
0
  6
CONTINUOUS
 62
     7
 10
186.3113299621
 20
415.8252619489
 30
0.0
 11
186.3113299621
 21
441.8252619489
 31
0.0
  0
LINE
  5
39A
  8
0
  6
CONTINUOUS
 62
     7
 10
186.3113299621
 20
441.8252619489
 30
0.0
 11
198.3113299621
 21
441.8252619489
 31
0.0
  0
LINE
  5
39B
  8
0
  6
CONTINUOUS
 62
     7
 10
198.3113299621
 20
415.8252619489
 30
0.0
 11
198.3113299621
 21
441.8252619489
 31
0.0
  0
LINE
  5
39C
  8
0
  6
CONTINUOUS
 62
     7
 10
215.3113299621
 20
448.3252619489
 30
0.0
 11
173.5113299621
 21
448.3252619489
 31
0.0
  0
LINE
  5
39D
  8
0
  6
CONTINUOUS
 62
     7
 10
215.3113299621
 20
449.1769525831
 30
0.0
 11
173.5113299621
 21
449.1769525831
 31
0.0
  0
LINE
  5
39E
  8
0
  6
CONTINUOUS
 62
     7
 10
215.3113299621
 20
449.1769525831
 30
0.0
 11
215.3113299621
 21
448.3252619489
 31
0.0
  0
LINE
  5
39F
  8
0
  6
CONTINUOUS
 62
     7
 10
215.3113299621
 20
409.3252619489
 30
0.0
 11
173.5113299621
 21
409.3252619489
 31
0.0
  0
LINE
  5
3A0
  8
0
  6
CONTINUOUS
 62
     7
 10
215.3113299621
 20
448.3252619489
 30
0.0
 11
215.3113299621
 21
409.3252619489
 31
0.0
  0
LINE
  5
3A1
  8
0
  6
CONTINUOUS
 62
     7
 10
215.3113299621
 20
408.4735713147
 30
0.0
 11
173.5113299621
 21
408.4735713147
 31
0.0
  0
LINE
  5
3A2
  8
0
  6
CONTINUOUS
 62
     7
 10
215.3113299621
 20
409.3252619489
 30
0.0
 11
215.3113299621
 21
408.4735713147
 31
0.0
  0
LINE
  5
3A3
  8
0
  6
CONTINUOUS
 62
     7
 10
215.3113299621
 20
452.7482012346
 30
0.0
 11
173.5113299621
 21
452.7482012346
 31
0.0
  0
LINE
  5
3A4
  8
0
  6
CONTINUOUS
 62
     7
 10
215.3113299621
 20
452.7482012346
 30
0.0
 11
215.3113299621
 21
449.1769525831
 31
0.0
  0
LINE
  5
3A5
  8
0
  6
CONTINUOUS
 62
     7
 10
215.3113299621
 20
404.9023226633
 30
0.0
 11
173.5113299621
 21
404.9023226633
 31
0.0
  0
LINE
  5
3A6
  8
0
  6
CONTINUOUS
 62
     7
 10
215.3113299621
 20
408.4735713147
 30
0.0
 11
215.3113299621
 21
404.9023226633
 31
0.0
  0
LINE
  5
3A7
  8
0
  6
CONTINUOUS
 62
     7
 10
215.3113299621
 20
456.6775509033
 30
0.0
 11
173.5113299621
 21
456.6775509033
 31
0.0
  0
LINE
  5
3A8
  8
0
  6
CONTINUOUS
 62
     7
 10
215.3113299621
 20
456.6775509033
 30
0.0
 11
215.3113299621
 21
452.7482012346
 31
0.0
  0
LINE
  5
3A9
  8
0
  6
CONTINUOUS
 62
     7
 10
215.3113299621
 20
400.9729729945
 30
0.0
 11
173.5113299621
 21
400.9729729945
 31
0.0
  0
LINE
  5
3AA
  8
0
  6
CONTINUOUS
 62
     7
 10
215.3113299621
 20
404.9023226633
 30
0.0
 11
215.3113299621
 21
400.9729729945
 31
0.0
  0
LINE
  5
3AB
  8
0
  6
CONTINUOUS
 62
     7
 10
215.3113299621
 20
458.8252619489
 30
0.0
 11
173.5113299621
 21
458.8252619489
 31
0.0
  0
LINE
  5
3AC
  8
0
  6
CONTINUOUS
 62
     7
 10
215.3113299621
 20
458.8252619489
 30
0.0
 11
215.3113299621
 21
456.6775509033
 31
0.0
  0
LINE
  5
3AD
  8
0
  6
CONTINUOUS
 62
     7
 10
215.3113299621
 20
398.8252619489
 30
0.0
 11
173.5113299621
 21
398.8252619489
 31
0.0
  0
LINE
  5
3AE
  8
0
  6
CONTINUOUS
 62
     7
 10
215.3113299621
 20
400.9729729945
 30
0.0
 11
215.3113299621
 21
398.8252619489
 31
0.0
  0
LINE
  5
3AF
  8
0
  6
CONTINUOUS
 62
     7
 10
218.3113299621
 20
449.1769525831
 30
0.0
 11
215.3113299621
 21
449.1769525831
 31
0.0
  0
LINE
  5
3B0
  8
0
  6
CONTINUOUS
 62
     7
 10
218.3113299621
 20
448.3252619489
 30
0.0
 11
215.3113299621
 21
448.3252619489
 31
0.0
  0
LINE
  5
3B1
  8
0
  6
CONTINUOUS
 62
     7
 10
218.3113299621
 20
448.3252619489
 30
0.0
 11
218.3113299621
 21
449.1769525831
 31
0.0
  0
LINE
  5
3B2
  8
0
  6
CONTINUOUS
 62
     7
 10
218.3113299621
 20
409.3252619489
 30
0.0
 11
215.3113299621
 21
409.3252619489
 31
0.0
  0
LINE
  5
3B3
  8
0
  6
CONTINUOUS
 62
     7
 10
218.3113299621
 20
409.3252619489
 30
0.0
 11
218.3113299621
 21
415.3252619489
 31
0.0
  0
LINE
  5
3B4
  8
0
  6
CONTINUOUS
 62
     7
 10
218.3113299621
 20
446.8416790078
 30
0.0
 11
218.3113299621
 21
448.3252619489
 31
0.0
  0
LINE
  5
3B5
  8
0
  6
CONTINUOUS
 62
     7
 10
218.3113299621
 20
408.4735713147
 30
0.0
 11
215.3113299621
 21
408.4735713147
 31
0.0
  0
LINE
  5
3B6
  8
0
  6
CONTINUOUS
 62
     7
 10
218.3113299621
 20
408.4735713147
 30
0.0
 11
218.3113299621
 21
409.3252619489
 31
0.0
  0
LINE
  5
3B7
  8
0
  6
CONTINUOUS
 62
     7
 10
218.3113299621
 20
452.7482012346
 30
0.0
 11
215.3113299621
 21
452.7482012346
 31
0.0
  0
LINE
  5
3B8
  8
0
  6
CONTINUOUS
 62
     7
 10
218.3113299621
 20
449.1769525831
 30
0.0
 11
218.3113299621
 21
452.7482012346
 31
0.0
  0
LINE
  5
3B9
  8
0
  6
CONTINUOUS
 62
     7
 10
218.3113299621
 20
404.9023226633
 30
0.0
 11
215.3113299621
 21
404.9023226633
 31
0.0
  0
LINE
  5
3BA
  8
0
  6
CONTINUOUS
 62
     7
 10
218.3113299621
 20
404.9023226633
 30
0.0
 11
218.3113299621
 21
408.4735713147
 31
0.0
  0
LINE
  5
3BB
  8
0
  6
CONTINUOUS
 62
     7
 10
218.3113299621
 20
456.6775509033
 30
0.0
 11
215.3113299621
 21
456.6775509033
 31
0.0
  0
LINE
  5
3BC
  8
0
  6
CONTINUOUS
 62
     7
 10
218.3113299621
 20
452.7482012346
 30
0.0
 11
218.3113299621
 21
456.6775509033
 31
0.0
  0
LINE
  5
3BD
  8
0
  6
CONTINUOUS
 62
     7
 10
218.3113299621
 20
400.9729729945
 30
0.0
 11
215.3113299621
 21
400.9729729945
 31
0.0
  0
LINE
  5
3BE
  8
0
  6
CONTINUOUS
 62
     7
 10
218.3113299621
 20
400.9729729945
 30
0.0
 11
218.3113299621
 21
404.9023226633
 31
0.0
  0
LINE
  5
3BF
  8
0
  6
CONTINUOUS
 62
     7
 10
218.3113299621
 20
458.8252619489
 30
0.0
 11
215.3113299621
 21
458.8252619489
 31
0.0
  0
LINE
  5
3C0
  8
0
  6
CONTINUOUS
 62
     7
 10
218.3113299621
 20
456.6775509033
 30
0.0
 11
218.3113299621
 21
458.8252619489
 31
0.0
  0
LINE
  5
3C1
  8
0
  6
CONTINUOUS
 62
     7
 10
218.3113299621
 20
398.8252619489
 30
0.0
 11
215.3113299621
 21
398.8252619489
 31
0.0
  0
LINE
  5
3C2
  8
0
  6
CONTINUOUS
 62
     7
 10
218.3113299621
 20
398.8252619489
 30
0.0
 11
218.3113299621
 21
400.9729729945
 31
0.0
  0
CIRCLE
  5
3C3
  8
0
  6
CONTINUOUS
 62
     7
 10
225.3113299621
 20
428.8252619489
 30
0.0
 40
3.249999999999972
  0
CIRCLE
  5
3C4
  8
0
  6
CONTINUOUS
 62
     7
 10
225.3113299621
 20
428.8252619489
 30
0.0
 40
3.749999999999972
  0
CIRCLE
  5
3C5
  8
0
  6
CONTINUOUS
 62
     7
 10
225.3113299621
 20
428.8252619489
 30
0.0
 40
5.250000000002103
  0
LINE
  5
3C6
  8
0
  6
CONTINUOUS
 62
     7
 10
232.5113299621
 20
442.3252619489
 30
0.0
 11
232.5113299621
 21
415.3252619489
 31
0.0
  0
LINE
  5
3C7
  8
0
  6
CONTINUOUS
 62
     7
 10
240.8113299621
 20
442.3252619489
 30
0.0
 11
232.5113299621
 21
442.3252619489
 31
0.0
  0
ARC
  5
3C8
  8
0
  6
CONTINUOUS
 62
     7
 10
240.8113299621
 20
438.3252619489
 30
0.0
 40
3.999999999999943
 50
0.0000000001
 51
90.0
  0
LINE
  5
3C9
  8
0
  6
CONTINUOUS
 62
     7
 10
244.8113299621
 20
438.3252619489
 30
0.0
 11
244.8113299621
 21
419.3252619489
 31
0.0
  0
ARC
  5
3CA
  8
0
  6
CONTINUOUS
 62
     7
 10
240.8113299621
 20
419.3252619489
 30
0.0
 40
3.999999999999943
 50
270.0
 51
359.9999999999
  0
LINE
  5
3CB
  8
0
  6
CONTINUOUS
 62
     7
 10
240.8113299621
 20
415.3252619489
 30
0.0
 11
232.5113299621
 21
415.3252619489
 31
0.0
  0
LINE
  5
3CC
  8
0
  6
CONTINUOUS
 62
     7
 10
232.5113299621
 20
415.3252619489
 30
0.0
 11
216.3113299621
 21
415.3252619489
 31
0.0
  0
LINE
  5
3CD
  8
0
  6
CONTINUOUS
 62
     7
 10
216.3113299621
 20
442.3252619489
 30
0.0
 11
232.5113299621
 21
442.3252619489
 31
0.0
  0
LINE
  5
3CE
  8
0
  6
CONTINUOUS
 62
     7
 10
216.3113299621
 20
415.3252619489
 30
0.0
 11
216.3113299621
 21
442.3252619489
 31
0.0
  0
LINE
  5
3CF
  8
0
  6
CONTINUOUS
 62
     7
 10
227.5113299621
 20
442.6252619489
 30
0.0
 11
233.5113299621
 21
442.6252619489
 31
0.0
  0
LINE
  5
3D0
  8
0
  6
CONTINUOUS
 62
     7
 10
299.3113299621
 20
449.1769525831
 30
0.0
 11
218.3113299621
 21
449.1769525831
 31
0.0
  0
LINE
  5
3D1
  8
0
  6
CONTINUOUS
 62
     7
 10
299.3113299621
 20
448.3252619489
 30
0.0
 11
218.3113299621
 21
448.3252619489
 31
0.0
  0
LINE
  5
3D2
  8
0
  6
CONTINUOUS
 62
     7
 10
299.3113299621
 20
448.3252619489
 30
0.0
 11
299.3113299621
 21
449.1769525831
 31
0.0
  0
LINE
  5
3D3
  8
0
  6
CONTINUOUS
 62
     7
 10
299.3113299621
 20
409.3252619489
 30
0.0
 11
218.3113299621
 21
409.3252619489
 31
0.0
  0
LINE
  5
3D4
  8
0
  6
CONTINUOUS
 62
     7
 10
299.3113299621
 20
409.3252619489
 30
0.0
 11
299.3113299621
 21
448.3252619489
 31
0.0
  0
LINE
  5
3D5
  8
0
  6
CONTINUOUS
 62
     7
 10
299.3113299621
 20
408.4735713147
 30
0.0
 11
218.3113299621
 21
408.4735713147
 31
0.0
  0
LINE
  5
3D6
  8
0
  6
CONTINUOUS
 62
     7
 10
299.3113299621
 20
408.4735713147
 30
0.0
 11
299.3113299621
 21
409.3252619489
 31
0.0
  0
LINE
  5
3D7
  8
0
  6
CONTINUOUS
 62
     7
 10
299.3113299621
 20
452.7482012346
 30
0.0
 11
218.3113299621
 21
452.7482012346
 31
0.0
  0
LINE
  5
3D8
  8
0
  6
CONTINUOUS
 62
     7
 10
299.3113299621
 20
449.1769525831
 30
0.0
 11
299.3113299621
 21
452.7482012346
 31
0.0
  0
LINE
  5
3D9
  8
0
  6
CONTINUOUS
 62
     7
 10
299.3113299621
 20
404.9023226633
 30
0.0
 11
218.3113299621
 21
404.9023226633
 31
0.0
  0
LINE
  5
3DA
  8
0
  6
CONTINUOUS
 62
     7
 10
299.3113299621
 20
404.9023226633
 30
0.0
 11
299.3113299621
 21
408.4735713147
 31
0.0
  0
LINE
  5
3DB
  8
0
  6
CONTINUOUS
 62
     7
 10
299.3113299621
 20
456.6775509033
 30
0.0
 11
218.3113299621
 21
456.6775509033
 31
0.0
  0
LINE
  5
3DC
  8
0
  6
CONTINUOUS
 62
     7
 10
299.3113299621
 20
452.7482012346
 30
0.0
 11
299.3113299621
 21
456.6775509033
 31
0.0
  0
LINE
  5
3DD
  8
0
  6
CONTINUOUS
 62
     7
 10
299.3113299621
 20
400.9729729945
 30
0.0
 11
218.3113299621
 21
400.9729729945
 31
0.0
  0
LINE
  5
3DE
  8
0
  6
CONTINUOUS
 62
     7
 10
299.3113299621
 20
400.9729729945
 30
0.0
 11
299.3113299621
 21
404.9023226633
 31
0.0
  0
LINE
  5
3DF
  8
0
  6
CONTINUOUS
 62
     7
 10
299.3113299621
 20
458.8252619489
 30
0.0
 11
218.3113299621
 21
458.8252619489
 31
0.0
  0
LINE
  5
3E0
  8
0
  6
CONTINUOUS
 62
     7
 10
299.3113299621
 20
456.6775509033
 30
0.0
 11
299.3113299621
 21
458.8252619489
 31
0.0
  0
LINE
  5
3E1
  8
0
  6
CONTINUOUS
 62
     7
 10
299.3113299621
 20
398.8252619489
 30
0.0
 11
218.3113299621
 21
398.8252619489
 31
0.0
  0
LINE
  5
3E2
  8
0
  6
CONTINUOUS
 62
     7
 10
299.3113299621
 20
398.8252619489
 30
0.0
 11
299.3113299621
 21
400.9729729945
 31
0.0
  0
LINE
  5
3E3
  8
0
  6
CONTINUOUS
 62
     7
 10
301.6090803597
 20
458.8252619489
 30
0.0
 11
312.3113299621
 21
458.8252619489
 31
0.0
  0
LINE
  5
3E4
  8
0
  6
CONTINUOUS
 62
     7
 10
312.3113299621
 20
458.8252619489
 30
0.0
 11
312.3113299621
 21
453.8252619489
 31
0.0
  0
LINE
  5
3E5
  8
0
  6
CONTINUOUS
 62
     7
 10
312.3113299621
 20
453.8252619489
 30
0.0
 11
301.6090803598
 21
453.8252619489
 31
0.0
  0
POLYLINE
  5
3E6
  8
0
  6
CONTINUOUS
 62
     7
 66
     1
 10
0.0
 20
0.0
 30
0.0
 70
   128
  0
VERTEX
  5
4DB
  8
0
  6
CONTINUOUS
 62
     7
 10
301.6090803598
 20
453.8252619489
 30
0.0
  0
VERTEX
  5
4DC
  8
0
  6
CONTINUOUS
 62
     7
 10
301.7830271272
 20
455.4664811714
 30
0.0
  0
VERTEX
  5
4DD
  8
0
  6
CONTINUOUS
 62
     7
 10
301.86726513
 20
456.931883964
 30
0.0
  0
VERTEX
  5
4DE
  8
0
  6
CONTINUOUS
 62
     7
 10
301.8517789325
 20
458.042948678
 30
0.0
  0
VERTEX
  5
4DF
  8
0
  6
CONTINUOUS
 62
     7
 10
301.7402862444
 20
458.6871042767
 30
0.0
  0
VERTEX
  5
4E0
  8
0
  6
CONTINUOUS
 62
     7
 10
301.6090803597
 20
458.8252619489
 30
0.0
  0
SEQEND
  5
522
  8
0
  6
CONTINUOUS
 62
     7
  0
POLYLINE
  5
3E7
  8
0
  6
CONTINUOUS
 62
     7
 66
     1
 10
0.0
 20
0.0
 30
0.0
 70
   128
  0
VERTEX
  5
4E1
  8
0
  6
CONTINUOUS
 62
     7
 10
300.9604245144
 20
450.8009557033
 30
0.0
  0
VERTEX
  5
4E2
  8
0
  6
CONTINUOUS
 62
     7
 10
301.2191557285
 20
451.9997848644
 30
0.0
  0
VERTEX
  5
4E3
  8
0
  6
CONTINUOUS
 62
     7
 10
301.4485344878
 20
453.4149241434
 30
0.0
  0
VERTEX
  5
4E4
  8
0
  6
CONTINUOUS
 62
     7
 10
301.6204298383
 20
454.8744781726
 30
0.0
  0
VERTEX
  5
4E5
  8
0
  6
CONTINUOUS
 62
     7
 10
301.7147776788
 20
456.1993057452
 30
0.0
  0
VERTEX
  5
4E6
  8
0
  6
CONTINUOUS
 62
     7
 10
301.7233860446
 20
457.2442040141
 30
0.0
  0
VERTEX
  5
4E7
  8
0
  6
CONTINUOUS
 62
     7
 10
301.6478439787
 20
457.9069933305
 30
0.0
  0
VERTEX
  5
4E8
  8
0
  6
CONTINUOUS
 62
     7
 10
301.4969468659
 20
458.1249762525
 30
0.0
  0
VERTEX
  5
4E9
  8
0
  6
CONTINUOUS
 62
     7
 10
301.2855913777
 20
457.8712589938
 30
0.0
  0
VERTEX
  5
4EA
  8
0
  6
CONTINUOUS
 62
     7
 10
301.0351195692
 20
457.1601135119
 30
0.0
  0
VERTEX
  5
4EB
  8
0
  6
CONTINUOUS
 62
     7
 10
300.773253163
 20
456.0582943733
 30
0.0
  0
VERTEX
  5
4EC
  8
0
  6
CONTINUOUS
 62
     7
 10
300.531564857
 20
454.6901555206
 30
0.0
  0
VERTEX
  5
4ED
  8
0
  6
CONTINUOUS
 62
     7
 10
300.340036368
 20
453.2240769969
 30
0.0
  0
VERTEX
  5
4EE
  8
0
  6
CONTINUOUS
 62
     7
 10
300.2209619825
 20
451.8400062343
 30
0.0
  0
VERTEX
  5
4EF
  8
0
  6
CONTINUOUS
 62
     7
 10
300.1856755352
 20
450.6948617044
 30
0.0
  0
VERTEX
  5
4F0
  8
0
  6
CONTINUOUS
 62
     7
 10
300.235285613
 20
449.9044367323
 30
0.0
  0
VERTEX
  5
4F1
  8
0
  6
CONTINUOUS
 62
     7
 10
300.3632157217
 20
449.5433515869
 30
0.0
  0
VERTEX
  5
4F2
  8
0
  6
CONTINUOUS
 62
     7
 10
300.5567753248
 20
449.6497460696
 30
0.0
  0
VERTEX
  5
4F3
  8
0
  6
CONTINUOUS
 62
     7
 10
300.7970579208
 20
450.2230011011
 30
0.0
  0
VERTEX
  5
4F4
  8
0
  6
CONTINUOUS
 62
     7
 10
300.9604245144
 20
450.8009557033
 30
0.0
  0
SEQEND
  5
523
  8
0
  6
CONTINUOUS
 62
     7
  0
ARC
  5
3E8
  8
0
  6
CONTINUOUS
 62
     7
 10
307.7355839498
 20
454.5718880123
 30
0.0
 40
9.196450904011023
 50
215.9183905969
 51
222.784526542
  0
ARC
  5
3E9
  8
0
  6
CONTINUOUS
 62
     7
 10
308.780046578
 20
451.0556658231
 30
0.0
 40
8.69756838793486
 50
168.7787188815
 51
192.4744612487
  0
ARC
  5
3EA
  8
0
  6
CONTINUOUS
 62
     7
 10
487.5100740598
 20
434.6256640031
 30
0.0
 40
188.1362001585683
 50
173.2687532447
 51
174.4723162803
  0
LINE
  5
3EB
  8
0
  6
CONTINUOUS
 62
     7
 10
300.6707203512
 20
458.8252619489
 30
0.0
 11
300.6707203512
 21
456.6775509033
 31
0.0
  0
LINE
  5
3EC
  8
0
  6
CONTINUOUS
 62
     7
 10
301.6090803597
 20
458.8252619489
 30
0.0
 11
300.6707203512
 21
458.8252619489
 31
0.0
  0
ARC
  5
3ED
  8
0
  6
CONTINUOUS
 62
     7
 10
497.7595328165
 20
428.8252619492
 30
0.0
 40
197.7371993302386
 50
172.7366309365
 51
174.3405358619
  0
LINE
  5
3EE
  8
0
  6
CONTINUOUS
 62
     7
 10
300.9861860468
 20
409.3252619489
 30
0.0
 11
299.3113299621
 21
409.3252619489
 31
0.0
  0
LINE
  5
3EF
  8
0
  6
CONTINUOUS
 62
     7
 10
300.9861860467
 20
448.3252619489
 30
0.0
 11
299.3113299621
 21
448.3252619489
 31
0.0
  0
LINE
  5
3F0
  8
0
  6
CONTINUOUS
 62
     7
 10
301.6090803598
 20
403.8252619489
 30
0.0
 11
312.3113299621
 21
403.8252619489
 31
0.0
  0
ARC
  5
3F1
  8
0
  6
CONTINUOUS
 62
     7
 10
497.7595328165
 20
428.8252619492
 30
0.0
 40
197.7371993302387
 50
185.6594641383
 51
187.2633690637
  0
LINE
  5
3F2
  8
0
  6
CONTINUOUS
 62
     7
 10
312.3113299621
 20
403.8252619489
 30
0.0
 11
312.3113299621
 21
453.8252619489
 31
0.0
  0
LINE
  5
3F3
  8
0
  6
CONTINUOUS
 62
     7
 10
300.2878070369
 20
449.1769525831
 30
0.0
 11
299.3113299621
 21
449.1769525831
 31
0.0
  0
POLYLINE
  5
3F4
  8
0
  6
CONTINUOUS
 62
     7
 66
     1
 10
0.0
 20
0.0
 30
0.0
 70
   128
  0
VERTEX
  5
4F5
  8
0
  6
CONTINUOUS
 62
     7
 10
301.7303153946
 20
400.7847027898
 30
0.0
  0
VERTEX
  5
4F6
  8
0
  6
CONTINUOUS
 62
     7
 10
301.6876640263
 20
401.9464324917
 30
0.0
  0
VERTEX
  5
4F7
  8
0
  6
CONTINUOUS
 62
     7
 10
301.5650179044
 20
403.3098094825
 30
0.0
  0
VERTEX
  5
4F8
  8
0
  6
CONTINUOUS
 62
     7
 10
301.375471854
 20
404.7322971799
 30
0.0
  0
VERTEX
  5
4F9
  8
0
  6
CONTINUOUS
 62
     7
 10
301.1375356006
 20
406.0680385993
 30
0.0
  0
VERTEX
  5
4FA
  8
0
  6
CONTINUOUS
 62
     7
 10
300.8765319135
 20
407.1636183612
 30
0.0
  0
VERTEX
  5
4FB
  8
0
  6
CONTINUOUS
 62
     7
 10
300.6230150687
 20
407.8806942045
 30
0.0
  0
VERTEX
  5
4FC
  8
0
  6
CONTINUOUS
 62
     7
 10
300.4083708795
 20
408.1252178856
 30
0.0
  0
VERTEX
  5
4FD
  8
0
  6
CONTINUOUS
 62
     7
 10
300.2585594506
 20
407.8709765271
 30
0.0
  0
VERTEX
  5
4FE
  8
0
  6
CONTINUOUS
 62
     7
 10
300.1893790301
 20
407.1613581559
 30
0.0
  0
VERTEX
  5
4FF
  8
0
  6
CONTINUOUS
 62
     7
 10
300.2057181623
 20
406.0899756814
 30
0.0
  0
VERTEX
  5
500
  8
0
  6
CONTINUOUS
 62
     7
 10
300.3037640969
 20
404.7774175194
 30
0.0
  0
VERTEX
  5
501
  8
0
  6
CONTINUOUS
 62
     7
 10
300.4731846397
 20
403.3585305772
 30
0.0
  0
VERTEX
  5
502
  8
0
  6
CONTINUOUS
 62
     7
 10
300.697617526
 20
401.9793822918
 30
0.0
  0
VERTEX
  5
503
  8
0
  6
CONTINUOUS
 62
     7
 10
300.9541397754
 20
400.7932420585
 30
0.0
  0
VERTEX
  5
504
  8
0
  6
CONTINUOUS
 62
     7
 10
301.2137259691
 20
399.9456973819
 30
0.0
  0
VERTEX
  5
505
  8
0
  6
CONTINUOUS
 62
     7
 10
301.4445129233
 20
399.5477368265
 30
0.0
  0
VERTEX
  5
506
  8
0
  6
CONTINUOUS
 62
     7
 10
301.6177683664
 20
399.6483435426
 30
0.0
  0
VERTEX
  5
507
  8
0
  6
CONTINUOUS
 62
     7
 10
301.7137463076
 20
400.2245028789
 30
0.0
  0
VERTEX
  5
508
  8
0
  6
CONTINUOUS
 62
     7
 10
301.7303153946
 20
400.7847027898
 30
0.0
  0
SEQEND
  5
524
  8
0
  6
CONTINUOUS
 62
     7
  0
LINE
  5
3F5
  8
0
  6
CONTINUOUS
 62
     7
 10
300.6707203512
 20
400.9729729945
 30
0.0
 11
300.6707203513
 21
398.8252619489
 31
0.0
  0
ARC
  5
3F6
  8
0
  6
CONTINUOUS
 62
     7
 10
487.5100748091
 20
423.0248599725
 30
0.0
 40
188.1362009118023
 50
185.5276837212
 51
186.7312467521
  0
ARC
  5
3F7
  8
0
  6
CONTINUOUS
 62
     7
 10
310.4885143326
 20
406.5761734246
 30
0.0
 40
10.37567097037664
 50
169.4630319336
 51
189.2837879366
  0
ARC
  5
3F8
  8
0
  6
CONTINUOUS
 62
     7
 10
307.7355839498
 20
403.0786358856
 30
0.0
 40
9.196450903974963
 50
137.2154734581
 51
144.0816094032
  0
POLYLINE
  5
3F9
  8
0
  6
CONTINUOUS
 62
     7
 66
     1
 10
0.0
 20
0.0
 30
0.0
 70
   128
  0
VERTEX
  5
509
  8
0
  6
CONTINUOUS
 62
     7
 10
301.6090803598
 20
398.8252619489
 30
0.0
  0
VERTEX
  5
50A
  8
0
  6
CONTINUOUS
 62
     7
 10
301.7830271273
 20
399.1022968354
 30
0.0
  0
VERTEX
  5
50B
  8
0
  6
CONTINUOUS
 62
     7
 10
301.8672651301
 20
399.9074947716
 30
0.0
  0
VERTEX
  5
50C
  8
0
  6
CONTINUOUS
 62
     7
 10
301.8517789325
 20
401.1399093361
 30
0.0
  0
VERTEX
  5
50D
  8
0
  6
CONTINUOUS
 62
     7
 10
301.7402862445
 20
402.658004831
 30
0.0
  0
VERTEX
  5
50E
  8
0
  6
CONTINUOUS
 62
     7
 10
301.6090803598
 20
403.8252619489
 30
0.0
  0
SEQEND
  5
525
  8
0
  6
CONTINUOUS
 62
     7
  0
LINE
  5
3FA
  8
0
  6
CONTINUOUS
 62
     7
 10
300.6707203513
 20
398.8252619489
 30
0.0
 11
301.6090803598
 21
398.8252619489
 31
0.0
  0
LINE
  5
3FB
  8
0
  6
CONTINUOUS
 62
     7
 10
300.2878070369
 20
408.4735713147
 30
0.0
 11
299.3113299621
 21
408.4735713147
 31
0.0
  0
LINE
  5
3FC
  8
0
  6
CONTINUOUS
 62
     7
 10
312.3113299621
 20
398.8252619489
 30
0.0
 11
301.6090803598
 21
398.8252619489
 31
0.0
  0
LINE
  5
3FD
  8
0
  6
CONTINUOUS
 62
     7
 10
312.3113299621
 20
403.8252619489
 30
0.0
 11
312.3113299621
 21
398.8252619489
 31
0.0
  0
LINE
  5
3FE
  8
0
  6
CONTINUOUS
 62
     7
 10
300.2487500914
 20
404.9023226633
 30
0.0
 11
299.3113299621
 21
404.9023226633
 31
0.0
  0
LINE
  5
3FF
  8
0
  6
CONTINUOUS
 62
     7
 10
300.2487500914
 20
452.7482012346
 30
0.0
 11
299.3113299621
 21
452.7482012346
 31
0.0
  0
LINE
  5
400
  8
0
  6
CONTINUOUS
 62
     7
 10
300.6707203512
 20
456.6775509033
 30
0.0
 11
299.3113299621
 21
456.6775509033
 31
0.0
  0
LINE
  5
401
  8
0
  6
CONTINUOUS
 62
     7
 10
300.6707203512
 20
400.9729729945
 30
0.0
 11
299.3113299621
 21
400.9729729945
 31
0.0
  0
LINE
  5
402
  8
0
  6
CONTINUOUS
 62
     7
 10
300.6707203512
 20
458.8252619489
 30
0.0
 11
299.3113299621
 21
458.8252619489
 31
0.0
  0
LINE
  5
403
  8
0
  6
CONTINUOUS
 62
     7
 10
300.6707203513
 20
398.8252619489
 30
0.0
 11
299.3113299621
 21
398.8252619489
 31
0.0
  0
ENDSEC
  0
EOF
