  0
SECTION
  2
HEADER
  9
$ACADVER
  1
AC1015
  9
$ACADMAINTVER
 70
     6
  9
$DWGCODEPAGE
  3
DOS932
  9
$INSBASE
 10
0.0
 20
0.0
 30
0.0
  9
$EXTMIN
 10
0.0
 20
0.0
 30
0.0
  9
$EXTMAX
 10
630.0
 20
445.5
 30
0.0
  9
$LIMMIN
 10
0.0
 20
0.0
  9
$LIMMAX
 10
630.0
 20
445.5
  9
$ORTHOMODE
 70
     0
  9
$REGENMODE
 70
     1
  9
$FILLMODE
 70
     1
  9
$QTEXTMODE
 70
     0
  9
$MIRRTEXT
 70
     1
  9
$LTSCALE
 40
1.5
  9
$ATTMODE
 70
     1
  9
$TEXTSIZE
 40
5.2916666667
  9
$TRACEWID
 40
1.0
  9
$TEXTSTYLE
  7
Standard
  9
$CLAYER
  8
0
  9
$CELTYPE
  6
ByLayer
  9
$CECOLOR
 62
   256
  9
$CELTSCALE
 40
1.0
  9
$DISPSILH
 70
     0
  9
$DIMSCALE
 40
1.0
  9
$DIMASZ
 40
4.0462646484
  9
$DIMEXO
 40
1.5
  9
$DIMDLI
 40
3.75
  9
$DIMRND
 40
0.0
  9
$DIMDLE
 40
0.0
  9
$DIMEXE
 40
1.5
  9
$DIMTP
 40
0.0
  9
$DIMTM
 40
0.0
  9
$DIMTXT
 40
5.2916666667
  9
$DIMCEN
 40
2.5
  9
$DIMTSZ
 40
0.0
  9
$DIMTOL
 70
     0
  9
$DIMLIM
 70
     0
  9
$DIMTIH
 70
     1
  9
$DIMTOH
 70
     1
  9
$DIMSE1
 70
     0
  9
$DIMSE2
 70
     0
  9
$DIMTAD
 70
     1
  9
$DIMZIN
 70
     0
  9
$DIMBLK
  1

  9
$DIMASO
 70
     1
  9
$DIMSHO
 70
     1
  9
$DIMPOST
  1

  9
$DIMAPOST
  1

  9
$DIMALT
 70
     0
  9
$DIMALTD
 70
     3
  9
$DIMALTF
 40
0.0393700787
  9
$DIMLFAC
 40
1.0
  9
$DIMTOFL
 70
     1
  9
$DIMTVP
 40
0.0
  9
$DIMTIX
 70
     0
  9
$DIMSOXD
 70
     0
  9
$DIMSAH
 70
     0
  9
$DIMBLK1
  1

  9
$DIMBLK2
  1

  9
$DIMSTYLE
  2
ISO-25
  9
$DIMCLRD
 70
     0
  9
$DIMCLRE
 70
     0
  9
$DIMCLRT
 70
     0
  9
$DIMTFAC
 40
1.0
  9
$DIMGAP
 40
3.0
  9
$DIMJUST
 70
     0
  9
$DIMSD1
 70
     0
  9
$DIMSD2
 70
     0
  9
$DIMTOLJ
 70
     0
  9
$DIMTZIN
 70
     0
  9
$DIMALTZ
 70
     0
  9
$DIMALTTZ
 70
     0
  9
$DIMUPT
 70
     0
  9
$DIMDEC
 70
     3
  9
$DIMTDEC
 70
     3
  9
$DIMALTU
 70
     2
  9
$DIMALTTD
 70
     3
  9
$DIMTXSTY
  7
Standard
  9
$DIMAUNIT
 70
     0
  9
$DIMADEC
 70
     3
  9
$DIMALTRND
 40
0.0
  9
$DIMAZIN
 70
     0
  9
$DIMDSEP
 70
    44
  9
$DIMATFIT
 70
     3
  9
$DIMFRAC
 70
     0
  9
$DIMLDRBLK
  1

  9
$DIMLUNIT
 70
     2
  9
$DIMLWD
 70
    -2
  9
$DIMLWE
 70
    -2
  9
$DIMTMOVE
 70
     0
  9
$LUNITS
 70
     2
  9
$LUPREC
 70
     2
  9
$SKETCHINC
 40
1.0
  9
$FILLETRAD
 40
10.0
  9
$AUNITS
 70
     0
  9
$AUPREC
 70
     2
  9
$MENU
  1
.
  9
$ELEVATION
 40
0.0
  9
$PELEVATION
 40
0.0
  9
$THICKNESS
 40
0.0
  9
$LIMCHECK
 70
     0
  9
$CHAMFERA
 40
0.0
  9
$CHAMFERB
 40
0.0
  9
$CHAMFERC
 40
0.0
  9
$CHAMFERD
 40
0.0
  9
$SKPOLY
 70
     0
  9
$TDCREATE
 40
2460095.638728507
  9
$TDUCREATE
 40
2460095.263728507
  9
$TDUPDATE
 40
2460095.638731366
  9
$TDUUPDATE
 40
2460095.263731366
  9
$TDINDWG
 40
0.0000000116
  9
$TDUSRTIMER
 40
0.0000000116
  9
$USRTIMER
 70
     1
  9
$ANGBASE
 50
0.0
  9
$ANGDIR
 70
     0
  9
$PDMODE
 70
     0
  9
$PDSIZE
 40
-1.0
  9
$PLINEWID
 40
0.0
  9
$SPLFRAME
 70
     0
  9
$SPLINETYPE
 70
     6
  9
$SPLINESEGS
 70
     8
  9
$HANDSEED
  5
4BE
  9
$SURFTAB1
 70
     6
  9
$SURFTAB2
 70
     6
  9
$SURFTYPE
 70
     6
  9
$SURFU
 70
     6
  9
$SURFV
 70
     6
  9
$UCSBASE
  2

  9
$UCSNAME
  2

  9
$UCSORG
 10
0.0
 20
0.0
 30
0.0
  9
$UCSXDIR
 10
1.0
 20
0.0
 30
0.0
  9
$UCSYDIR
 10
0.0
 20
1.0
 30
0.0
  9
$UCSORTHOREF
  2

  9
$UCSORTHOVIEW
 70
     0
  9
$UCSORGTOP
 10
0.0
 20
0.0
 30
0.0
  9
$UCSORGBOTTOM
 10
0.0
 20
0.0
 30
0.0
  9
$UCSORGLEFT
 10
0.0
 20
0.0
 30
0.0
  9
$UCSORGRIGHT
 10
0.0
 20
0.0
 30
0.0
  9
$UCSORGFRONT
 10
0.0
 20
0.0
 30
0.0
  9
$UCSORGBACK
 10
0.0
 20
0.0
 30
0.0
  9
$PUCSBASE
  2

  9
$PUCSNAME
  2

  9
$PUCSORG
 10
0.0
 20
0.0
 30
0.0
  9
$PUCSXDIR
 10
1.0
 20
0.0
 30
0.0
  9
$PUCSYDIR
 10
0.0
 20
1.0
 30
0.0
  9
$PUCSORTHOREF
  2

  9
$PUCSORTHOVIEW
 70
     0
  9
$PUCSORGTOP
 10
0.0
 20
0.0
 30
0.0
  9
$PUCSORGBOTTOM
 10
0.0
 20
0.0
 30
0.0
  9
$PUCSORGLEFT
 10
0.0
 20
0.0
 30
0.0
  9
$PUCSORGRIGHT
 10
0.0
 20
0.0
 30
0.0
  9
$PUCSORGFRONT
 10
0.0
 20
0.0
 30
0.0
  9
$PUCSORGBACK
 10
0.0
 20
0.0
 30
0.0
  9
$USERI1
 70
     0
  9
$USERI2
 70
     0
  9
$USERI3
 70
     0
  9
$USERI4
 70
     0
  9
$USERI5
 70
     0
  9
$USERR1
 40
0.0
  9
$USERR2
 40
0.0
  9
$USERR3
 40
0.0
  9
$USERR4
 40
0.0
  9
$USERR5
 40
0.0
  9
$WORLDVIEW
 70
     1
  9
$SHADEDGE
 70
     3
  9
$SHADEDIF
 70
    70
  9
$TILEMODE
 70
     1
  9
$MAXACTVP
 70
    64
  9
$PINSBASE
 10
0.0
 20
0.0
 30
0.0
  9
$PLIMCHECK
 70
     0
  9
$PEXTMIN
 10
1.0000000000E+20
 20
1.0000000000E+20
 30
1.0000000000E+20
  9
$PEXTMAX
 10
-1.0000000000E+20
 20
-1.0000000000E+20
 30
-1.0000000000E+20
  9
$PLIMMIN
 10
0.0
 20
0.0
  9
$PLIMMAX
 10
420.0
 20
297.0
  9
$UNITMODE
 70
     0
  9
$VISRETAIN
 70
     1
  9
$PLINEGEN
 70
     0
  9
$PSLTSCALE
 70
     1
  9
$TREEDEPTH
 70
  3020
  9
$CMLSTYLE
  2
Standard
  9
$CMLJUST
 70
     0
  9
$CMLSCALE
 40
20.0
  9
$PROXYGRAPHICS
 70
     1
  9
$MEASUREMENT
 70
     1
  9
$CELWEIGHT
370
    -1
  9
$ENDCAPS
280
     0
  9
$JOINSTYLE
280
     0
  9
$LWDISPLAY
290
     1
  9
$INSUNITS
 70
     4
  9
$HYPERLINKBASE
  1

  9
$STYLESHEET
  1

  9
$XEDIT
290
     1
  9
$CEPSNTYPE
380
     0
  9
$PSTYLEMODE
290
     1
  9
$FINGERPRINTGUID
  2
{d1fc9ae2-61e4-428e-b2f0-ed4db7e7fecc}
  9
$VERSIONGUID
  2
{FAEB1C32-E019-11D5-929B-00C0DF256EC4}
  9
$EXTNAMES
290
     1
  9
$PSVPSCALE
 40
0.0
  9
$OLESTARTUP
290
     0
  0
ENDSEC
  0
SECTION
  2
CLASSES
  0
CLASS
  1
ACDBDICTIONARYWDFLT
  2
AcDbDictionaryWithDefault
  3
ObjectDBX Classes
 90
        0
280
     0
281
     0
  0
CLASS
  1
VISUALSTYLE
  2
AcDbVisualStyle
  3
ObjectDBX Classes
 90
     4095
280
     0
281
     0
  0
CLASS
  1
MATERIAL
  2
AcDbMaterial
  3
ObjectDBX Classes
 90
     1153
280
     0
281
     0
  0
CLASS
  1
SCALE
  2
AcDbScale
  3
ObjectDBX Classes
 90
     1153
280
     0
281
     0
  0
CLASS
  1
TABLESTYLE
  2
AcDbTableStyle
  3
ObjectDBX Classes
 90
     4095
280
     0
281
     0
  0
CLASS
  1
MLEADERSTYLE
  2
AcDbMLeaderStyle
  3
ACDB_MLEADERSTYLE_CLASS
 90
     4095
280
     0
281
     0
  0
CLASS
  1
SUN
  2
AcDbSun
  3
SCENEOE
 90
     1153
280
     0
281
     0
  0
CLASS
  1
ACDBPLACEHOLDER
  2
AcDbPlaceHolder
  3
ObjectDBX Classes
 90
        0
280
     0
281
     0
  0
CLASS
  1
LAYOUT
  2
AcDbLayout
  3
ObjectDBX Classes
 90
        0
280
     0
281
     0
  0
ENDSEC
  0
SECTION
  2
TABLES
  0
TABLE
  2
VPORT
  5
8
330
0
100
AcDbSymbolTable
 70
     1
  0
VPORT
  5
29
330
8
100
AcDbSymbolTableRecord
100
AcDbViewportTableRecord
  2
*Active
 70
     0
 10
0.0
 20
0.0
 11
1.0
 21
1.0
 12
315.0
 22
222.75
 13
0.0
 23
0.0
 14
10.0
 24
10.0
 15
10.0
 25
10.0
 16
0.0
 26
0.0
 36
1.0
 17
0.0
 27
0.0
 37
0.0
 40
445.5
 41
1.4141414141
 42
50.0
 43
0.0
 44
0.0
 50
0.0
 51
0.0
 71
     0
 72
  2000
 73
     1
 74
     3
 75
     0
 76
     0
 77
     0
 78
     0
281
     0
 65
     1
110
0.0
120
0.0
130
0.0
111
1.0
121
0.0
131
0.0
112
0.0
122
1.0
132
0.0
 79
     0
146
0.0
  0
ENDTAB
  0
TABLE
  2
LTYPE
  5
5
330
0
100
AcDbSymbolTable
 70
     6
  0
LTYPE
  5
14
330
5
100
AcDbSymbolTableRecord
100
AcDbLinetypeTableRecord
  2
ByBlock
 70
     0
  3

 72
    65
 73
     0
 40
0.0
  0
LTYPE
  5
15
330
5
100
AcDbSymbolTableRecord
100
AcDbLinetypeTableRecord
  2
ByLayer
 70
     0
  3

 72
    65
 73
     0
 40
0.0
  0
LTYPE
  5
16
330
5
100
AcDbSymbolTableRecord
100
AcDbLinetypeTableRecord
  2
Continuous
 70
     0
  3
Solid line
 72
    65
 73
     0
 40
0.0
  0
LTYPE
  5
6E
330
5
100
AcDbSymbolTableRecord
100
AcDbLinetypeTableRecord
  2
HIDDEN
 70
     0
  3
Hidden __ __ __ __ __ __ __ __ __ __ __ __ __ __
 72
    65
 73
     2
 40
1.905
 49
1.27
 74
     0
 49
-0.635
 74
     0
  0
LTYPE
  5
6F
330
5
100
AcDbSymbolTableRecord
100
AcDbLinetypeTableRecord
  2
PHANTOM
 70
     0
  3
Phantom ______  __  __  ______  __  __  ______
 72
    65
 73
     6
 40
12.7
 49
6.35
 74
     0
 49
-1.27
 74
     0
 49
1.27
 74
     0
 49
-1.27
 74
     0
 49
1.27
 74
     0
 49
-1.27
 74
     0
  0
LTYPE
  5
70
330
5
100
AcDbSymbolTableRecord
100
AcDbLinetypeTableRecord
  2
CENTER
 70
     0
  3
Center ____ _ ____ _ ____ _ ____ _ ____ _ ____
 72
    65
 73
     4
 40
10.16
 49
6.35
 74
     0
 49
-1.27
 74
     0
 49
1.27
 74
     0
 49
-1.27
 74
     0
  0
LTYPE
  5
71
330
5
100
AcDbSymbolTableRecord
100
AcDbLinetypeTableRecord
  2
CENTERX2
 70
     0
  3
Center (2x) ________  __  ________  __  _____
 72
    65
 73
     4
 40
20.32
 49
12.7
 74
     0
 49
-2.54
 74
     0
 49
2.54
 74
     0
 49
-2.54
 74
     0
  0
LTYPE
  5
72
330
5
100
AcDbSymbolTableRecord
100
AcDbLinetypeTableRecord
  2
DOT2
 70
     0
  3
Dot (.5x) ........................................
 72
    65
 73
     2
 40
0.635
 49
0.0
 74
     0
 49
-0.635
 74
     0
  0
ENDTAB
  0
TABLE
  2
LAYER
  5
2
330
0
100
AcDbSymbolTable
 70
     8
  0
LAYER
  5
10
330
2
100
AcDbSymbolTableRecord
100
AcDbLayerTableRecord
  2
0
 70
     0
 62
     7
  6
Continuous
370
    -3
390
F
  0
LAYER
  5
73
330
2
100
AcDbSymbolTableRecord
100
AcDbLayerTableRecord
  2
SLD-0
 70
     0
 62
   179
  6
Continuous
370
    -3
390
F
  0
LAYER
  5
74
330
2
100
AcDbSymbolTableRecord
100
AcDbLayerTableRecord
  2
1
 70
     0
 62
   179
  6
Continuous
370
    -3
390
F
  0
LAYER
  5
75
330
2
100
AcDbSymbolTableRecord
100
AcDbLayerTableRecord
  2
FORMAT
 70
     0
 62
     7
  6
Continuous
370
    -3
390
F
  0
LAYER
  5
76
330
2
100
AcDbSymbolTableRecord
100
AcDbLayerTableRecord
  2
注記
 70
     0
 62
   190
  6
Continuous
370
    -3
390
F
  0
LAYER
  5
77
330
2
100
AcDbSymbolTableRecord
100
AcDbLayerTableRecord
  2
非表示
 70
     0
 62
     7
  6
Continuous
290
     0
370
    -3
390
F
  0
LAYER
  5
78
330
2
100
AcDbSymbolTableRecord
100
AcDbLayerTableRecord
  2
寸法
 70
     0
 62
    96
  6
Continuous
370
    -3
390
F
  0
LAYER
  5
79
330
2
100
AcDbSymbolTableRecord
100
AcDbLayerTableRecord
  2
印刷しない
 70
     0
 62
   144
  6
HIDDEN
290
     0
370
    -3
390
F
  0
ENDTAB
  0
TABLE
  2
STYLE
  5
3
330
0
100
AcDbSymbolTable
 70
     4
  0
STYLE
  5
11
330
3
100
AcDbSymbolTableRecord
100
AcDbTextStyleTableRecord
  2
Standard
 70
     0
 40
0.0
 41
1.0
 50
0.0
 71
     0
 42
5.2916666667
  3
txt
  4
bigfont
  0
STYLE
  5
8B
330
3
100
AcDbSymbolTableRecord
100
AcDbTextStyleTableRecord
  2
SLDTEXTSTYLE0
 70
     0
 40
0.0
 41
0.623
 50
0.0
 71
     0
 42
5.2916666667
  3
TXT
  4
bigfont
  0
STYLE
  5
92
330
3
100
AcDbSymbolTableRecord
100
AcDbTextStyleTableRecord
  2
SLDTEXTSTYLE1
 70
     0
 40
0.0
 41
0.6853
 50
0.0
 71
     0
 42
5.2916666667
  3
TXT
  4
bigfont
  0
STYLE
  5
96
330
3
100
AcDbSymbolTableRecord
100
AcDbTextStyleTableRecord
  2
SLDTEXTSTYLE2
 70
     0
 40
0.0
 41
0.7
 50
0.0
 71
     0
 42
5.2916666667
  3
TXT
  4
bigfont
  0
ENDTAB
  0
TABLE
  2
VIEW
  5
6
330
0
100
AcDbSymbolTable
 70
     0
  0
ENDTAB
  0
TABLE
  2
UCS
  5
7
330
0
100
AcDbSymbolTable
 70
     0
  0
ENDTAB
  0
TABLE
  2
APPID
  5
9
330
0
100
AcDbSymbolTable
 70
     1
  0
APPID
  5
12
330
9
100
AcDbSymbolTableRecord
100
AcDbRegAppTableRecord
  2
ACAD
 70
     0
  0
ENDTAB
  0
TABLE
  2
DIMSTYLE
  5
A
330
0
100
AcDbSymbolTable
 70
     1
100
AcDbDimStyleTable
  0
DIMSTYLE
105
27
330
A
100
AcDbSymbolTableRecord
100
AcDbDimStyleTableRecord
  2
ISO-25
 70
     0
 41
2.5
 42
0.625
 43
3.75
 44
1.25
 73
     0
 74
     0
 77
     1
 78
     8
140
2.5
141
2.5
143
0.0393700787
147
0.625
171
     3
172
     1
178
     0
271
     2
272
     2
274
     3
278
    44
283
     0
284
     8
340
11
  0
ENDTAB
  0
TABLE
  2
BLOCK_RECORD
  5
1
330
0
100
AcDbSymbolTable
 70
    14
  0
BLOCK_RECORD
  5
1F
330
1
100
AcDbSymbolTableRecord
100
AcDbBlockTableRecord
  2
*Model_Space
340
22
  0
BLOCK_RECORD
  5
1B
330
1
100
AcDbSymbolTableRecord
100
AcDbBlockTableRecord
  2
*Paper_Space
340
1E
  0
BLOCK_RECORD
  5
23
330
1
100
AcDbSymbolTableRecord
100
AcDbBlockTableRecord
  2
*Paper_Space0
340
26
  0
BLOCK_RECORD
  5
88
330
1
100
AcDbSymbolTableRecord
100
AcDbBlockTableRecord
  2
SW_NOTE_0
340
0
102
{BLKREFS
331
8E
102
}
  0
BLOCK_RECORD
  5
8F
330
1
100
AcDbSymbolTableRecord
100
AcDbBlockTableRecord
  2
SW_NOTE_0_1
340
0
102
{BLKREFS
331
95
102
}
  0
BLOCK_RECORD
  5
9A
330
1
100
AcDbSymbolTableRecord
100
AcDbBlockTableRecord
  2
SW_NOTE_0_2
340
0
102
{BLKREFS
331
A2
102
}
  0
BLOCK_RECORD
  5
A3
330
1
100
AcDbSymbolTableRecord
100
AcDbBlockTableRecord
  2
SW_NOTE_0_3
340
0
102
{BLKREFS
331
AA
102
}
  0
BLOCK_RECORD
  5
AB
330
1
100
AcDbSymbolTableRecord
100
AcDbBlockTableRecord
  2
SW_NOTE_0_4
340
0
102
{BLKREFS
331
B0
102
}
  0
BLOCK_RECORD
  5
F1
330
1
100
AcDbSymbolTableRecord
100
AcDbBlockTableRecord
  2
SW_CENTERMARKSYMBOL_0
340
0
102
{BLKREFS
331
FC
102
}
  0
BLOCK_RECORD
  5
FD
330
1
100
AcDbSymbolTableRecord
100
AcDbBlockTableRecord
  2
SW_CENTERMARKSYMBOL_1
340
0
102
{BLKREFS
331
120
102
}
  0
BLOCK_RECORD
  5
29D
330
1
100
AcDbSymbolTableRecord
100
AcDbBlockTableRecord
  2
SW_CENTERMARKSYMBOL_2
340
0
102
{BLKREFS
331
2A8
102
}
  0
BLOCK_RECORD
  5
2A9
330
1
100
AcDbSymbolTableRecord
100
AcDbBlockTableRecord
  2
SW_CENTERMARKSYMBOL_3
340
0
102
{BLKREFS
331
2C8
102
}
  0
BLOCK_RECORD
  5
2C9
330
1
100
AcDbSymbolTableRecord
100
AcDbBlockTableRecord
  2
SW_CENTERMARKSYMBOL_4
340
0
102
{BLKREFS
331
2F4
102
}
  0
BLOCK_RECORD
  5
2F5
330
1
100
AcDbSymbolTableRecord
100
AcDbBlockTableRecord
  2
SW_CENTERMARKSYMBOL_5
340
0
102
{BLKREFS
331
318
102
}
  0
BLOCK_RECORD
  5
319
330
1
100
AcDbSymbolTableRecord
100
AcDbBlockTableRecord
  2
SW_CENTERMARKSYMBOL_6
340
0
102
{BLKREFS
331
338
102
}
  0
BLOCK_RECORD
  5
35E
330
1
100
AcDbSymbolTableRecord
100
AcDbBlockTableRecord
  2
SW_HATCH_0
340
0
102
{BLKREFS
331
372
102
}
  0
ENDTAB
  0
ENDSEC
  0
SECTION
  2
BLOCKS
  0
BLOCK
  5
20
330
1F
100
AcDbEntity
  8
0
100
AcDbBlockBegin
  2
*Model_Space
 70
     0
 10
0.0
 20
0.0
 30
0.0
  3
*Model_Space
  1

  0
ENDBLK
  5
21
330
1F
100
AcDbEntity
  8
0
100
AcDbBlockEnd
  0
BLOCK
  5
1C
330
1B
100
AcDbEntity
 67
     1
  8
0
100
AcDbBlockBegin
  2
*Paper_Space
 70
     0
 10
0.0
 20
0.0
 30
0.0
  3
*Paper_Space
  1

  0
ENDBLK
  5
1D
330
1B
100
AcDbEntity
 67
     1
  8
0
100
AcDbBlockEnd
  0
BLOCK
  5
24
330
23
100
AcDbEntity
  8
0
100
AcDbBlockBegin
  2
*Paper_Space0
 70
     0
 10
0.0
 20
0.0
 30
0.0
  3
*Paper_Space0
  1

  0
ENDBLK
  5
25
330
23
100
AcDbEntity
  8
0
100
AcDbBlockEnd
  0
BLOCK
  5
89
330
88
100
AcDbEntity
  8
0
100
AcDbBlockBegin
  2
SW_NOTE_0
 70
     0
 10
0.0
 20
0.0
 30
0.0
  3
SW_NOTE_0
  1

  0
MTEXT
  5
8C
330
88
100
AcDbEntity
  8
1
 62
     0
100
AcDbMText
 10
9.7355917969
 20
7.1623826291
 30
0.0
 40
5.55625
 41
0.0
 71
     2
 72
     1
  1
製品名
  7
SLDTEXTSTYLE0
 73
     1
 44
1.0
  0
MTEXT
  5
8D
330
88
100
AcDbEntity
  8
1
 62
     0
100
AcDbMText
 10
9.7579575124
 20
-0.1756792724
 30
0.0
 40
3.96875
 41
0.0
 71
     2
 72
     1
  1
ARTICLE
  7
SLDTEXTSTYLE0
 73
     1
 44
1.0
  0
ENDBLK
  5
8A
330
88
100
AcDbEntity
  8
0
100
AcDbBlockEnd
  0
BLOCK
  5
90
330
8F
100
AcDbEntity
  8
0
100
AcDbBlockBegin
  2
SW_NOTE_0_1
 70
     0
 10
0.0
 20
0.0
 30
0.0
  3
SW_NOTE_0_1
  1

  0
MTEXT
  5
93
330
8F
100
AcDbEntity
  8
1
 62
     0
100
AcDbMText
 10
10.7091509766
 20
7.1623826291
 30
0.0
 40
5.55625
 41
0.0
 71
     2
 72
     1
  1
作成日
  7
SLDTEXTSTYLE1
 73
     1
 44
1.0
  0
MTEXT
  5
94
330
8F
100
AcDbEntity
  8
1
 62
     0
100
AcDbMText
 10
10.7933505802
 20
-0.1756792724
 30
0.0
 40
3.96875
 41
0.0
 71
     2
 72
     1
  1
DATE
  7
SLDTEXTSTYLE1
 73
     1
 44
1.0
  0
ENDBLK
  5
91
330
8F
100
AcDbEntity
  8
0
100
AcDbBlockEnd
  0
BLOCK
  5
9B
330
9A
100
AcDbEntity
  8
0
100
AcDbBlockBegin
  2
SW_NOTE_0_2
 70
     0
 10
0.0
 20
0.0
 30
0.0
  3
SW_NOTE_0_2
  1

  0
MTEXT
  5
9D
330
9A
100
AcDbEntity
  8
注記
 62
     0
100
AcDbMText
 10
0.0
 20
6.6507838699
 30
0.0
 40
5.159375
 41
0.0
 71
     1
 72
     1
  1
Harmonic Drive Systems,Inc.
  7
SLDTEXTSTYLE2
 73
     1
 44
1.0
  0
MTEXT
  5
9E
330
9A
100
AcDbEntity
  8
注記
 62
     0
100
AcDbMText
 10
0.0
 20
-1.7283826103
 30
0.0
 40
5.159375
 41
0.0
 71
     1
 72
     1
  1
Ichigo Omori Bldg.,4F 6-25-3 Minami-Oi, Shinagawa-ku, Tokyo 140-0013
  7
SLDTEXTSTYLE2
 73
     1
 44
1.0
  0
MTEXT
  5
9F
330
9A
100
AcDbEntity
  8
注記
 62
     0
100
AcDbMText
 10
0.0
 20
-10.1075490904
 30
0.0
 40
5.159375
 41
0.0
 71
     1
 72
     1
  1
JAPAN
  7
SLDTEXTSTYLE2
 73
     1
 44
1.0
  0
MTEXT
  5
A0
330
9A
100
AcDbEntity
  8
注記
 62
     0
100
AcDbMText
 10
0.0
 20
-18.4867155706
 30
0.0
 40
5.159375
 41
0.0
 71
     1
 72
     1
  1
Tel.03-5471-7800 Fax.03-5471-7811
  7
SLDTEXTSTYLE2
 73
     1
 44
1.0
  0
MTEXT
  5
A1
330
9A
100
AcDbEntity
  8
注記
 62
     0
100
AcDbMText
 10
0.0
 20
-26.8658820507
 30
0.0
 40
5.159375
 41
0.0
 71
     1
 72
     1
  1
http://www.hds.co.jp
  7
SLDTEXTSTYLE2
 73
     1
 44
1.0
  0
ENDBLK
  5
9C
330
9A
100
AcDbEntity
  8
0
100
AcDbBlockEnd
  0
BLOCK
  5
A4
330
A3
100
AcDbEntity
  8
0
100
AcDbBlockBegin
  2
SW_NOTE_0_3
 70
     0
 10
0.0
 20
0.0
 30
0.0
  3
SW_NOTE_0_3
  1

  0
MTEXT
  5
A6
330
A3
100
AcDbEntity
  8
注記
 62
     0
100
AcDbMText
 10
0.0
 20
6.6507838699
 30
0.0
 40
5.159375
 41
0.0
 71
     1
 72
     1
  1
The reference drawing
  7
SLDTEXTSTYLE2
 73
     1
 44
1.0
  0
MTEXT
  5
A7
330
A3
100
AcDbEntity
  8
注記
 62
     0
100
AcDbMText
 10
0.0
 20
-1.7283826103
 30
0.0
 40
5.159375
 41
0.0
 71
     1
 72
     1
  1
All speciffcations and dimensions mentioned in the drawing are
  7
SLDTEXTSTYLE2
 73
     1
 44
1.0
  0
MTEXT
  5
A8
330
A3
100
AcDbEntity
  8
注記
 62
     0
100
AcDbMText
 10
0.0
 20
-10.1075490904
 30
0.0
 40
5.159375
 41
0.0
 71
     1
 72
     1
  1
subject to change without notification.
  7
SLDTEXTSTYLE2
 73
     1
 44
1.0
  0
MTEXT
  5
A9
330
A3
100
AcDbEntity
  8
注記
 62
     0
100
AcDbMText
 10
0.0
 20
-18.4867155706
 30
0.0
 40
5.159375
 41
0.0
 71
     1
 72
     1
  1
This drawing itself is also a property of Harmonic Drive Systems,Ins.
  7
SLDTEXTSTYLE2
 73
     1
 44
1.0
  0
ENDBLK
  5
A5
330
A3
100
AcDbEntity
  8
0
100
AcDbBlockEnd
  0
BLOCK
  5
AC
330
AB
100
AcDbEntity
  8
0
100
AcDbBlockBegin
  2
SW_NOTE_0_4
 70
     0
 10
0.0
 20
0.0
 30
0.0
  3
SW_NOTE_0_4
  1

  0
MTEXT
  5
AE
330
AB
100
AcDbEntity
  8
1
 62
     0
100
AcDbMText
 10
6.4903945312
 20
7.1623826291
 30
0.0
 40
5.55625
 41
0.0
 71
     2
 72
     1
  1
図番
  7
SLDTEXTSTYLE0
 73
     1
 44
1.0
  0
MTEXT
  5
AF
330
AB
100
AcDbEntity
  8
1
 62
     0
100
AcDbMText
 10
6.414744183
 20
-0.1756792724
 30
0.0
 40
3.96875
 41
0.0
 71
     2
 72
     1
  1
DWG No.
  7
SLDTEXTSTYLE0
 73
     1
 44
1.0
  0
ENDBLK
  5
AD
330
AB
100
AcDbEntity
  8
0
100
AcDbBlockEnd
  0
BLOCK
  5
F2
330
F1
100
AcDbEntity
  8
0
100
AcDbBlockBegin
  2
SW_CENTERMARKSYMBOL_0
 70
     0
 10
0.0
 20
0.0
 30
0.0
  3
SW_CENTERMARKSYMBOL_0
  1

  0
LINE
  5
F4
330
F1
100
AcDbEntity
  8
0
  6
Continuous
 62
     0
370
    18
100
AcDbLine
 10
0.0
 20
0.0
 30
0.0
 11
0.0
 21
4.0
 31
0.0
  0
LINE
  5
F5
330
F1
100
AcDbEntity
  8
0
  6
Continuous
 62
     0
370
    18
100
AcDbLine
 10
0.0
 20
0.0
 30
0.0
 11
-4.0
 21
0.0
 31
0.0
  0
LINE
  5
F6
330
F1
100
AcDbEntity
  8
0
  6
Continuous
 62
     0
370
    18
100
AcDbLine
 10
0.0
 20
0.0
 30
0.0
 11
0.0
 21
-4.0
 31
0.0
  0
LINE
  5
F7
330
F1
100
AcDbEntity
  8
0
  6
Continuous
 62
     0
370
    18
100
AcDbLine
 10
0.0
 20
0.0
 30
0.0
 11
4.0
 21
0.0
 31
0.0
  0
LINE
  5
F8
330
F1
100
AcDbEntity
  8
0
  6
Continuous
 62
     0
370
    18
100
AcDbLine
 10
0.0
 20
8.0
 30
0.0
 11
0.0
 21
52.3220456786
 31
0.0
  0
LINE
  5
F9
330
F1
100
AcDbEntity
  8
0
  6
Continuous
 62
     0
370
    18
100
AcDbLine
 10
-8.0
 20
0.0
 30
0.0
 11
-52.3749984871
 21
0.0
 31
0.0
  0
LINE
  5
FA
330
F1
100
AcDbEntity
  8
0
  6
Continuous
 62
     0
370
    18
100
AcDbLine
 10
0.0
 20
-8.0
 30
0.0
 11
0.0
 21
-51.8048838022
 31
0.0
  0
LINE
  5
FB
330
F1
100
AcDbEntity
  8
0
  6
Continuous
 62
     0
370
    18
100
AcDbLine
 10
8.0
 20
0.0
 30
0.0
 11
50.0769669806
 21
0.0
 31
0.0
  0
ENDBLK
  5
F3
330
F1
100
AcDbEntity
  8
0
100
AcDbBlockEnd
  0
BLOCK
  5
FE
330
FD
100
AcDbEntity
  8
0
100
AcDbBlockBegin
  2
SW_CENTERMARKSYMBOL_1
 70
     0
 10
0.0
 20
0.0
 30
0.0
  3
SW_CENTERMARKSYMBOL_1
  1

  0
ARC
  5
100
330
FD
100
AcDbEntity
  8
0
  6
Continuous
 62
     0
370
     0
100
AcDbCircle
 10
35.3553390593
 20
-35.3553390593
 30
0.0
 40
50.00000000000001
100
AcDbArc
 50
135.0
 51
137.2918311805
  0
ARC
  5
101
330
FD
100
AcDbEntity
  8
0
  6
Continuous
 62
     0
370
     0
100
AcDbCircle
 10
35.3553390593
 20
-35.3553390593
 30
0.0
 40
49.99999999999999
100
AcDbArc
 50
132.7081688195
 51
135.0
  0
ARC
  5
102
330
FD
100
AcDbEntity
  8
0
  6
Continuous
 62
     0
370
     0
100
AcDbCircle
 10
35.3553390593
 20
-35.3553390593
 30
0.0
 40
50.00000000000001
100
AcDbArc
 50
139.583662361
 51
149.2766846296
  0
ARC
  5
103
330
FD
100
AcDbEntity
  8
0
  6
Continuous
 62
     0
370
     0
100
AcDbCircle
 10
35.3553390593
 20
-35.3553390593
 30
0.0
 40
49.99999999999999
100
AcDbArc
 50
128.3536895765
 51
130.416337639
  0
ARC
  5
104
330
FD
100
AcDbEntity
  8
0
  6
Continuous
 62
     0
370
     0
100
AcDbCircle
 10
35.3553390593
 20
-35.3553390593
 30
0.0
 40
49.99999999999997
100
AcDbArc
 50
45.0
 51
47.2918311805
  0
ARC
  5
105
330
FD
100
AcDbEntity
  8
0
  6
Continuous
 62
     0
370
     0
100
AcDbCircle
 10
35.3553390593
 20
-35.3553390593
 30
0.0
 40
49.99999999999999
100
AcDbArc
 50
42.7081688195
 51
45.0
  0
ARC
  5
106
330
FD
100
AcDbEntity
  8
0
  6
Continuous
 62
     0
370
     0
100
AcDbCircle
 10
35.3553390593
 20
-35.3553390593
 30
0.0
 40
50.00000000000001
100
AcDbArc
 50
49.583662361
 51
51.6463104235
  0
ARC
  5
107
330
FD
100
AcDbEntity
  8
0
  6
Continuous
 62
     0
370
     0
100
AcDbCircle
 10
35.3553390593
 20
-35.3553390593
 30
0.0
 40
49.99999999999998
100
AcDbArc
 50
38.3536895765
 51
40.416337639
  0
ARC
  5
108
330
FD
100
AcDbEntity
  8
0
  6
Continuous
 62
     0
370
     0
100
AcDbCircle
 10
35.3553390593
 20
-35.3553390593
 30
0.0
 40
50.00000000000001
100
AcDbArc
 50
315.0
 51
317.2918311805
  0
ARC
  5
109
330
FD
100
AcDbEntity
  8
0
  6
Continuous
 62
     0
370
     0
100
AcDbCircle
 10
35.3553390593
 20
-35.3553390593
 30
0.0
 40
50.00000000000001
100
AcDbArc
 50
312.7081688195
 51
315.0
  0
ARC
  5
10A
330
FD
100
AcDbEntity
  8
0
  6
Continuous
 62
     0
370
     0
100
AcDbCircle
 10
35.3553390593
 20
-35.3553390593
 30
0.0
 40
50.00000000000001
100
AcDbArc
 50
319.583662361
 51
321.6463104235
  0
ARC
  5
10B
330
FD
100
AcDbEntity
  8
0
  6
Continuous
 62
     0
370
     0
100
AcDbCircle
 10
35.3553390593
 20
-35.3553390593
 30
0.0
 40
50.0
100
AcDbArc
 50
308.3536895765
 51
310.416337639
  0
ARC
  5
10C
330
FD
100
AcDbEntity
  8
0
  6
Continuous
 62
     0
370
     0
100
AcDbCircle
 10
35.3553390593
 20
-35.3553390593
 30
0.0
 40
50.00000000000002
100
AcDbArc
 50
225.0
 51
227.2918311805
  0
ARC
  5
10D
330
FD
100
AcDbEntity
  8
0
  6
Continuous
 62
     0
370
     0
100
AcDbCircle
 10
35.3553390593
 20
-35.3553390593
 30
0.0
 40
50.00000000000002
100
AcDbArc
 50
222.7081688195
 51
225.0
  0
ARC
  5
10E
330
FD
100
AcDbEntity
  8
0
  6
Continuous
 62
     0
370
     0
100
AcDbCircle
 10
35.3553390593
 20
-35.3553390593
 30
0.0
 40
50.0
100
AcDbArc
 50
229.583662361
 51
231.6463104235
  0
ARC
  5
10F
330
FD
100
AcDbEntity
  8
0
  6
Continuous
 62
     0
370
     0
100
AcDbCircle
 10
35.3553390593
 20
-35.3553390593
 30
0.0
 40
50.00000000000001
100
AcDbArc
 50
218.3536895765
 51
220.416337639
  0
LINE
  5
110
330
FD
100
AcDbEntity
  8
0
  6
Continuous
 62
     0
370
    18
100
AcDbLine
 10
0.0
 20
0.0
 30
0.0
 11
-1.4142135624
 21
1.4142135624
 31
0.0
  0
LINE
  5
111
330
FD
100
AcDbEntity
  8
0
  6
Continuous
 62
     0
370
    18
100
AcDbLine
 10
0.0
 20
0.0
 30
0.0
 11
1.4142135624
 21
-1.4142135624
 31
0.0
  0
LINE
  5
112
330
FD
100
AcDbEntity
  8
0
  6
Continuous
 62
     0
370
    18
100
AcDbLine
 10
-2.8284271247
 20
2.8284271247
 30
0.0
 11
-4.1012193309
 21
4.1012193309
 31
0.0
  0
LINE
  5
113
330
FD
100
AcDbEntity
  8
0
  6
Continuous
 62
     0
370
    18
100
AcDbLine
 10
2.8284271247
 20
-2.8284271247
 30
0.0
 11
4.1012193309
 21
-4.1012193309
 31
0.0
  0
LINE
  5
114
330
FD
100
AcDbEntity
  8
0
  6
Continuous
 62
     0
370
    18
100
AcDbLine
 10
70.7106781187
 20
0.0
 30
0.0
 11
72.124891681
 21
1.4142135624
 31
0.0
  0
LINE
  5
115
330
FD
100
AcDbEntity
  8
0
  6
Continuous
 62
     0
370
    18
100
AcDbLine
 10
70.7106781187
 20
0.0
 30
0.0
 11
69.2964645563
 21
-1.4142135624
 31
0.0
  0
LINE
  5
116
330
FD
100
AcDbEntity
  8
0
  6
Continuous
 62
     0
370
    18
100
AcDbLine
 10
73.5391052434
 20
2.8284271247
 30
0.0
 11
74.8118974495
 21
4.1012193309
 31
0.0
  0
LINE
  5
117
330
FD
100
AcDbEntity
  8
0
  6
Continuous
 62
     0
370
    18
100
AcDbLine
 10
67.8822509939
 20
-2.8284271247
 30
0.0
 11
66.6094587878
 21
-4.1012193309
 31
0.0
  0
LINE
  5
118
330
FD
100
AcDbEntity
  8
0
  6
Continuous
 62
     0
370
    18
100
AcDbLine
 10
70.7106781187
 20
-70.7106781187
 30
0.0
 11
72.124891681
 21
-72.124891681
 31
0.0
  0
LINE
  5
119
330
FD
100
AcDbEntity
  8
0
  6
Continuous
 62
     0
370
    18
100
AcDbLine
 10
70.7106781187
 20
-70.7106781187
 30
0.0
 11
69.2964645563
 21
-69.2964645563
 31
0.0
  0
LINE
  5
11A
330
FD
100
AcDbEntity
  8
0
  6
Continuous
 62
     0
370
    18
100
AcDbLine
 10
73.5391052434
 20
-73.5391052434
 30
0.0
 11
74.8118974495
 21
-74.8118974495
 31
0.0
  0
LINE
  5
11B
330
FD
100
AcDbEntity
  8
0
  6
Continuous
 62
     0
370
    18
100
AcDbLine
 10
67.8822509939
 20
-67.8822509939
 30
0.0
 11
66.6094587878
 21
-66.6094587878
 31
0.0
  0
LINE
  5
11C
330
FD
100
AcDbEntity
  8
0
  6
Continuous
 62
     0
370
    18
100
AcDbLine
 10
0.0
 20
-70.7106781187
 30
0.0
 11
-1.4142135624
 21
-72.124891681
 31
0.0
  0
LINE
  5
11D
330
FD
100
AcDbEntity
  8
0
  6
Continuous
 62
     0
370
    18
100
AcDbLine
 10
0.0
 20
-70.7106781187
 30
0.0
 11
1.4142135624
 21
-69.2964645563
 31
0.0
  0
LINE
  5
11E
330
FD
100
AcDbEntity
  8
0
  6
Continuous
 62
     0
370
    18
100
AcDbLine
 10
-2.8284271247
 20
-73.5391052434
 30
0.0
 11
-4.1012193309
 21
-74.8118974495
 31
0.0
  0
LINE
  5
11F
330
FD
100
AcDbEntity
  8
0
  6
Continuous
 62
     0
370
    18
100
AcDbLine
 10
2.8284271247
 20
-67.8822509939
 30
0.0
 11
4.1012193309
 21
-66.6094587878
 31
0.0
  0
ENDBLK
  5
FF
330
FD
100
AcDbEntity
  8
0
100
AcDbBlockEnd
  0
BLOCK
  5
29E
330
29D
100
AcDbEntity
  8
0
100
AcDbBlockBegin
  2
SW_CENTERMARKSYMBOL_2
 70
     0
 10
0.0
 20
0.0
 30
0.0
  3
SW_CENTERMARKSYMBOL_2
  1

  0
LINE
  5
2A0
330
29D
100
AcDbEntity
  8
0
  6
Continuous
 62
     0
370
    18
100
AcDbLine
 10
0.0
 20
0.0
 30
0.0
 11
0.0
 21
4.0
 31
0.0
  0
LINE
  5
2A1
330
29D
100
AcDbEntity
  8
0
  6
Continuous
 62
     0
370
    18
100
AcDbLine
 10
0.0
 20
0.0
 30
0.0
 11
-4.0
 21
0.0
 31
0.0
  0
LINE
  5
2A2
330
29D
100
AcDbEntity
  8
0
  6
Continuous
 62
     0
370
    18
100
AcDbLine
 10
0.0
 20
0.0
 30
0.0
 11
0.0
 21
-4.0
 31
0.0
  0
LINE
  5
2A3
330
29D
100
AcDbEntity
  8
0
  6
Continuous
 62
     0
370
    18
100
AcDbLine
 10
0.0
 20
0.0
 30
0.0
 11
4.0
 21
0.0
 31
0.0
  0
LINE
  5
2A4
330
29D
100
AcDbEntity
  8
0
  6
Continuous
 62
     0
370
    18
100
AcDbLine
 10
0.0
 20
8.0
 30
0.0
 11
0.0
 21
55.1537659147
 31
0.0
  0
LINE
  5
2A5
330
29D
100
AcDbEntity
  8
0
  6
Continuous
 62
     0
370
    18
100
AcDbLine
 10
-8.0
 20
0.0
 30
0.0
 11
-53.2705314187
 21
0.0
 31
0.0
  0
LINE
  5
2A6
330
29D
100
AcDbEntity
  8
0
  6
Continuous
 62
     0
370
    18
100
AcDbLine
 10
0.0
 20
-8.0
 30
0.0
 11
0.0
 21
-53.722446007
 31
0.0
  0
LINE
  5
2A7
330
29D
100
AcDbEntity
  8
0
  6
Continuous
 62
     0
370
    18
100
AcDbLine
 10
8.0
 20
0.0
 30
0.0
 11
52.7242684673
 21
0.0
 31
0.0
  0
ENDBLK
  5
29F
330
29D
100
AcDbEntity
  8
0
100
AcDbBlockEnd
  0
BLOCK
  5
2AA
330
2A9
100
AcDbEntity
  8
0
100
AcDbBlockBegin
  2
SW_CENTERMARKSYMBOL_3
 70
     0
 10
0.0
 20
0.0
 30
0.0
  3
SW_CENTERMARKSYMBOL_3
  1

  0
ARC
  5
2AC
330
2A9
100
AcDbEntity
  8
0
  6
Continuous
 62
     0
370
     0
100
AcDbCircle
 10
-35.0017856687
 20
-35.0017856687
 30
0.0
 40
49.49999999999998
100
AcDbArc
 50
45.0
 51
46.7362357428
  0
ARC
  5
2AD
330
2A9
100
AcDbEntity
  8
0
  6
Continuous
 62
     0
370
     0
100
AcDbCircle
 10
-35.0017856687
 20
-35.0017856687
 30
0.0
 40
49.49999999999999
100
AcDbArc
 50
43.2637642572
 51
45.0
  0
ARC
  5
2AE
330
2A9
100
AcDbEntity
  8
0
  6
Continuous
 62
     0
370
     0
100
AcDbCircle
 10
-35.0017856687
 20
-35.0017856687
 30
0.0
 40
49.50000000000004
100
AcDbArc
 50
135.0
 51
136.7362357428
  0
ARC
  5
2AF
330
2A9
100
AcDbEntity
  8
0
  6
Continuous
 62
     0
370
     0
100
AcDbCircle
 10
-35.0017856687
 20
-35.0017856687
 30
0.0
 40
49.50000000000002
100
AcDbArc
 50
133.2637642572
 51
135.0
  0
ARC
  5
2B0
330
2A9
100
AcDbEntity
  8
0
  6
Continuous
 62
     0
370
     0
100
AcDbCircle
 10
-35.0017856687
 20
-35.0017856687
 30
0.0
 40
49.50000000000004
100
AcDbArc
 50
225.0
 51
226.7362357428
  0
ARC
  5
2B1
330
2A9
100
AcDbEntity
  8
0
  6
Continuous
 62
     0
370
     0
100
AcDbCircle
 10
-35.0017856687
 20
-35.0017856687
 30
0.0
 40
49.50000000000004
100
AcDbArc
 50
223.2637642572
 51
225.0
  0
ARC
  5
2B2
330
2A9
100
AcDbEntity
  8
0
  6
Continuous
 62
     0
370
     0
100
AcDbCircle
 10
-35.0017856687
 20
-35.0017856687
 30
0.0
 40
49.49999999999999
100
AcDbArc
 50
315.0
 51
316.7362357428
  0
ARC
  5
2B3
330
2A9
100
AcDbEntity
  8
0
  6
Continuous
 62
     0
370
     0
100
AcDbCircle
 10
-35.0017856687
 20
-35.0017856687
 30
0.0
 40
49.5
100
AcDbArc
 50
313.2637642572
 51
315.0
  0
ARC
  5
2B4
330
2A9
100
AcDbEntity
  8
0
  6
CENTERX2
 62
     0
370
     0
100
AcDbCircle
 10
-35.0017856687
 20
-35.0017856687
 30
0.0
 40
49.50000000000006
100
AcDbArc
 50
48.4724714856
 51
131.5275285144
  0
ARC
  5
2B5
330
2A9
100
AcDbEntity
  8
0
  6
CENTERX2
 62
     0
370
     0
100
AcDbCircle
 10
-35.0017856687
 20
-35.0017856687
 30
0.0
 40
49.50000000000006
100
AcDbArc
 50
138.4724714856
 51
221.5275285144
  0
ARC
  5
2B6
330
2A9
100
AcDbEntity
  8
0
  6
CENTERX2
 62
     0
370
     0
100
AcDbCircle
 10
-35.0017856687
 20
-35.0017856687
 30
0.0
 40
49.50000000000004
100
AcDbArc
 50
228.4724714856
 51
311.5275285144
  0
ARC
  5
2B7
330
2A9
100
AcDbEntity
  8
0
  6
CENTERX2
 62
     0
370
     0
100
AcDbCircle
 10
-35.0017856687
 20
-35.0017856687
 30
0.0
 40
49.50000000000002
100
AcDbArc
 50
318.4724714856
 51
41.5275285144
  0
LINE
  5
2B8
330
2A9
100
AcDbEntity
  8
0
  6
Continuous
 62
     0
370
    18
100
AcDbLine
 10
0.0
 20
0.0
 30
0.0
 11
1.0606601718
 21
1.0606601718
 31
0.0
  0
LINE
  5
2B9
330
2A9
100
AcDbEntity
  8
0
  6
Continuous
 62
     0
370
    18
100
AcDbLine
 10
0.0
 20
0.0
 30
0.0
 11
-1.0606601718
 21
-1.0606601718
 31
0.0
  0
LINE
  5
2BA
330
2A9
100
AcDbEntity
  8
0
  6
Continuous
 62
     0
370
    18
100
AcDbLine
 10
2.1213203436
 20
2.1213203436
 30
0.0
 11
2.8284271247
 21
2.8284271247
 31
0.0
  0
LINE
  5
2BB
330
2A9
100
AcDbEntity
  8
0
  6
Continuous
 62
     0
370
    18
100
AcDbLine
 10
-2.1213203436
 20
-2.1213203436
 30
0.0
 11
-2.8284271247
 21
-2.8284271247
 31
0.0
  0
LINE
  5
2BC
330
2A9
100
AcDbEntity
  8
0
  6
Continuous
 62
     0
370
    18
100
AcDbLine
 10
-70.0035713375
 20
0.0
 30
0.0
 11
-71.0642315092
 21
1.0606601718
 31
0.0
  0
LINE
  5
2BD
330
2A9
100
AcDbEntity
  8
0
  6
Continuous
 62
     0
370
    18
100
AcDbLine
 10
-70.0035713375
 20
0.0
 30
0.0
 11
-68.9429111657
 21
-1.0606601718
 31
0.0
  0
LINE
  5
2BE
330
2A9
100
AcDbEntity
  8
0
  6
Continuous
 62
     0
370
    18
100
AcDbLine
 10
-72.124891681
 20
2.1213203436
 30
0.0
 11
-72.8319984622
 21
2.8284271247
 31
0.0
  0
LINE
  5
2BF
330
2A9
100
AcDbEntity
  8
0
  6
Continuous
 62
     0
370
    18
100
AcDbLine
 10
-67.8822509939
 20
-2.1213203436
 30
0.0
 11
-67.1751442127
 21
-2.8284271247
 31
0.0
  0
LINE
  5
2C0
330
2A9
100
AcDbEntity
  8
0
  6
Continuous
 62
     0
370
    18
100
AcDbLine
 10
-70.0035713375
 20
-70.0035713375
 30
0.0
 11
-71.0642315092
 21
-71.0642315092
 31
0.0
  0
LINE
  5
2C1
330
2A9
100
AcDbEntity
  8
0
  6
Continuous
 62
     0
370
    18
100
AcDbLine
 10
-70.0035713375
 20
-70.0035713375
 30
0.0
 11
-68.9429111657
 21
-68.9429111657
 31
0.0
  0
LINE
  5
2C2
330
2A9
100
AcDbEntity
  8
0
  6
Continuous
 62
     0
370
    18
100
AcDbLine
 10
-72.124891681
 20
-72.124891681
 30
0.0
 11
-72.8319984622
 21
-72.8319984622
 31
0.0
  0
LINE
  5
2C3
330
2A9
100
AcDbEntity
  8
0
  6
Continuous
 62
     0
370
    18
100
AcDbLine
 10
-67.8822509939
 20
-67.8822509939
 30
0.0
 11
-67.1751442127
 21
-67.1751442127
 31
0.0
  0
LINE
  5
2C4
330
2A9
100
AcDbEntity
  8
0
  6
Continuous
 62
     0
370
    18
100
AcDbLine
 10
0.0
 20
-70.0035713375
 30
0.0
 11
1.0606601718
 21
-71.0642315092
 31
0.0
  0
LINE
  5
2C5
330
2A9
100
AcDbEntity
  8
0
  6
Continuous
 62
     0
370
    18
100
AcDbLine
 10
0.0
 20
-70.0035713375
 30
0.0
 11
-1.0606601718
 21
-68.9429111657
 31
0.0
  0
LINE
  5
2C6
330
2A9
100
AcDbEntity
  8
0
  6
Continuous
 62
     0
370
    18
100
AcDbLine
 10
2.1213203436
 20
-72.124891681
 30
0.0
 11
2.8284271247
 21
-72.8319984622
 31
0.0
  0
LINE
  5
2C7
330
2A9
100
AcDbEntity
  8
0
  6
Continuous
 62
     0
370
    18
100
AcDbLine
 10
-2.1213203436
 20
-67.8822509939
 30
0.0
 11
-2.8284271247
 21
-67.1751442127
 31
0.0
  0
ENDBLK
  5
2AB
330
2A9
100
AcDbEntity
  8
0
100
AcDbBlockEnd
  0
BLOCK
  5
2CA
330
2C9
100
AcDbEntity
  8
0
100
AcDbBlockBegin
  2
SW_CENTERMARKSYMBOL_4
 70
     0
 10
0.0
 20
0.0
 30
0.0
  3
SW_CENTERMARKSYMBOL_4
  1

  0
ARC
  5
2CC
330
2C9
100
AcDbEntity
  8
0
  6
Continuous
 62
     0
370
     0
100
AcDbCircle
 10
-35.7973744641
 20
-17.8479125244
 30
0.0
 40
40.00000000000002
100
AcDbArc
 50
26.5
 51
27.9323944878
  0
ARC
  5
2CD
330
2C9
100
AcDbEntity
  8
0
  6
Continuous
 62
     0
370
     0
100
AcDbCircle
 10
-35.7973744641
 20
-17.8479125244
 30
0.0
 40
39.99999999999999
100
AcDbArc
 50
25.0676055122
 51
26.5
  0
ARC
  5
2CE
330
2C9
100
AcDbEntity
  8
0
  6
Continuous
 62
     0
370
     0
100
AcDbCircle
 10
-35.7973744641
 20
-17.8479125244
 30
0.0
 40
40.0
100
AcDbArc
 50
29.3647889757
 51
33.6619724391
  0
ARC
  5
2CF
330
2C9
100
AcDbEntity
  8
0
  6
Continuous
 62
     0
370
     0
100
AcDbCircle
 10
-35.7973744641
 20
-17.8479125244
 30
0.0
 40
39.99999999999999
100
AcDbArc
 50
19.3380275609
 51
23.6352110243
  0
ARC
  5
2D0
330
2C9
100
AcDbEntity
  8
0
  6
Continuous
 62
     0
370
     0
100
AcDbCircle
 10
-35.7973744641
 20
-17.8479125244
 30
0.0
 40
40.00000000000001
100
AcDbArc
 50
116.5
 51
117.9323944878
  0
ARC
  5
2D1
330
2C9
100
AcDbEntity
  8
0
  6
Continuous
 62
     0
370
     0
100
AcDbCircle
 10
-35.7973744641
 20
-17.8479125244
 30
0.0
 40
40.00000000000002
100
AcDbArc
 50
115.0676055122
 51
116.5
  0
ARC
  5
2D2
330
2C9
100
AcDbEntity
  8
0
  6
Continuous
 62
     0
370
     0
100
AcDbCircle
 10
-35.7973744641
 20
-17.8479125244
 30
0.0
 40
40.00000000000004
100
AcDbArc
 50
119.3647889757
 51
123.6619724391
  0
ARC
  5
2D3
330
2C9
100
AcDbEntity
  8
0
  6
Continuous
 62
     0
370
     0
100
AcDbCircle
 10
-35.7973744641
 20
-17.8479125244
 30
0.0
 40
40.00000000000002
100
AcDbArc
 50
109.3380275609
 51
113.6352110243
  0
ARC
  5
2D4
330
2C9
100
AcDbEntity
  8
0
  6
Continuous
 62
     0
370
     0
100
AcDbCircle
 10
-35.7973744641
 20
-17.8479125244
 30
0.0
 40
40.00000000000007
100
AcDbArc
 50
206.5
 51
207.9323944878
  0
ARC
  5
2D5
330
2C9
100
AcDbEntity
  8
0
  6
Continuous
 62
     0
370
     0
100
AcDbCircle
 10
-35.7973744641
 20
-17.8479125244
 30
0.0
 40
40.00000000000004
100
AcDbArc
 50
205.0676055122
 51
206.5
  0
ARC
  5
2D6
330
2C9
100
AcDbEntity
  8
0
  6
Continuous
 62
     0
370
     0
100
AcDbCircle
 10
-35.7973744641
 20
-17.8479125244
 30
0.0
 40
40.00000000000008
100
AcDbArc
 50
209.3647889757
 51
213.6619724391
  0
ARC
  5
2D7
330
2C9
100
AcDbEntity
  8
0
  6
Continuous
 62
     0
370
     0
100
AcDbCircle
 10
-35.7973744641
 20
-17.8479125244
 30
0.0
 40
40.00000000000001
100
AcDbArc
 50
199.3380275609
 51
203.6352110243
  0
ARC
  5
2D8
330
2C9
100
AcDbEntity
  8
0
  6
Continuous
 62
     0
370
     0
100
AcDbCircle
 10
-35.7973744641
 20
-17.8479125244
 30
0.0
 40
40.00000000000002
100
AcDbArc
 50
296.5
 51
297.9323944878
  0
ARC
  5
2D9
330
2C9
100
AcDbEntity
  8
0
  6
Continuous
 62
     0
370
     0
100
AcDbCircle
 10
-35.7973744641
 20
-17.8479125244
 30
0.0
 40
40.00000000000002
100
AcDbArc
 50
295.0676055122
 51
296.5
  0
ARC
  5
2DA
330
2C9
100
AcDbEntity
  8
0
  6
Continuous
 62
     0
370
     0
100
AcDbCircle
 10
-35.7973744641
 20
-17.8479125244
 30
0.0
 40
40.00000000000002
100
AcDbArc
 50
299.3647889757
 51
303.6619724391
  0
ARC
  5
2DB
330
2C9
100
AcDbEntity
  8
0
  6
Continuous
 62
     0
370
     0
100
AcDbCircle
 10
-35.7973744641
 20
-17.8479125244
 30
0.0
 40
40.00000000000001
100
AcDbArc
 50
289.3380275609
 51
293.6352110243
  0
LINE
  5
2DC
330
2C9
100
AcDbEntity
  8
0
  6
Continuous
 62
     0
370
    18
100
AcDbLine
 10
0.0
 20
0.0
 30
0.0
 11
0.8949343616
 21
0.4461978131
 31
0.0
  0
LINE
  5
2DD
330
2C9
100
AcDbEntity
  8
0
  6
Continuous
 62
     0
370
    18
100
AcDbLine
 10
0.0
 20
0.0
 30
0.0
 11
-0.8949343616
 21
-0.4461978131
 31
0.0
  0
LINE
  5
2DE
330
2C9
100
AcDbEntity
  8
0
  6
Continuous
 62
     0
370
    18
100
AcDbLine
 10
1.7898687232
 20
0.8923956262
 30
0.0
 11
4.474671808
 21
2.2309890655
 31
0.0
  0
LINE
  5
2DF
330
2C9
100
AcDbEntity
  8
0
  6
Continuous
 62
     0
370
    18
100
AcDbLine
 10
-1.7898687232
 20
-0.8923956262
 30
0.0
 11
-4.474671808
 21
-2.2309890655
 31
0.0
  0
LINE
  5
2E0
330
2C9
100
AcDbEntity
  8
0
  6
Continuous
 62
     0
370
    18
100
AcDbLine
 10
-35.7973744641
 20
-17.8479125244
 30
0.0
 11
-35.7973744641
 21
-16.8479125244
 31
0.0
  0
LINE
  5
2E1
330
2C9
100
AcDbEntity
  8
0
  6
Continuous
 62
     0
370
    18
100
AcDbLine
 10
-35.7973744641
 20
-17.8479125244
 30
0.0
 11
-36.7973744641
 21
-17.8479125244
 31
0.0
  0
LINE
  5
2E2
330
2C9
100
AcDbEntity
  8
0
  6
Continuous
 62
     0
370
    18
100
AcDbLine
 10
-35.7973744641
 20
-17.8479125244
 30
0.0
 11
-35.7973744641
 21
-18.8479125244
 31
0.0
  0
LINE
  5
2E3
330
2C9
100
AcDbEntity
  8
0
  6
Continuous
 62
     0
370
    18
100
AcDbLine
 10
-35.7973744641
 20
-17.8479125244
 30
0.0
 11
-34.7973744641
 21
-17.8479125244
 31
0.0
  0
LINE
  5
2E4
330
2C9
100
AcDbEntity
  8
0
  6
Continuous
 62
     0
370
    18
100
AcDbLine
 10
-35.7973744641
 20
-15.8479125244
 30
0.0
 11
-35.7973744641
 21
26.1520874756
 31
0.0
  0
LINE
  5
2E5
330
2C9
100
AcDbEntity
  8
0
  6
Continuous
 62
     0
370
    18
100
AcDbLine
 10
-37.7973744641
 20
-17.8479125244
 30
0.0
 11
-79.7973744641
 21
-17.8479125244
 31
0.0
  0
LINE
  5
2E6
330
2C9
100
AcDbEntity
  8
0
  6
Continuous
 62
     0
370
    18
100
AcDbLine
 10
-35.7973744641
 20
-19.8479125244
 30
0.0
 11
-35.7973744641
 21
-61.8479125244
 31
0.0
  0
LINE
  5
2E7
330
2C9
100
AcDbEntity
  8
0
  6
Continuous
 62
     0
370
    18
100
AcDbLine
 10
-33.7973744641
 20
-17.8479125244
 30
0.0
 11
8.2026255359
 21
-17.8479125244
 31
0.0
  0
LINE
  5
2E8
330
2C9
100
AcDbEntity
  8
0
  6
Continuous
 62
     0
370
    18
100
AcDbLine
 10
-53.6452869885
 20
17.9494619397
 30
0.0
 11
-54.0914848016
 21
18.8443963013
 31
0.0
  0
LINE
  5
2E9
330
2C9
100
AcDbEntity
  8
0
  6
Continuous
 62
     0
370
    18
100
AcDbLine
 10
-53.6452869885
 20
17.9494619397
 30
0.0
 11
-53.1990891754
 21
17.0545275781
 31
0.0
  0
LINE
  5
2EA
330
2C9
100
AcDbEntity
  8
0
  6
Continuous
 62
     0
370
    18
100
AcDbLine
 10
-54.5376826147
 20
19.7393306629
 30
0.0
 11
-55.876276054
 21
22.4241337477
 31
0.0
  0
LINE
  5
2EB
330
2C9
100
AcDbEntity
  8
0
  6
Continuous
 62
     0
370
    18
100
AcDbLine
 10
-52.7528913623
 20
16.1595932165
 30
0.0
 11
-51.4142979229
 21
13.4747901317
 31
0.0
  0
LINE
  5
2EC
330
2C9
100
AcDbEntity
  8
0
  6
Continuous
 62
     0
370
    18
100
AcDbLine
 10
-71.5947489282
 20
-35.6958250488
 30
0.0
 11
-72.4896832898
 21
-36.1420228619
 31
0.0
  0
LINE
  5
2ED
330
2C9
100
AcDbEntity
  8
0
  6
Continuous
 62
     0
370
    18
100
AcDbLine
 10
-71.5947489282
 20
-35.6958250488
 30
0.0
 11
-70.6998145666
 21
-35.2496272357
 31
0.0
  0
LINE
  5
2EE
330
2C9
100
AcDbEntity
  8
0
  6
Continuous
 62
     0
370
    18
100
AcDbLine
 10
-73.3846176514
 20
-36.588220675
 30
0.0
 11
-76.0694207362
 21
-37.9268141143
 31
0.0
  0
LINE
  5
2EF
330
2C9
100
AcDbEntity
  8
0
  6
Continuous
 62
     0
370
    18
100
AcDbLine
 10
-69.804880205
 20
-34.8034294226
 30
0.0
 11
-67.1200771202
 21
-33.4648359832
 31
0.0
  0
LINE
  5
2F0
330
2C9
100
AcDbEntity
  8
0
  6
Continuous
 62
     0
370
    18
100
AcDbLine
 10
-17.9494619397
 20
-53.6452869885
 30
0.0
 11
-17.5032641266
 21
-54.5402213501
 31
0.0
  0
LINE
  5
2F1
330
2C9
100
AcDbEntity
  8
0
  6
Continuous
 62
     0
370
    18
100
AcDbLine
 10
-17.9494619397
 20
-53.6452869885
 30
0.0
 11
-18.3956597528
 21
-52.7503526269
 31
0.0
  0
LINE
  5
2F2
330
2C9
100
AcDbEntity
  8
0
  6
Continuous
 62
     0
370
    18
100
AcDbLine
 10
-17.0570663135
 20
-55.4351557117
 30
0.0
 11
-15.7184728741
 21
-58.1199587965
 31
0.0
  0
LINE
  5
2F3
330
2C9
100
AcDbEntity
  8
0
  6
Continuous
 62
     0
370
    18
100
AcDbLine
 10
-18.8418575659
 20
-51.8554182653
 30
0.0
 11
-20.1804510052
 21
-49.1706151805
 31
0.0
  0
ENDBLK
  5
2CB
330
2C9
100
AcDbEntity
  8
0
100
AcDbBlockEnd
  0
BLOCK
  5
2F6
330
2F5
100
AcDbEntity
  8
0
100
AcDbBlockBegin
  2
SW_CENTERMARKSYMBOL_5
 70
     0
 10
0.0
 20
0.0
 30
0.0
  3
SW_CENTERMARKSYMBOL_5
  1

  0
ARC
  5
2F8
330
2F5
100
AcDbEntity
  8
0
  6
Continuous
 62
     0
370
     0
100
AcDbCircle
 10
-17.8479125244
 20
-35.7973744641
 30
0.0
 40
40.00000000000001
100
AcDbArc
 50
63.5
 51
64.9323944878
  0
ARC
  5
2F9
330
2F5
100
AcDbEntity
  8
0
  6
Continuous
 62
     0
370
     0
100
AcDbCircle
 10
-17.8479125244
 20
-35.7973744641
 30
0.0
 40
40.0
100
AcDbArc
 50
62.0676055122
 51
63.5
  0
ARC
  5
2FA
330
2F5
100
AcDbEntity
  8
0
  6
Continuous
 62
     0
370
     0
100
AcDbCircle
 10
-17.8479125244
 20
-35.7973744641
 30
0.0
 40
40.0
100
AcDbArc
 50
66.3647889757
 51
70.6619724391
  0
ARC
  5
2FB
330
2F5
100
AcDbEntity
  8
0
  6
Continuous
 62
     0
370
     0
100
AcDbCircle
 10
-17.8479125244
 20
-35.7973744641
 30
0.0
 40
40.0
100
AcDbArc
 50
56.3380275609
 51
60.6352110243
  0
ARC
  5
2FC
330
2F5
100
AcDbEntity
  8
0
  6
Continuous
 62
     0
370
     0
100
AcDbCircle
 10
-17.8479125244
 20
-35.7973744641
 30
0.0
 40
40.00000000000007
100
AcDbArc
 50
153.5
 51
154.9323944878
  0
ARC
  5
2FD
330
2F5
100
AcDbEntity
  8
0
  6
Continuous
 62
     0
370
     0
100
AcDbCircle
 10
-17.8479125244
 20
-35.7973744641
 30
0.0
 40
40.00000000000006
100
AcDbArc
 50
152.0676055122
 51
153.5
  0
ARC
  5
2FE
330
2F5
100
AcDbEntity
  8
0
  6
Continuous
 62
     0
370
     0
100
AcDbCircle
 10
-17.8479125244
 20
-35.7973744641
 30
0.0
 40
40.00000000000005
100
AcDbArc
 50
156.3647889757
 51
160.6619724391
  0
ARC
  5
2FF
330
2F5
100
AcDbEntity
  8
0
  6
Continuous
 62
     0
370
     0
100
AcDbCircle
 10
-17.8479125244
 20
-35.7973744641
 30
0.0
 40
40.00000000000006
100
AcDbArc
 50
146.3380275609
 51
150.6352110243
  0
ARC
  5
300
330
2F5
100
AcDbEntity
  8
0
  6
Continuous
 62
     0
370
     0
100
AcDbCircle
 10
-17.8479125244
 20
-35.7973744641
 30
0.0
 40
40.00000000000004
100
AcDbArc
 50
243.5
 51
244.9323944878
  0
ARC
  5
301
330
2F5
100
AcDbEntity
  8
0
  6
Continuous
 62
     0
370
     0
100
AcDbCircle
 10
-17.8479125244
 20
-35.7973744641
 30
0.0
 40
40.00000000000002
100
AcDbArc
 50
242.0676055122
 51
243.5
  0
ARC
  5
302
330
2F5
100
AcDbEntity
  8
0
  6
Continuous
 62
     0
370
     0
100
AcDbCircle
 10
-17.8479125244
 20
-35.7973744641
 30
0.0
 40
40.00000000000006
100
AcDbArc
 50
246.3647889757
 51
250.6619724391
  0
ARC
  5
303
330
2F5
100
AcDbEntity
  8
0
  6
Continuous
 62
     0
370
     0
100
AcDbCircle
 10
-17.8479125244
 20
-35.7973744641
 30
0.0
 40
40.00000000000004
100
AcDbArc
 50
236.3380275609
 51
240.6352110243
  0
ARC
  5
304
330
2F5
100
AcDbEntity
  8
0
  6
Continuous
 62
     0
370
     0
100
AcDbCircle
 10
-17.8479125244
 20
-35.7973744641
 30
0.0
 40
40.00000000000001
100
AcDbArc
 50
333.5
 51
334.9323944878
  0
ARC
  5
305
330
2F5
100
AcDbEntity
  8
0
  6
Continuous
 62
     0
370
     0
100
AcDbCircle
 10
-17.8479125244
 20
-35.7973744641
 30
0.0
 40
40.00000000000001
100
AcDbArc
 50
332.0676055122
 51
333.5
  0
ARC
  5
306
330
2F5
100
AcDbEntity
  8
0
  6
Continuous
 62
     0
370
     0
100
AcDbCircle
 10
-17.8479125244
 20
-35.7973744641
 30
0.0
 40
39.99999999999996
100
AcDbArc
 50
336.3647889757
 51
340.6619724391
  0
ARC
  5
307
330
2F5
100
AcDbEntity
  8
0
  6
Continuous
 62
     0
370
     0
100
AcDbCircle
 10
-17.8479125244
 20
-35.7973744641
 30
0.0
 40
40.00000000000001
100
AcDbArc
 50
326.3380275609
 51
330.6352110243
  0
LINE
  5
308
330
2F5
100
AcDbEntity
  8
0
  6
Continuous
 62
     0
370
    18
100
AcDbLine
 10
0.0
 20
0.0
 30
0.0
 11
0.4461978131
 21
0.8949343616
 31
0.0
  0
LINE
  5
309
330
2F5
100
AcDbEntity
  8
0
  6
Continuous
 62
     0
370
    18
100
AcDbLine
 10
0.0
 20
0.0
 30
0.0
 11
-0.4461978131
 21
-0.8949343616
 31
0.0
  0
LINE
  5
30A
330
2F5
100
AcDbEntity
  8
0
  6
Continuous
 62
     0
370
    18
100
AcDbLine
 10
0.8923956262
 20
1.7898687232
 30
0.0
 11
2.2309890655
 21
4.474671808
 31
0.0
  0
LINE
  5
30B
330
2F5
100
AcDbEntity
  8
0
  6
Continuous
 62
     0
370
    18
100
AcDbLine
 10
-0.8923956262
 20
-1.7898687232
 30
0.0
 11
-2.2309890655
 21
-4.474671808
 31
0.0
  0
LINE
  5
30C
330
2F5
100
AcDbEntity
  8
0
  6
Continuous
 62
     0
370
    18
100
AcDbLine
 10
-53.6452869885
 20
-17.9494619397
 30
0.0
 11
-54.5402213501
 21
-17.5032641266
 31
0.0
  0
LINE
  5
30D
330
2F5
100
AcDbEntity
  8
0
  6
Continuous
 62
     0
370
    18
100
AcDbLine
 10
-53.6452869885
 20
-17.9494619397
 30
0.0
 11
-52.7503526269
 21
-18.3956597528
 31
0.0
  0
LINE
  5
30E
330
2F5
100
AcDbEntity
  8
0
  6
Continuous
 62
     0
370
    18
100
AcDbLine
 10
-55.4351557117
 20
-17.0570663135
 30
0.0
 11
-58.1199587965
 21
-15.7184728741
 31
0.0
  0
LINE
  5
30F
330
2F5
100
AcDbEntity
  8
0
  6
Continuous
 62
     0
370
    18
100
AcDbLine
 10
-51.8554182653
 20
-18.8418575659
 30
0.0
 11
-49.1706151805
 21
-20.1804510052
 31
0.0
  0
LINE
  5
310
330
2F5
100
AcDbEntity
  8
0
  6
Continuous
 62
     0
370
    18
100
AcDbLine
 10
-35.6958250488
 20
-71.5947489282
 30
0.0
 11
-36.1420228619
 21
-72.4896832898
 31
0.0
  0
LINE
  5
311
330
2F5
100
AcDbEntity
  8
0
  6
Continuous
 62
     0
370
    18
100
AcDbLine
 10
-35.6958250488
 20
-71.5947489282
 30
0.0
 11
-35.2496272357
 21
-70.6998145666
 31
0.0
  0
LINE
  5
312
330
2F5
100
AcDbEntity
  8
0
  6
Continuous
 62
     0
370
    18
100
AcDbLine
 10
-36.588220675
 20
-73.3846176514
 30
0.0
 11
-37.9268141143
 21
-76.0694207362
 31
0.0
  0
LINE
  5
313
330
2F5
100
AcDbEntity
  8
0
  6
Continuous
 62
     0
370
    18
100
AcDbLine
 10
-34.8034294226
 20
-69.804880205
 30
0.0
 11
-33.4648359832
 21
-67.1200771202
 31
0.0
  0
LINE
  5
314
330
2F5
100
AcDbEntity
  8
0
  6
Continuous
 62
     0
370
    18
100
AcDbLine
 10
17.9494619397
 20
-53.6452869885
 30
0.0
 11
18.8443963013
 21
-54.0914848016
 31
0.0
  0
LINE
  5
315
330
2F5
100
AcDbEntity
  8
0
  6
Continuous
 62
     0
370
    18
100
AcDbLine
 10
17.9494619397
 20
-53.6452869885
 30
0.0
 11
17.0545275781
 21
-53.1990891754
 31
0.0
  0
LINE
  5
316
330
2F5
100
AcDbEntity
  8
0
  6
Continuous
 62
     0
370
    18
100
AcDbLine
 10
19.7393306629
 20
-54.5376826147
 30
0.0
 11
22.4241337477
 21
-55.876276054
 31
0.0
  0
LINE
  5
317
330
2F5
100
AcDbEntity
  8
0
  6
Continuous
 62
     0
370
    18
100
AcDbLine
 10
16.1595932165
 20
-52.7528913623
 30
0.0
 11
13.4747901317
 21
-51.4142979229
 31
0.0
  0
ENDBLK
  5
2F7
330
2F5
100
AcDbEntity
  8
0
100
AcDbBlockEnd
  0
BLOCK
  5
31A
330
319
100
AcDbEntity
  8
0
100
AcDbBlockBegin
  2
SW_CENTERMARKSYMBOL_6
 70
     0
 10
0.0
 20
0.0
 30
0.0
  3
SW_CENTERMARKSYMBOL_6
  1

  0
LINE
  5
31C
330
319
100
AcDbEntity
  8
0
  6
Continuous
 62
     0
370
    18
100
AcDbLine
 10
0.0
 20
0.0
 30
0.0
 11
0.0
 21
1.5
 31
0.0
  0
LINE
  5
31D
330
319
100
AcDbEntity
  8
0
  6
Continuous
 62
     0
370
    18
100
AcDbLine
 10
0.0
 20
0.0
 30
0.0
 11
-1.5
 21
0.0
 31
0.0
  0
LINE
  5
31E
330
319
100
AcDbEntity
  8
0
  6
Continuous
 62
     0
370
    18
100
AcDbLine
 10
0.0
 20
0.0
 30
0.0
 11
0.0
 21
-1.5
 31
0.0
  0
LINE
  5
31F
330
319
100
AcDbEntity
  8
0
  6
Continuous
 62
     0
370
    18
100
AcDbLine
 10
0.0
 20
0.0
 30
0.0
 11
1.5
 21
0.0
 31
0.0
  0
LINE
  5
320
330
319
100
AcDbEntity
  8
0
  6
Continuous
 62
     0
370
    18
100
AcDbLine
 10
0.0
 20
3.0
 30
0.0
 11
0.0
 21
4.0
 31
0.0
  0
LINE
  5
321
330
319
100
AcDbEntity
  8
0
  6
Continuous
 62
     0
370
    18
100
AcDbLine
 10
-3.0
 20
0.0
 30
0.0
 11
-4.0
 21
0.0
 31
0.0
  0
LINE
  5
322
330
319
100
AcDbEntity
  8
0
  6
Continuous
 62
     0
370
    18
100
AcDbLine
 10
0.0
 20
-70.0035713375
 30
0.0
 11
0.0
 21
-68.5035713375
 31
0.0
  0
LINE
  5
323
330
319
100
AcDbEntity
  8
0
  6
Continuous
 62
     0
370
    18
100
AcDbLine
 10
0.0
 20
-70.0035713375
 30
0.0
 11
-1.5
 21
-70.0035713375
 31
0.0
  0
LINE
  5
324
330
319
100
AcDbEntity
  8
0
  6
Continuous
 62
     0
370
    18
100
AcDbLine
 10
0.0
 20
-70.0035713375
 30
0.0
 11
0.0
 21
-71.5035713375
 31
0.0
  0
LINE
  5
325
330
319
100
AcDbEntity
  8
0
  6
Continuous
 62
     0
370
    18
100
AcDbLine
 10
0.0
 20
-70.0035713375
 30
0.0
 11
1.5
 21
-70.0035713375
 31
0.0
  0
LINE
  5
326
330
319
100
AcDbEntity
  8
0
  6
Continuous
 62
     0
370
    18
100
AcDbLine
 10
-3.0
 20
-70.0035713375
 30
0.0
 11
-4.0
 21
-70.0035713375
 31
0.0
  0
LINE
  5
327
330
319
100
AcDbEntity
  8
0
  6
Continuous
 62
     0
370
    18
100
AcDbLine
 10
0.0
 20
-73.0035713375
 30
0.0
 11
0.0
 21
-74.0035713375
 31
0.0
  0
LINE
  5
328
330
319
100
AcDbEntity
  8
0
  6
Continuous
 62
     0
370
    18
100
AcDbLine
 10
70.0035713375
 20
-70.0035713375
 30
0.0
 11
70.0035713375
 21
-68.5035713375
 31
0.0
  0
LINE
  5
329
330
319
100
AcDbEntity
  8
0
  6
Continuous
 62
     0
370
    18
100
AcDbLine
 10
70.0035713375
 20
-70.0035713375
 30
0.0
 11
68.5035713375
 21
-70.0035713375
 31
0.0
  0
LINE
  5
32A
330
319
100
AcDbEntity
  8
0
  6
Continuous
 62
     0
370
    18
100
AcDbLine
 10
70.0035713375
 20
-70.0035713375
 30
0.0
 11
70.0035713375
 21
-71.5035713375
 31
0.0
  0
LINE
  5
32B
330
319
100
AcDbEntity
  8
0
  6
Continuous
 62
     0
370
    18
100
AcDbLine
 10
70.0035713375
 20
-70.0035713375
 30
0.0
 11
71.5035713375
 21
-70.0035713375
 31
0.0
  0
LINE
  5
32C
330
319
100
AcDbEntity
  8
0
  6
Continuous
 62
     0
370
    18
100
AcDbLine
 10
70.0035713375
 20
-73.0035713375
 30
0.0
 11
70.0035713375
 21
-74.0035713375
 31
0.0
  0
LINE
  5
32D
330
319
100
AcDbEntity
  8
0
  6
Continuous
 62
     0
370
    18
100
AcDbLine
 10
73.0035713375
 20
-70.0035713375
 30
0.0
 11
74.0035713375
 21
-70.0035713375
 31
0.0
  0
LINE
  5
32E
330
319
100
AcDbEntity
  8
0
  6
Continuous
 62
     0
370
    18
100
AcDbLine
 10
70.0035713375
 20
0.0
 30
0.0
 11
70.0035713375
 21
1.5
 31
0.0
  0
LINE
  5
32F
330
319
100
AcDbEntity
  8
0
  6
Continuous
 62
     0
370
    18
100
AcDbLine
 10
70.0035713375
 20
0.0
 30
0.0
 11
68.5035713375
 21
0.0
 31
0.0
  0
LINE
  5
330
330
319
100
AcDbEntity
  8
0
  6
Continuous
 62
     0
370
    18
100
AcDbLine
 10
70.0035713375
 20
0.0
 30
0.0
 11
70.0035713375
 21
-1.5
 31
0.0
  0
LINE
  5
331
330
319
100
AcDbEntity
  8
0
  6
Continuous
 62
     0
370
    18
100
AcDbLine
 10
70.0035713375
 20
0.0
 30
0.0
 11
71.5035713375
 21
0.0
 31
0.0
  0
LINE
  5
332
330
319
100
AcDbEntity
  8
0
  6
Continuous
 62
     0
370
    18
100
AcDbLine
 10
70.0035713375
 20
3.0
 30
0.0
 11
70.0035713375
 21
4.0
 31
0.0
  0
LINE
  5
333
330
319
100
AcDbEntity
  8
0
  6
Continuous
 62
     0
370
    18
100
AcDbLine
 10
73.0035713375
 20
0.0
 30
0.0
 11
74.0035713375
 21
0.0
 31
0.0
  0
LINE
  5
334
330
319
100
AcDbEntity
  8
0
  6
CENTERX2
 62
     0
370
    18
100
AcDbLine
 10
0.0
 20
-67.0035713375
 30
0.0
 11
0.0
 21
-3.0
 31
0.0
  0
LINE
  5
335
330
319
100
AcDbEntity
  8
0
  6
CENTERX2
 62
     0
370
    18
100
AcDbLine
 10
3.0
 20
-70.0035713375
 30
0.0
 11
67.0035713375
 21
-70.0035713375
 31
0.0
  0
LINE
  5
336
330
319
100
AcDbEntity
  8
0
  6
CENTERX2
 62
     0
370
    18
100
AcDbLine
 10
3.0
 20
0.0
 30
0.0
 11
67.0035713375
 21
0.0
 31
0.0
  0
LINE
  5
337
330
319
100
AcDbEntity
  8
0
  6
CENTERX2
 62
     0
370
    18
100
AcDbLine
 10
70.0035713375
 20
-67.0035713375
 30
0.0
 11
70.0035713375
 21
-3.0
 31
0.0
  0
ENDBLK
  5
31B
330
319
100
AcDbEntity
  8
0
100
AcDbBlockEnd
  0
BLOCK
  5
35F
330
35E
100
AcDbEntity
  8
0
100
AcDbBlockBegin
  2
SW_HATCH_0
 70
     0
 10
0.0
 20
0.0
 30
0.0
  3
SW_HATCH_0
  1

  0
LINE
  5
361
330
35E
100
AcDbEntity
  8
0
  6
Continuous
 62
     0
370
    18
100
AcDbLine
 10
0.0
 20
0.0
 30
0.0
 11
-3.155387938
 21
-3.1553898007
 31
0.0
  0
LINE
  5
362
330
35E
100
AcDbEntity
  8
0
  6
Continuous
 62
     0
370
    18
100
AcDbLine
 10
-2.6455149055
 20
1.8446110189
 30
0.0
 11
-7.6455175877
 21
-3.1553898007
 31
0.0
  0
LINE
  5
363
330
35E
100
AcDbEntity
  8
0
  6
Continuous
 62
     0
370
    18
100
AcDbLine
 10
0.0
 20
8.9802574366
 30
0.0
 11
-2.1356455982
 21
6.8446118385
 31
0.0
  0
LINE
  5
364
330
35E
100
AcDbEntity
  8
0
  6
Continuous
 62
     0
370
    18
100
AcDbLine
 10
-7.1356445551
 20
1.8446110189
 30
0.0
 11
-12.135643512
 21
-3.1553898007
 31
0.0
  0
LINE
  5
365
330
35E
100
AcDbEntity
  8
0
  6
Continuous
 62
     0
370
    18
100
AcDbLine
 10
0.0
 20
13.4703852236
 30
0.0
 11
-6.6257715225
 21
6.8446118385
 31
0.0
  0
LINE
  5
366
330
35E
100
AcDbEntity
  8
0
  6
Continuous
 62
     0
370
    18
100
AcDbLine
 10
-11.6257742047
 20
1.8446110189
 30
0.0
 11
-16.6257731616
 21
-3.1553898007
 31
0.0
  0
LINE
  5
367
330
35E
100
AcDbEntity
  8
0
  6
Continuous
 62
     0
370
    18
100
AcDbLine
 10
0.0
 20
17.9605130106
 30
0.0
 11
-11.1159011722
 21
6.8446118385
 31
0.0
  0
LINE
  5
368
330
35E
100
AcDbEntity
  8
0
  6
Continuous
 62
     0
370
    18
100
AcDbLine
 10
-16.1159001291
 20
1.8446110189
 30
0.0
 11
-21.1159009486
 21
-3.1553898007
 31
0.0
  0
LINE
  5
369
330
35E
100
AcDbEntity
  8
0
  6
Continuous
 62
     0
370
    18
100
AcDbLine
 10
0.0
 20
22.4506412633
 30
0.0
 11
-15.6060270965
 21
6.8446118385
 31
0.0
  0
LINE
  5
36A
330
35E
100
AcDbEntity
  8
0
  6
Continuous
 62
     0
370
    18
100
AcDbLine
 10
-18.3534715325
 20
4.0971674025
 30
0.0
 11
-24.8030144721
 21
-2.3523736745
 31
0.0
  0
LINE
  5
36B
330
35E
100
AcDbEntity
  8
0
  6
Continuous
 62
     0
370
    18
100
AcDbLine
 10
-3.9182417095
 20
23.0225259438
 30
0.0
 11
-27.0480774343
 21
-0.1073107123
 31
0.0
  0
LINE
  5
36C
330
35E
100
AcDbEntity
  8
0
  6
Continuous
 62
     0
370
    18
100
AcDbLine
 10
-8.4083713591
 20
23.0225259438
 30
0.0
 11
-29.2931422591
 21
2.1377541125
 31
0.0
  0
LINE
  5
36D
330
35E
100
AcDbEntity
  8
0
  6
Continuous
 62
     0
370
    18
100
AcDbLine
 10
-12.8984972835
 20
23.0225259438
 30
0.0
 11
-31.5382052213
 21
4.3828189373
 31
0.0
  0
LINE
  5
36E
330
35E
100
AcDbEntity
  8
0
  6
Continuous
 62
     0
370
    18
100
AcDbLine
 10
-17.3886250705
 20
23.0225259438
 30
0.0
 11
-33.7832700461
 21
6.6278818995
 31
0.0
  0
LINE
  5
36F
330
35E
100
AcDbEntity
  8
0
  6
Continuous
 62
     0
370
    18
100
AcDbLine
 10
-21.8787547201
 20
23.0225259438
 30
0.0
 11
-36.0566694289
 21
8.8446103036
 31
0.0
  0
LINE
  5
370
330
35E
100
AcDbEntity
  8
0
  6
Continuous
 62
     0
370
    18
100
AcDbLine
 10
-26.3688825071
 20
23.0225259438
 30
0.0
 11
-37.7473365515
 21
11.644070968
 31
0.0
  0
LINE
  5
371
330
35E
100
AcDbEntity
  8
0
  6
Continuous
 62
     0
370
    18
100
AcDbLine
 10
-30.8590102941
 20
23.0225259438
 30
0.0
 11
-35.3944301605
 21
18.4871060774
 31
0.0
  0
ENDBLK
  5
360
330
35E
100
AcDbEntity
  8
0
100
AcDbBlockEnd
  0
ENDSEC
  0
SECTION
  2
ENTITIES
  0
LINE
  5
7A
330
1F
100
AcDbEntity
  8
0
  6
Continuous
 62
     7
370
    18
100
AcDbLine
 10
478.1926971996
 20
64.8261487692
 30
0.0
 11
478.1926971996
 21
12.8714133178
 31
0.0
  0
LINE
  5
7B
330
1F
100
AcDbEntity
  8
0
  6
Continuous
 62
     7
370
    50
100
AcDbLine
 10
12.6908500829
 20
99.4012987775
 30
0.0
 11
292.6190356097
 21
99.4012987775
 31
0.0
  0
LINE
  5
7C
330
1F
100
AcDbEntity
  8
0
  6
Continuous
 62
     7
370
    50
100
AcDbLine
 10
12.6908500829
 20
99.4012987775
 30
0.0
 11
12.6908500829
 21
12.8714133178
 31
0.0
  0
LINE
  5
7D
330
1F
100
AcDbEntity
  8
0
  6
Continuous
 62
     7
370
    50
100
AcDbLine
 10
12.6908500829
 20
12.8714133178
 30
0.0
 11
292.6190356097
 21
12.8714133178
 31
0.0
  0
LINE
  5
7E
330
1F
100
AcDbEntity
  8
0
  6
Continuous
 62
     7
370
    50
100
AcDbLine
 10
292.6190356097
 20
99.4012987775
 30
0.0
 11
292.6190356097
 21
12.8714133178
 31
0.0
  0
LINE
  5
7F
330
1F
100
AcDbEntity
  8
0
  6
Continuous
 62
     7
370
    35
100
AcDbLine
 10
615.0128130851
 20
12.8714133178
 30
0.0
 11
450.0128130851
 21
12.8714133178
 31
0.0
  0
LINE
  5
80
330
1F
100
AcDbEntity
  8
0
  6
Continuous
 62
     7
370
    18
100
AcDbLine
 10
450.0128130851
 20
47.5058873504
 30
0.0
 11
615.0128130851
 21
47.5058873504
 31
0.0
  0
LINE
  5
81
330
1F
100
AcDbEntity
  8
1
  6
Continuous
 62
     7
100
AcDbLine
 10
450.0128130851
 20
28.6214133178
 30
0.0
 11
615.0128130851
 21
28.6214133178
 31
0.0
  0
LINE
  5
82
330
1F
100
AcDbEntity
  8
1
  6
Continuous
 62
     7
100
AcDbLine
 10
588.9890885422
 20
18.8714133178
 30
0.0
 11
594.9890885422
 21
18.8714133178
 31
0.0
  0
LINE
  5
83
330
1F
100
AcDbEntity
  8
1
  6
Continuous
 62
     7
370
    35
100
AcDbLine
 10
615.0128130851
 20
64.8261487692
 30
0.0
 11
450.0128130851
 21
64.8261487692
 31
0.0
  0
LINE
  5
84
330
1F
100
AcDbEntity
  8
1
  6
Continuous
 62
     7
370
    35
100
AcDbLine
 10
450.0128130851
 20
64.8261487692
 30
0.0
 11
450.0128130851
 21
12.8714133178
 31
0.0
  0
LINE
  5
85
330
1F
100
AcDbEntity
  8
1
  6
Continuous
 62
     7
370
    50
100
AcDbLine
 10
615.0128130851
 20
64.8261487692
 30
0.0
 11
615.0128130851
 21
12.8714133178
 31
0.0
  0
LINE
  5
86
330
1F
100
AcDbEntity
  8
SLD-0
 62
     7
100
AcDbLine
 10
615.0128130851
 20
64.8261487692
 30
0.0
 11
579.652769745
 21
64.8261487692
 31
0.0
  0
LINE
  5
87
330
1F
100
AcDbEntity
  8
SLD-0
 62
     7
100
AcDbLine
 10
615.0128130851
 20
64.8261487692
 30
0.0
 11
489.0640101056
 21
64.8261487692
 31
0.0
  0
INSERT
  5
8E
330
1F
100
AcDbEntity
  8
1
 62
     7
100
AcDbBlockReference
  2
SW_NOTE_0
 10
452.5826756771
 20
37.3246593043
 30
0.0
  0
INSERT
  5
95
330
1F
100
AcDbEntity
  8
1
 62
     7
100
AcDbBlockReference
  2
SW_NOTE_0_1
 10
452.723787811
 20
55.7399807499
 30
0.0
  0
MTEXT
  5
97
330
1F
100
AcDbEntity
  8
SLD-0
 62
     7
100
AcDbMText
 10
547.4238112628
 20
58.4703052325
 30
0.0
 40
5.55625
 41
0.0
 71
     2
 72
     1
  1
2023/05/30
  7
SLDTEXTSTYLE2
 73
     1
 44
1.0
  0
MTEXT
  5
98
330
1F
100
AcDbEntity
  8
SLD-0
 62
     7
100
AcDbMText
 10
547.4027731545
 20
23.6340506504
 30
0.0
 40
7.14375
 41
0.0
 71
     2
 72
     1
  1
C013677
  7
SLDTEXTSTYLE2
 73
     1
 44
1.0
  0
MTEXT
  5
99
330
1F
100
AcDbEntity
  8
SLD-0
 62
     7
100
AcDbMText
 10
545.1346202321
 20
40.0944976389
 30
0.0
 40
6.35
 41
0.0
 71
     2
 72
     1
  1
HPN-20A-xxx-J6AFC-CC1-BL3
  7
SLDTEXTSTYLE2
 73
     1
 44
1.0
  0
INSERT
  5
A2
330
1F
100
AcDbEntity
  8
注記
100
AcDbBlockReference
  2
SW_NOTE_0_2
 10
29.1823341264
 20
50.5654720704
 30
0.0
  0
INSERT
  5
AA
330
1F
100
AcDbEntity
  8
注記
100
AcDbBlockReference
  2
SW_NOTE_0_3
 10
29.1823341264
 20
87.9202820519
 30
0.0
  0
INSERT
  5
B0
330
1F
100
AcDbEntity
  8
1
 62
     7
100
AcDbBlockReference
  2
SW_NOTE_0_4
 10
456.8634272148
 20
19.7296348506
 30
0.0
  0
ARC
  5
B1
330
1F
100
AcDbEntity
  8
0
  6
Continuous
 62
     7
370
    35
100
AcDbCircle
 10
106.3568908139
 20
277.9448811954
 30
0.0
 40
39.0772329148468
100
AcDbArc
 50
89.9060834602
 51
91.0388003127
  0
LINE
  5
B2
330
1F
100
AcDbEntity
  8
0
  6
Continuous
 62
     7
370
    35
100
AcDbLine
 10
106.4209443426
 20
317.0220616135
 30
0.0
 11
152.4209443426
 21
317.0220616135
 31
0.0
  0
ARC
  5
B3
330
1F
100
AcDbEntity
  8
0
  6
Continuous
 62
     7
370
    35
100
AcDbCircle
 10
152.4962018729
 20
279.3036249328
 30
0.0
 40
37.71851175916755
100
AcDbArc
 50
88.940797249
 51
90.1143189782
  0
ARC
  5
B4
330
1F
100
AcDbEntity
  8
0
  6
Continuous
 62
     7
370
    35
100
AcDbCircle
 10
129.4209443426
 20
272.0156916594
 30
0.0
 40
12.38333333333333
100
AcDbArc
 50
0.0
 51
75.9799689562
  0
ARC
  5
B5
330
1F
100
AcDbEntity
  8
0
  6
Continuous
 62
     7
370
    35
100
AcDbCircle
 10
129.4209443426
 20
272.0156916594
 30
0.0
 40
12.38333333333333
100
AcDbArc
 50
104.0200310438
 51
0.0
  0
ARC
  5
B6
330
1F
100
AcDbEntity
  8
0
  6
Continuous
 62
     7
370
    35
100
AcDbCircle
 10
129.4209443426
 20
272.0156916594
 30
0.0
 40
13.4533445084692
100
AcDbArc
 50
0.0
 51
77.1151198598
  0
ARC
  5
B7
330
1F
100
AcDbEntity
  8
0
  6
Continuous
 62
     7
370
    35
100
AcDbCircle
 10
129.4209443426
 20
272.0156916594
 30
0.0
 40
13.45334450846919
100
AcDbArc
 50
102.8848801402
 51
0.0
  0
CIRCLE
  5
B8
330
1F
100
AcDbEntity
  8
0
  6
Continuous
 62
     7
370
    35
100
AcDbCircle
 10
129.4209443426
 20
272.0156916594
 30
0.0
 40
33.5381197846483
  0
CIRCLE
  5
B9
330
1F
100
AcDbEntity
  8
0
  6
Continuous
 62
     7
370
    35
100
AcDbCircle
 10
129.4209443426
 20
272.0156916594
 30
0.0
 40
34.0
  0
LINE
  5
BA
330
1F
100
AcDbEntity
  8
0
  6
Continuous
 62
     7
370
    35
100
AcDbLine
 10
126.4209443426
 20
279.7656916594
 30
0.0
 11
132.4209443426
 21
279.7656916594
 31
0.0
  0
LINE
  5
BB
330
1F
100
AcDbEntity
  8
0
  6
Continuous
 62
     7
370
    35
100
AcDbLine
 10
132.4209443426
 20
279.7656916594
 30
0.0
 11
132.1709443426
 21
279.5156916594
 31
0.0
  0
LINE
  5
BC
330
1F
100
AcDbEntity
  8
0
  6
Continuous
 62
     7
370
    35
100
AcDbLine
 10
126.6709443426
 20
279.5156916594
 30
0.0
 11
126.4209443426
 21
279.7656916594
 31
0.0
  0
LINE
  5
BD
330
1F
100
AcDbEntity
  8
0
  6
Continuous
 62
     7
370
    35
100
AcDbLine
 10
126.6709443426
 20
285.5156916594
 30
0.0
 11
132.1709443426
 21
285.5156916594
 31
0.0
  0
LINE
  5
BE
330
1F
100
AcDbEntity
  8
0
  6
Continuous
 62
     7
370
    35
100
AcDbLine
 10
132.4209443426
 20
285.2656916594
 30
0.0
 11
126.4209443426
 21
285.2656916594
 31
0.0
  0
LINE
  5
BF
330
1F
100
AcDbEntity
  8
0
  6
Continuous
 62
     7
370
    35
100
AcDbLine
 10
126.4209443426
 20
285.2656916594
 30
0.0
 11
126.6709443426
 21
285.5156916594
 31
0.0
  0
LINE
  5
C0
330
1F
100
AcDbEntity
  8
0
  6
Continuous
 62
     7
370
    35
100
AcDbLine
 10
132.1709443426
 20
285.5156916594
 30
0.0
 11
132.4209443426
 21
285.2656916594
 31
0.0
  0
LINE
  5
C1
330
1F
100
AcDbEntity
  8
0
  6
Continuous
 62
     7
370
    35
100
AcDbLine
 10
132.4209443426
 20
285.2656916594
 30
0.0
 11
132.4209443426
 21
279.7656916594
 31
0.0
  0
LINE
  5
C2
330
1F
100
AcDbEntity
  8
0
  6
Continuous
 62
     7
370
    35
100
AcDbLine
 10
126.4209443426
 20
285.2656916594
 30
0.0
 11
126.4209443426
 21
279.7656916594
 31
0.0
  0
CIRCLE
  5
C3
330
1F
100
AcDbEntity
  8
0
  6
Continuous
 62
     7
370
    35
100
AcDbCircle
 10
129.4209443426
 20
272.0156916594
 30
0.0
 40
34.72794046853241
  0
CIRCLE
  5
C4
330
1F
100
AcDbEntity
  8
0
  6
Continuous
 62
     7
370
    35
100
AcDbCircle
 10
129.4209443426
 20
272.0156916594
 30
0.0
 40
38.0
  0
CIRCLE
  5
C5
330
1F
100
AcDbEntity
  8
0
  6
Continuous
 62
     7
370
    35
100
AcDbCircle
 10
129.4209443426
 20
272.0156916594
 30
0.0
 40
39.0
  0
CIRCLE
  5
C6
330
1F
100
AcDbEntity
  8
0
  6
Continuous
 62
     7
370
    35
100
AcDbCircle
 10
129.4209443426
 20
272.0156916594
 30
0.0
 40
39.99999999999997
  0
LINE
  5
C7
330
1F
100
AcDbEntity
  8
0
  6
Continuous
 62
     7
370
    35
100
AcDbLine
 10
93.4209443426
 20
227.0156916594
 30
0.0
 11
165.4209443426
 21
227.0156916594
 31
0.0
  0
LINE
  5
C8
330
1F
100
AcDbEntity
  8
0
  6
Continuous
 62
     7
370
    35
100
AcDbLine
 10
93.4209443426
 20
227.5156916594
 30
0.0
 11
165.4209443426
 21
227.5156916594
 31
0.0
  0
CIRCLE
  5
C9
330
1F
100
AcDbEntity
  8
0
  6
Continuous
 62
     7
370
    35
100
AcDbCircle
 10
164.7762834019
 20
307.3710307187
 30
0.0
 40
3.800000000000011
  0
CIRCLE
  5
CA
330
1F
100
AcDbEntity
  8
0
  6
Continuous
 62
     7
370
    35
100
AcDbCircle
 10
164.7762834019
 20
236.6603526
 30
0.0
 40
3.799999999999983
  0
CIRCLE
  5
CB
330
1F
100
AcDbEntity
  8
0
  6
Continuous
 62
     7
370
    35
100
AcDbCircle
 10
94.0656052833
 20
236.6603526
 30
0.0
 40
3.799999999999997
  0
CIRCLE
  5
CC
330
1F
100
AcDbEntity
  8
0
  6
Continuous
 62
     7
370
    35
100
AcDbCircle
 10
94.0656052833
 20
307.3710307187
 30
0.0
 40
3.799999999999997
  0
ARC
  5
CD
330
1F
100
AcDbEntity
  8
0
  6
Continuous
 62
     7
370
    35
100
AcDbCircle
 10
165.4209443426
 20
308.0156916594
 30
0.0
 40
8.5
100
AcDbArc
 50
0.0
 51
90.0
  0
LINE
  5
CE
330
1F
100
AcDbEntity
  8
0
  6
Continuous
 62
     7
370
    35
100
AcDbLine
 10
173.9209443426
 20
236.0156916594
 30
0.0
 11
173.9209443426
 21
308.0156916594
 31
0.0
  0
ARC
  5
CF
330
1F
100
AcDbEntity
  8
0
  6
Continuous
 62
     7
370
    35
100
AcDbCircle
 10
165.4209443426
 20
236.0156916594
 30
0.0
 40
8.500000000000028
100
AcDbArc
 50
270.0
 51
0.0
  0
ARC
  5
D0
330
1F
100
AcDbEntity
  8
0
  6
Continuous
 62
     7
370
    35
100
AcDbCircle
 10
93.4209443426
 20
236.0156916594
 30
0.0
 40
8.500000000000028
100
AcDbArc
 50
180.0
 51
270.0
  0
LINE
  5
D1
330
1F
100
AcDbEntity
  8
0
  6
Continuous
 62
     7
370
    35
100
AcDbLine
 10
84.9209443426
 20
308.0156916594
 30
0.0
 11
84.9209443426
 21
236.0156916594
 31
0.0
  0
ARC
  5
D2
330
1F
100
AcDbEntity
  8
0
  6
Continuous
 62
     7
370
    35
100
AcDbCircle
 10
93.4209443426
 20
308.0156916594
 30
0.0
 40
8.5
100
AcDbArc
 50
90.0
 51
180.0
  0
LINE
  5
D3
330
1F
100
AcDbEntity
  8
0
  6
Continuous
 62
     7
370
    35
100
AcDbLine
 10
165.4209443426
 20
316.5156916594
 30
0.0
 11
93.4209443426
 21
316.5156916594
 31
0.0
  0
CIRCLE
  5
D4
330
1F
100
AcDbEntity
  8
0
  6
Continuous
 62
     7
370
    35
100
AcDbCircle
 10
94.0656052833
 20
307.3710307187
 30
0.0
 40
3.299999999999983
  0
ARC
  5
D5
330
1F
100
AcDbEntity
  8
0
  6
Continuous
 62
     7
370
    35
100
AcDbCircle
 10
165.4209443426
 20
308.0156916594
 30
0.0
 40
9.0
100
AcDbArc
 50
0.0
 51
90.0
  0
LINE
  5
D6
330
1F
100
AcDbEntity
  8
0
  6
Continuous
 62
     7
370
    35
100
AcDbLine
 10
174.4209443426
 20
236.0156916594
 30
0.0
 11
174.4209443426
 21
308.0156916594
 31
0.0
  0
ARC
  5
D7
330
1F
100
AcDbEntity
  8
0
  6
Continuous
 62
     7
370
    35
100
AcDbCircle
 10
165.4209443426
 20
236.0156916594
 30
0.0
 40
9.000000000000028
100
AcDbArc
 50
270.0
 51
0.0
  0
ARC
  5
D8
330
1F
100
AcDbEntity
  8
0
  6
Continuous
 62
     7
370
    35
100
AcDbCircle
 10
93.4209443426
 20
308.0156916594
 30
0.0
 40
9.000000000000014
100
AcDbArc
 50
90.0
 51
180.0
  0
LINE
  5
D9
330
1F
100
AcDbEntity
  8
0
  6
Continuous
 62
     7
370
    35
100
AcDbLine
 10
84.4209443426
 20
308.0156916594
 30
0.0
 11
84.4209443426
 21
236.0156916594
 31
0.0
  0
CIRCLE
  5
DA
330
1F
100
AcDbEntity
  8
0
  6
Continuous
 62
     7
370
    35
100
AcDbCircle
 10
94.0656052833
 20
236.6603526
 30
0.0
 40
3.299999999999997
  0
CIRCLE
  5
DB
330
1F
100
AcDbEntity
  8
0
  6
Continuous
 62
     7
370
    35
100
AcDbCircle
 10
164.7762834019
 20
307.3710307187
 30
0.0
 40
3.299999999999983
  0
ARC
  5
DC
330
1F
100
AcDbEntity
  8
0
  6
Continuous
 62
     7
370
    35
100
AcDbCircle
 10
93.4209443426
 20
236.0156916594
 30
0.0
 40
9.000000000000028
100
AcDbArc
 50
180.0
 51
270.0
  0
CIRCLE
  5
DD
330
1F
100
AcDbEntity
  8
0
  6
Continuous
 62
     7
370
    35
100
AcDbCircle
 10
164.7762834019
 20
236.6603526
 30
0.0
 40
3.300000000000011
  0
LINE
  5
DE
330
1F
100
AcDbEntity
  8
0
  6
Continuous
 62
     7
370
    35
100
AcDbLine
 10
165.4209443426
 20
317.0156916594
 30
0.0
 11
93.4209443426
 21
317.0156916594
 31
0.0
  0
SPLINE
  5
DF
330
1F
100
AcDbEntity
  8
0
  6
Continuous
 62
     7
370
    35
100
AcDbSpline
210
0.0
220
0.0
230
1.0
 70
     8
 71
     3
 72
    12
 73
     8
 74
     0
 42
0.00000001
 43
0.00000001
 40
0.0
 40
0.0
 40
0.0
 40
0.0
 40
0.5000000000000037
 40
0.5000000000000037
 40
0.7500000000000018
 40
0.7500000000000018
 40
1.0
 40
1.0
 40
1.0
 40
1.0
 10
126.4209443426061
 20
282.3848767768283
 30
0.0
 10
126.4209443426061
 20
282.4298211548199
 30
0.0
 10
126.4032443870734
 20
282.4717044774001
 30
0.0
 10
126.3513545779757
 20
282.5189404833298
 30
0.0
 10
126.3292159352992
 20
282.5321994574002
 30
0.0
 10
126.2757982480057
 20
282.5465689042622
 30
0.0
 10
126.2443972382415
 20
282.5470988927568
 30
0.0
 10
126.2143022761855
 20
282.537927479669
 30
0.0
  0
ARC
  5
E0
330
1F
100
AcDbEntity
  8
0
  6
Continuous
 62
     7
370
    35
100
AcDbCircle
 10
129.4209443426
 20
272.0156916594
 30
0.0
 40
10.50000000000001
100
AcDbArc
 50
106.601549599
 51
73.398450401
  0
SPLINE
  5
E1
330
1F
100
AcDbEntity
  8
0
  6
Continuous
 62
     7
370
    35
100
AcDbSpline
210
0.0
220
0.0
230
1.0
 70
     8
 71
     3
 72
    12
 73
     8
 74
     0
 42
0.00000001
 43
0.00000001
 40
0.0
 40
0.0
 40
0.0
 40
0.0
 40
0.2499999999999995
 40
0.2499999999999995
 40
0.499999999999999
 40
0.499999999999999
 40
1.0
 40
1.0
 40
1.0
 40
1.0
 10
132.6275864090268
 20
282.537927479669
 30
0.0
 10
132.59754026178
 20
282.5470840164869
 30
0.0
 10
132.5661929976193
 20
282.5465626027484
 30
0.0
 10
132.5129358563498
 20
282.5323038919717
 30
0.0
 10
132.4908972631017
 20
282.5191914174705
 30
0.0
 10
132.4388038468879
 20
282.4720070032087
 30
0.0
 10
132.4209443426058
 20
282.4297665160113
 30
0.0
 10
132.4209443426058
 20
282.3848767768284
 30
0.0
  0
ARC
  5
E2
330
1F
100
AcDbEntity
  8
0
  6
Continuous
 62
     7
370
    35
100
AcDbCircle
 10
129.4209443426
 20
272.0156916594
 30
0.0
 40
10.99999999999999
100
AcDbArc
 50
106.9485537716
 51
73.0514462284
  0
SPLINE
  5
E3
330
1F
100
AcDbEntity
  8
0
  6
Continuous
 62
     7
370
    35
100
AcDbSpline
210
0.0
220
0.0
230
1.0
 70
    24
 71
     3
 72
     8
 73
     4
 74
     0
 42
0.00000001
 43
0.00000001
 40
0.0
 40
0.0
 40
0.0
 40
0.0
 40
1.0
 40
1.0
 40
1.0
 40
1.0
 10
132.4209443426062
 20
282.0779975581248
 30
0.0
 10
132.4209443426062
 20
282.1803503229959
 30
0.0
 10
132.4209443426062
 20
282.282641700899
 30
0.0
 10
132.4209443426062
 20
282.3848767768283
 30
0.0
  0
SPLINE
  5
E4
330
1F
100
AcDbEntity
  8
0
  6
Continuous
 62
     7
370
    35
100
AcDbSpline
210
0.0
220
0.0
230
1.0
 70
    24
 71
     3
 72
     8
 73
     4
 74
     0
 42
0.00000001
 43
0.00000001
 40
0.0
 40
0.0
 40
0.0
 40
0.0
 40
1.0
 40
1.0
 40
1.0
 40
1.0
 10
126.4209443426061
 20
282.3848767768283
 30
0.0
 10
126.4209443426061
 20
282.282641700899
 30
0.0
 10
126.4209443426061
 20
282.1803503229959
 30
0.0
 10
126.4209443426061
 20
282.0779975581248
 30
0.0
  0
CIRCLE
  5
E5
330
1F
100
AcDbEntity
  8
0
  6
Continuous
 62
     7
370
    35
100
AcDbCircle
 10
129.4209443426
 20
272.0156916594
 30
0.0
 40
5.75
  0
CIRCLE
  5
E6
330
1F
100
AcDbEntity
  8
0
  6
Continuous
 62
     7
370
    35
100
AcDbCircle
 10
129.4209443426
 20
272.0156916594
 30
0.0
 40
5.099999999999994
  0
LINE
  5
E7
330
1F
100
AcDbEntity
  8
0
  6
Continuous
 62
     7
370
    35
100
AcDbLine
 10
126.4209443426
 20
279.5156916594
 30
0.0
 11
132.4209443426
 21
279.5156916594
 31
0.0
  0
LINE
  5
E8
330
1F
100
AcDbEntity
  8
0
  6
Continuous
 62
     7
370
    35
100
AcDbLine
 10
132.4209443426
 20
279.5156916594
 30
0.0
 11
132.4209443426
 21
282.0779975581
 31
0.0
  0
LINE
  5
E9
330
1F
100
AcDbEntity
  8
0
  6
Continuous
 62
     7
370
    35
100
AcDbLine
 10
126.4209443426
 20
279.5156916594
 30
0.0
 11
126.4209443426
 21
282.0779975581
 31
0.0
  0
CIRCLE
  5
EA
330
1F
100
AcDbEntity
  8
0
  6
Continuous
 62
     7
370
    35
100
AcDbCircle
 10
129.4209443426
 20
272.0156916594
 30
0.0
 40
3.5
  0
SPLINE
  5
EB
330
1F
100
AcDbEntity
  8
0
  6
Continuous
 62
     7
370
    35
100
AcDbSpline
210
0.0
220
0.0
230
1.0
 70
     8
 71
     3
 72
     9
 73
     5
 74
     0
 42
0.00000001
 43
0.00000001
 40
0.0
 40
0.0
 40
0.0
 40
0.0
 40
0.9337884838851215
 40
1.0
 40
1.0
 40
1.0
 40
1.0
 10
126.2143022761855
 20
282.537927479669
 30
0.0
 10
126.2218667331687
 20
282.5427426532765
 30
0.0
 10
126.229967558049
 20
282.5478992531818
 30
0.0
 10
126.4090847235182
 20
282.5947879956744
 30
0.0
 10
126.4209443426061
 20
282.5978925704036
 30
0.0
  0
SPLINE
  5
EC
330
1F
100
AcDbEntity
  8
0
  6
Continuous
 62
     7
370
    35
100
AcDbSpline
210
0.0
220
0.0
230
1.0
 70
     8
 71
     3
 72
     9
 73
     5
 74
     0
 42
0.00000001
 43
0.00000001
 40
0.0
 40
0.0
 40
0.0
 40
0.0
 40
0.543287574706929
 40
1.0
 40
1.0
 40
1.0
 40
1.0
 10
132.4209443426062
 20
282.597218896121
 30
0.0
 10
132.4904078312588
 20
282.5775788594607
 30
0.0
 10
132.6182655108498
 20
282.5414285082017
 30
0.0
 10
132.6246640957833
 20
282.5390251316176
 30
0.0
 10
132.6275864090268
 20
282.537927479669
 30
0.0
  0
ARC
  5
ED
330
1F
100
AcDbEntity
  8
0
  6
Continuous
 62
     7
370
    35
100
AcDbCircle
 10
129.4209443426
 20
272.0156916594
 30
0.0
 40
11.87264973081037
100
AcDbArc
 50
0.0
 51
75.363748268
  0
ARC
  5
EE
330
1F
100
AcDbEntity
  8
0
  6
Continuous
 62
     7
370
    35
100
AcDbCircle
 10
129.4209443426
 20
272.0156916594
 30
0.0
 40
11.87264973081037
100
AcDbArc
 50
104.636251732
 51
0.0
  0
ARC
  5
EF
330
1F
100
AcDbEntity
  8
0
  6
Continuous
 62
     7
370
    35
100
AcDbCircle
 10
129.4209443426
 20
272.0156916594
 30
0.0
 40
12.44999999999999
100
AcDbArc
 50
0.0
 51
76.1191463154
  0
ARC
  5
F0
330
1F
100
AcDbEntity
  8
0
  6
Continuous
 62
     7
370
    35
100
AcDbCircle
 10
129.4209443426
 20
272.0156916594
 30
0.0
 40
12.44999999999999
100
AcDbArc
 50
103.8808536846
 51
0.0
  0
INSERT
  5
FC
330
1F
100
AcDbEntity
  8
0
  6
Continuous
 62
     7
370
     0
100
AcDbBlockReference
  2
SW_CENTERMARKSYMBOL_0
 10
129.4209443426
 20
272.0156916594
 30
0.0
  0
INSERT
  5
120
330
1F
100
AcDbEntity
  8
0
  6
Continuous
 62
     7
370
     0
100
AcDbBlockReference
  2
SW_CENTERMARKSYMBOL_1
 10
94.0656052833
 20
307.3710307187
 30
0.0
  0
CIRCLE
  5
121
330
1F
100
AcDbEntity
  8
0
  6
Continuous
 62
     7
370
     0
100
AcDbCircle
 10
129.4209443426
 20
272.0156916594
 30
0.0
 40
4.0
  0
LINE
  5
122
330
1F
100
AcDbEntity
  8
0
  6
CENTERX2
 62
     7
370
    18
100
AcDbLine
 10
129.4209443426
 20
297.9829827778
 30
0.0
 11
129.4209443426
 21
306.3977762672
 31
0.0
  0
ARC
  5
123
330
1F
100
AcDbEntity
  8
0
  6
Continuous
 62
     7
370
    35
100
AcDbCircle
 10
530.566108993
 20
316.0156916594
 30
0.0
 40
0.5
100
AcDbArc
 50
0.0
 51
90.0
  0
ARC
  5
124
330
1F
100
AcDbEntity
  8
0
  6
Continuous
 62
     7
370
    35
100
AcDbCircle
 10
510.566108993
 20
316.0156916594
 30
0.0
 40
0.5
100
AcDbArc
 50
90.0
 51
180.0
  0
LINE
  5
125
330
1F
100
AcDbEntity
  8
0
  6
Continuous
 62
     7
370
    35
100
AcDbLine
 10
531.066108993
 20
314.5156916594
 30
0.0
 11
531.066108993
 21
316.0156916594
 31
0.0
  0
LINE
  5
126
330
1F
100
AcDbEntity
  8
0
  6
Continuous
 62
     7
370
    35
100
AcDbLine
 10
510.066108993
 20
316.0156916594
 30
0.0
 11
510.066108993
 21
314.5156916594
 31
0.0
  0
ARC
  5
127
330
1F
100
AcDbEntity
  8
0
  6
Continuous
 62
     7
370
    35
100
AcDbCircle
 10
501.156108993
 20
281.8156916594
 30
0.0
 40
0.1999999999999886
100
AcDbArc
 50
90.0
 51
180.0
  0
LINE
  5
128
330
1F
100
AcDbEntity
  8
0
  6
Continuous
 62
     7
370
    35
100
AcDbLine
 10
500.956108993
 20
281.8156916594
 30
0.0
 11
500.956108993
 21
279.5288734088
 31
0.0
  0
LINE
  5
129
330
1F
100
AcDbEntity
  8
0
  6
Continuous
 62
     7
370
    35
100
AcDbLine
 10
506.566108993
 20
271.5156916594
 30
0.0
 11
506.566108993
 21
272.5156916594
 31
0.0
  0
LINE
  5
12A
330
1F
100
AcDbEntity
  8
0
  6
Continuous
 62
     7
370
    35
100
AcDbLine
 10
502.566108993
 20
272.5156916594
 30
0.0
 11
502.566108993
 21
271.5156916594
 31
0.0
  0
LINE
  5
12B
330
1F
100
AcDbEntity
  8
0
  6
Continuous
 62
     7
370
    35
100
AcDbLine
 10
502.0144462756
 20
228.1369594842
 30
0.0
 11
504.1439730242
 21
227.2124052914
 31
0.0
  0
LINE
  5
12C
330
1F
100
AcDbEntity
  8
0
  6
Continuous
 62
     7
370
    35
100
AcDbLine
 10
536.9882449618
 20
227.2124052914
 30
0.0
 11
539.1177717103
 21
228.1369594842
 31
0.0
  0
LINE
  5
12D
330
1F
100
AcDbEntity
  8
0
  6
Continuous
 62
     7
370
    35
100
AcDbLine
 10
564.4448411682
 20
253.464028942
 30
0.0
 11
565.369395361
 21
255.5935556905
 31
0.0
  0
LINE
  5
12E
330
1F
100
AcDbEntity
  8
0
  6
Continuous
 62
     7
370
    35
100
AcDbLine
 10
539.1177717103
 20
315.8944238346
 30
0.0
 11
536.9882449618
 21
316.8189780274
 31
0.0
  0
LINE
  5
12F
330
1F
100
AcDbEntity
  8
0
  6
Continuous
 62
     7
370
    35
100
AcDbLine
 10
475.762822625
 20
255.5935556905
 30
0.0
 11
476.6873768178
 21
253.464028942
 31
0.0
  0
LINE
  5
130
330
1F
100
AcDbEntity
  8
0
  6
Continuous
 62
     7
370
    35
100
AcDbLine
 10
476.6873768178
 20
290.5673543767
 30
0.0
 11
475.762822625
 21
288.4378276282
 31
0.0
  0
LINE
  5
131
330
1F
100
AcDbEntity
  8
0
  6
Continuous
 62
     7
370
    35
100
AcDbLine
 10
504.1439730242
 20
316.8189780274
 30
0.0
 11
502.0144462756
 21
315.8944238346
 31
0.0
  0
LINE
  5
132
330
1F
100
AcDbEntity
  8
0
  6
Continuous
 62
     7
370
    35
100
AcDbLine
 10
565.369395361
 20
288.4378276282
 30
0.0
 11
564.4448411682
 21
290.5673543767
 31
0.0
  0
ARC
  5
133
330
1F
100
AcDbEntity
  8
0
  6
Continuous
 62
     7
370
    35
100
AcDbCircle
 10
565.323531414
 20
288.4179153615
 30
0.0
 40
0.0499999999999545
100
AcDbArc
 50
0.0
 51
23.4685315404
  0
ARC
  5
134
330
1F
100
AcDbEntity
  8
0
  6
Continuous
 62
     7
370
    35
100
AcDbCircle
 10
475.808686572
 20
255.6134679572
 30
0.0
 40
0.050000000000042
100
AcDbArc
 50
180.0
 51
203.4685315404
  0
ARC
  5
135
330
1F
100
AcDbEntity
  8
0
  6
Continuous
 62
     7
370
    35
100
AcDbCircle
 10
504.1638852908
 20
316.7731140804
 30
0.0
 40
0.0500000000000125
100
AcDbArc
 50
90.0
 51
113.4685315404
  0
ARC
  5
136
330
1F
100
AcDbEntity
  8
0
  6
Continuous
 62
     7
370
    35
100
AcDbCircle
 10
536.9683326951
 20
316.7731140804
 30
0.0
 40
0.0499999999999899
100
AcDbArc
 50
66.5314684596
 51
90.0
  0
ARC
  5
137
330
1F
100
AcDbEntity
  8
0
  6
Continuous
 62
     7
370
    35
100
AcDbCircle
 10
536.9683326951
 20
227.2582692384
 30
0.0
 40
0.0499999999999899
100
AcDbArc
 50
270.0
 51
293.4685315404
  0
ARC
  5
138
330
1F
100
AcDbEntity
  8
0
  6
Continuous
 62
     7
370
    35
100
AcDbCircle
 10
504.1638852908
 20
227.2582692384
 30
0.0
 40
0.0499999999999829
100
AcDbArc
 50
246.5314684597
 51
270.0
  0
ARC
  5
139
330
1F
100
AcDbEntity
  8
0
  6
Continuous
 62
     7
370
    35
100
AcDbCircle
 10
475.808686572
 20
288.4179153615
 30
0.0
 40
0.050000000000042
100
AcDbArc
 50
156.5314684596
 51
180.0
  0
ARC
  5
13A
330
1F
100
AcDbEntity
  8
0
  6
Continuous
 62
     7
370
    35
100
AcDbCircle
 10
565.323531414
 20
255.6134679572
 30
0.0
 40
0.0499999999999545
100
AcDbArc
 50
336.5314684595
 51
0.0
  0
LINE
  5
13B
330
1F
100
AcDbEntity
  8
0
  6
Continuous
 62
     7
370
    35
100
AcDbLine
 10
497.566108993
 20
316.9103662123
 30
0.0
 11
543.566108993
 21
316.9103662123
 31
0.0
  0
LINE
  5
13C
330
1F
100
AcDbEntity
  8
0
  6
Continuous
 62
     7
370
    35
100
AcDbLine
 10
497.566108993
 20
316.8603738275
 30
0.0
 11
543.566108993
 21
316.8603738275
 31
0.0
  0
LINE
  5
13D
330
1F
100
AcDbEntity
  8
0
  6
Continuous
 62
     7
370
    35
100
AcDbLine
 10
496.566108993
 20
316.9278186187
 30
0.0
 11
496.566108993
 21
316.8778262339
 31
0.0
  0
ARC
  5
13E
330
1F
100
AcDbEntity
  8
0
  6
Continuous
 62
     7
370
    35
100
AcDbCircle
 10
497.3161851396
 20
331.2481276417
 30
0.0
 40
14.33993949570637
100
AcDbArc
 50
267.0016736235
 51
270.9986309243
  0
ARC
  5
13F
330
1F
100
AcDbEntity
  8
0
  6
Continuous
 62
     7
370
    35
100
AcDbCircle
 10
497.3161851396
 20
331.198135257
 30
0.0
 40
14.33993949570632
100
AcDbArc
 50
267.0016736235
 51
270.9986309243
  0
LINE
  5
140
330
1F
100
AcDbEntity
  8
0
  6
Continuous
 62
     7
370
    35
100
AcDbLine
 10
544.566108993
 20
316.9278186187
 30
0.0
 11
544.566108993
 21
317.004609207
 31
0.0
  0
ARC
  5
141
330
1F
100
AcDbEntity
  8
0
  6
Continuous
 62
     7
370
    35
100
AcDbCircle
 10
543.8160328464
 20
331.2481276417
 30
0.0
 40
14.33993949570331
100
AcDbArc
 50
269.0013690757
 51
272.9983263765
  0
LINE
  5
142
330
1F
100
AcDbEntity
  8
0
  6
Continuous
 62
     7
370
    35
100
AcDbLine
 10
496.566108993
 20
317.004609207
 30
0.0
 11
496.566108993
 21
316.9278186187
 31
0.0
  0
ARC
  5
143
330
1F
100
AcDbEntity
  8
0
  6
Continuous
 62
     7
370
    35
100
AcDbCircle
 10
497.3161851396
 20
302.684300184
 30
0.0
 40
14.33993949570632
100
AcDbArc
 50
89.0013690757
 51
92.9983263765
  0
LINE
  5
144
330
1F
100
AcDbEntity
  8
0
  6
Continuous
 62
     7
370
    35
100
AcDbLine
 10
543.566108993
 20
317.0220616135
 30
0.0
 11
497.566108993
 21
317.0220616135
 31
0.0
  0
ARC
  5
145
330
1F
100
AcDbEntity
  8
0
  6
Continuous
 62
     7
370
    35
100
AcDbCircle
 10
543.8160328464
 20
302.684300184
 30
0.0
 40
14.3399394957033
100
AcDbArc
 50
87.0016736235
 51
90.9986309243
  0
LINE
  5
146
330
1F
100
AcDbEntity
  8
0
  6
Continuous
 62
     7
370
    35
100
AcDbLine
 10
544.566108993
 20
316.9278186187
 30
0.0
 11
544.566108993
 21
316.8778262339
 31
0.0
  0
ARC
  5
147
330
1F
100
AcDbEntity
  8
0
  6
Continuous
 62
     7
370
    35
100
AcDbCircle
 10
543.8160328464
 20
331.198135257
 30
0.0
 40
14.33993949570331
100
AcDbArc
 50
269.0013690757
 51
272.9983263765
  0
LINE
  5
148
330
1F
100
AcDbEntity
  8
0
  6
Continuous
 62
     7
370
    35
100
AcDbLine
 10
520.566108993
 20
316.5156916594
 30
0.0
 11
530.566108993
 21
316.5156916594
 31
0.0
  0
LINE
  5
149
330
1F
100
AcDbEntity
  8
0
  6
Continuous
 62
     7
370
    35
100
AcDbLine
 10
510.566108993
 20
316.5156916594
 30
0.0
 11
520.566108993
 21
316.5156916594
 31
0.0
  0
LINE
  5
14A
330
1F
100
AcDbEntity
  8
0
  6
Continuous
 62
     7
370
    35
100
AcDbLine
 10
554.7720764258
 20
289.070157907
 30
0.0
 11
556.2549245736
 21
288.0886821285
 31
0.0
  0
LINE
  5
14B
330
1F
100
AcDbEntity
  8
0
  6
Continuous
 62
     7
370
    35
100
AcDbLine
 10
556.2549245736
 20
288.0886821285
 30
0.0
 11
557.8463316049
 21
288.8821284053
 31
0.0
  0
LINE
  5
14C
330
1F
100
AcDbEntity
  8
0
  6
Continuous
 62
     7
370
    35
100
AcDbLine
 10
557.8463316049
 20
288.8821284053
 30
0.0
 11
557.9548904884
 21
290.6570504605
 31
0.0
  0
LINE
  5
14D
330
1F
100
AcDbEntity
  8
0
  6
Continuous
 62
     7
370
    35
100
AcDbLine
 10
557.9548904884
 20
290.6570504605
 30
0.0
 11
556.4720423405
 21
291.638526239
 31
0.0
  0
LINE
  5
14E
330
1F
100
AcDbEntity
  8
0
  6
Continuous
 62
     7
370
    35
100
AcDbLine
 10
556.4720423405
 20
291.638526239
 30
0.0
 11
554.8806353092
 21
290.8450799623
 31
0.0
  0
LINE
  5
14F
330
1F
100
AcDbEntity
  8
0
  6
Continuous
 62
     7
370
    35
100
AcDbLine
 10
554.8806353092
 20
290.8450799623
 30
0.0
 11
554.7720764258
 21
289.070157907
 31
0.0
  0
CIRCLE
  5
150
330
1F
100
AcDbEntity
  8
0
  6
Continuous
 62
     7
370
    35
100
AcDbCircle
 10
556.3634834571
 20
289.8636041838
 30
0.0
 40
3.610000000000002
  0
LINE
  5
151
330
1F
100
AcDbEntity
  8
0
  6
Continuous
 62
     7
370
    35
100
AcDbLine
 10
503.5116427453
 20
306.2216590922
 30
0.0
 11
504.4931185238
 21
307.70450724
 31
0.0
  0
LINE
  5
152
330
1F
100
AcDbEntity
  8
0
  6
Continuous
 62
     7
370
    35
100
AcDbLine
 10
504.4931185238
 20
307.70450724
 30
0.0
 11
503.6996722471
 21
309.2959142713
 31
0.0
  0
LINE
  5
153
330
1F
100
AcDbEntity
  8
0
  6
Continuous
 62
     7
370
    35
100
AcDbLine
 10
503.6996722471
 20
309.2959142713
 30
0.0
 11
501.9247501919
 21
309.4044731548
 31
0.0
  0
LINE
  5
154
330
1F
100
AcDbEntity
  8
0
  6
Continuous
 62
     7
370
    35
100
AcDbLine
 10
501.9247501919
 20
309.4044731548
 30
0.0
 11
500.9432744134
 21
307.9216250069
 31
0.0
  0
LINE
  5
155
330
1F
100
AcDbEntity
  8
0
  6
Continuous
 62
     7
370
    35
100
AcDbLine
 10
500.9432744134
 20
307.9216250069
 30
0.0
 11
501.7367206901
 21
306.3302179756
 31
0.0
  0
LINE
  5
156
330
1F
100
AcDbEntity
  8
0
  6
Continuous
 62
     7
370
    35
100
AcDbLine
 10
501.7367206901
 20
306.3302179756
 30
0.0
 11
503.5116427453
 21
306.2216590922
 31
0.0
  0
CIRCLE
  5
157
330
1F
100
AcDbEntity
  8
0
  6
Continuous
 62
     7
370
    35
100
AcDbCircle
 10
502.7181964686
 20
307.8130661235
 30
0.0
 40
3.610000000000078
  0
CIRCLE
  5
158
330
1F
100
AcDbEntity
  8
0
  6
Continuous
 62
     7
370
    35
100
AcDbCircle
 10
556.3634834571
 20
254.167779135
 30
0.0
 40
3.609999999999951
  0
LINE
  5
159
330
1F
100
AcDbEntity
  8
0
  6
Continuous
 62
     7
370
    35
100
AcDbLine
 10
556.4720423405
 20
252.3928570798
 30
0.0
 11
557.9548904884
 21
253.3743328583
 31
0.0
  0
LINE
  5
15A
330
1F
100
AcDbEntity
  8
0
  6
Continuous
 62
     7
370
    35
100
AcDbLine
 10
556.2549245736
 20
255.9427011902
 30
0.0
 11
554.7720764258
 21
254.9612254117
 31
0.0
  0
LINE
  5
15B
330
1F
100
AcDbEntity
  8
0
  6
Continuous
 62
     7
370
    35
100
AcDbLine
 10
554.7720764258
 20
254.9612254117
 30
0.0
 11
554.8806353092
 21
253.1863033565
 31
0.0
  0
LINE
  5
15C
330
1F
100
AcDbEntity
  8
0
  6
Continuous
 62
     7
370
    35
100
AcDbLine
 10
554.8806353092
 20
253.1863033565
 30
0.0
 11
556.4720423405
 21
252.3928570798
 31
0.0
  0
LINE
  5
15D
330
1F
100
AcDbEntity
  8
0
  6
Continuous
 62
     7
370
    35
100
AcDbLine
 10
557.9548904884
 20
253.3743328583
 30
0.0
 11
557.8463316049
 21
255.1492549135
 31
0.0
  0
LINE
  5
15E
330
1F
100
AcDbEntity
  8
0
  6
Continuous
 62
     7
370
    35
100
AcDbLine
 10
557.8463316049
 20
255.1492549135
 30
0.0
 11
556.2549245736
 21
255.9427011902
 31
0.0
  0
CIRCLE
  5
15F
330
1F
100
AcDbEntity
  8
0
  6
Continuous
 62
     7
370
    35
100
AcDbCircle
 10
538.4140215174
 20
236.2183171953
 30
0.0
 40
3.609999999999977
  0
LINE
  5
160
330
1F
100
AcDbEntity
  8
0
  6
Continuous
 62
     7
370
    35
100
AcDbLine
 10
536.6390994621
 20
236.3268760788
 30
0.0
 11
537.4325457389
 21
234.7354690475
 31
0.0
  0
LINE
  5
161
330
1F
100
AcDbEntity
  8
0
  6
Continuous
 62
     7
370
    35
100
AcDbLine
 10
540.1889435726
 20
236.1097583118
 30
0.0
 11
539.3954972959
 21
237.7011653431
 31
0.0
  0
LINE
  5
162
330
1F
100
AcDbEntity
  8
0
  6
Continuous
 62
     7
370
    35
100
AcDbLine
 10
539.3954972959
 20
237.7011653431
 30
0.0
 11
537.6205752406
 21
237.8097242266
 31
0.0
  0
LINE
  5
163
330
1F
100
AcDbEntity
  8
0
  6
Continuous
 62
     7
370
    35
100
AcDbLine
 10
539.2074677941
 20
234.626910164
 30
0.0
 11
540.1889435726
 21
236.1097583118
 31
0.0
  0
LINE
  5
164
330
1F
100
AcDbEntity
  8
0
  6
Continuous
 62
     7
370
    35
100
AcDbLine
 10
537.4325457389
 20
234.7354690475
 30
0.0
 11
539.2074677941
 21
234.626910164
 31
0.0
  0
LINE
  5
165
330
1F
100
AcDbEntity
  8
0
  6
Continuous
 62
     7
370
    35
100
AcDbLine
 10
537.6205752406
 20
237.8097242266
 30
0.0
 11
536.6390994621
 21
236.3268760788
 31
0.0
  0
LINE
  5
166
330
1F
100
AcDbEntity
  8
0
  6
Continuous
 62
     7
370
    35
100
AcDbLine
 10
486.2515826767
 20
290.8450799623
 30
0.0
 11
484.6601756454
 21
291.638526239
 31
0.0
  0
LINE
  5
167
330
1F
100
AcDbEntity
  8
0
  6
Continuous
 62
     7
370
    35
100
AcDbLine
 10
483.2858863811
 20
288.8821284053
 30
0.0
 11
484.8772934124
 21
288.0886821285
 31
0.0
  0
LINE
  5
168
330
1F
100
AcDbEntity
  8
0
  6
Continuous
 62
     7
370
    35
100
AcDbLine
 10
483.1773274976
 20
290.6570504605
 30
0.0
 11
483.2858863811
 21
288.8821284053
 31
0.0
  0
LINE
  5
169
330
1F
100
AcDbEntity
  8
0
  6
Continuous
 62
     7
370
    35
100
AcDbLine
 10
484.6601756454
 20
291.638526239
 30
0.0
 11
483.1773274976
 21
290.6570504605
 31
0.0
  0
LINE
  5
16A
330
1F
100
AcDbEntity
  8
0
  6
Continuous
 62
     7
370
    35
100
AcDbLine
 10
486.3601415602
 20
289.070157907
 30
0.0
 11
486.2515826767
 21
290.8450799623
 31
0.0
  0
LINE
  5
16B
330
1F
100
AcDbEntity
  8
0
  6
Continuous
 62
     7
370
    35
100
AcDbLine
 10
484.8772934124
 20
288.0886821285
 30
0.0
 11
486.3601415602
 21
289.070157907
 31
0.0
  0
CIRCLE
  5
16C
330
1F
100
AcDbEntity
  8
0
  6
Continuous
 62
     7
370
    35
100
AcDbCircle
 10
484.7687345289
 20
289.8636041838
 30
0.0
 40
3.610000000000002
  0
LINE
  5
16D
330
1F
100
AcDbEntity
  8
0
  6
Continuous
 62
     7
370
    35
100
AcDbLine
 10
501.9247501919
 20
234.626910164
 30
0.0
 11
503.6996722471
 21
234.7354690475
 31
0.0
  0
LINE
  5
16E
330
1F
100
AcDbEntity
  8
0
  6
Continuous
 62
     7
370
    35
100
AcDbLine
 10
503.6996722471
 20
234.7354690475
 30
0.0
 11
504.4931185238
 21
236.3268760788
 31
0.0
  0
LINE
  5
16F
330
1F
100
AcDbEntity
  8
0
  6
Continuous
 62
     7
370
    35
100
AcDbLine
 10
504.4931185238
 20
236.3268760788
 30
0.0
 11
503.5116427453
 21
237.8097242266
 31
0.0
  0
LINE
  5
170
330
1F
100
AcDbEntity
  8
0
  6
Continuous
 62
     7
370
    35
100
AcDbLine
 10
501.7367206901
 20
237.7011653431
 30
0.0
 11
500.9432744134
 21
236.1097583118
 31
0.0
  0
LINE
  5
171
330
1F
100
AcDbEntity
  8
0
  6
Continuous
 62
     7
370
    35
100
AcDbLine
 10
500.9432744134
 20
236.1097583118
 30
0.0
 11
501.9247501919
 21
234.626910164
 31
0.0
  0
LINE
  5
172
330
1F
100
AcDbEntity
  8
0
  6
Continuous
 62
     7
370
    35
100
AcDbLine
 10
503.5116427453
 20
237.8097242266
 30
0.0
 11
501.7367206901
 21
237.7011653431
 31
0.0
  0
CIRCLE
  5
173
330
1F
100
AcDbEntity
  8
0
  6
Continuous
 62
     7
370
    35
100
AcDbCircle
 10
502.7181964686
 20
236.2183171953
 30
0.0
 40
3.609999999999977
  0
CIRCLE
  5
174
330
1F
100
AcDbEntity
  8
0
  6
Continuous
 62
     7
370
    35
100
AcDbCircle
 10
484.7687345289
 20
254.167779135
 30
0.0
 40
3.610000000000002
  0
LINE
  5
175
330
1F
100
AcDbEntity
  8
0
  6
Continuous
 62
     7
370
    35
100
AcDbLine
 10
483.2858863811
 20
255.1492549135
 30
0.0
 11
483.1773274976
 21
253.3743328582
 31
0.0
  0
LINE
  5
176
330
1F
100
AcDbEntity
  8
0
  6
Continuous
 62
     7
370
    35
100
AcDbLine
 10
483.1773274976
 20
253.3743328582
 30
0.0
 11
484.6601756454
 21
252.3928570797
 31
0.0
  0
LINE
  5
177
330
1F
100
AcDbEntity
  8
0
  6
Continuous
 62
     7
370
    35
100
AcDbLine
 10
486.3601415602
 20
254.9612254117
 30
0.0
 11
484.8772934124
 21
255.9427011902
 31
0.0
  0
LINE
  5
178
330
1F
100
AcDbEntity
  8
0
  6
Continuous
 62
     7
370
    35
100
AcDbLine
 10
484.8772934124
 20
255.9427011902
 30
0.0
 11
483.2858863811
 21
255.1492549135
 31
0.0
  0
LINE
  5
179
330
1F
100
AcDbEntity
  8
0
  6
Continuous
 62
     7
370
    35
100
AcDbLine
 10
484.6601756454
 20
252.3928570797
 30
0.0
 11
486.2515826767
 21
253.1863033565
 31
0.0
  0
LINE
  5
17A
330
1F
100
AcDbEntity
  8
0
  6
Continuous
 62
     7
370
    35
100
AcDbLine
 10
486.2515826767
 20
253.1863033565
 30
0.0
 11
486.3601415602
 21
254.9612254117
 31
0.0
  0
CIRCLE
  5
17B
330
1F
100
AcDbEntity
  8
0
  6
Continuous
 62
     7
370
    35
100
AcDbCircle
 10
538.4140215174
 20
307.8130661235
 30
0.0
 40
3.610000000000028
  0
LINE
  5
17C
330
1F
100
AcDbEntity
  8
0
  6
Continuous
 62
     7
370
    35
100
AcDbLine
 10
539.2074677941
 20
309.4044731548
 30
0.0
 11
537.4325457389
 21
309.2959142713
 31
0.0
  0
LINE
  5
17D
330
1F
100
AcDbEntity
  8
0
  6
Continuous
 62
     7
370
    35
100
AcDbLine
 10
537.6205752406
 20
306.2216590922
 30
0.0
 11
539.3954972959
 21
306.3302179756
 31
0.0
  0
LINE
  5
17E
330
1F
100
AcDbEntity
  8
0
  6
Continuous
 62
     7
370
    35
100
AcDbLine
 10
540.1889435726
 20
307.9216250069
 30
0.0
 11
539.2074677941
 21
309.4044731548
 31
0.0
  0
LINE
  5
17F
330
1F
100
AcDbEntity
  8
0
  6
Continuous
 62
     7
370
    35
100
AcDbLine
 10
536.6390994621
 20
307.70450724
 30
0.0
 11
537.6205752406
 21
306.2216590922
 31
0.0
  0
LINE
  5
180
330
1F
100
AcDbEntity
  8
0
  6
Continuous
 62
     7
370
    35
100
AcDbLine
 10
539.3954972959
 20
306.3302179756
 30
0.0
 11
540.1889435726
 21
307.9216250069
 31
0.0
  0
LINE
  5
181
330
1F
100
AcDbEntity
  8
0
  6
Continuous
 62
     7
370
    35
100
AcDbLine
 10
537.4325457389
 20
309.2959142713
 30
0.0
 11
536.6390994621
 21
307.70450724
 31
0.0
  0
LINE
  5
182
330
1F
100
AcDbEntity
  8
0
  6
Continuous
 62
     7
370
    35
100
AcDbLine
 10
501.156108993
 20
282.0156916594
 30
0.0
 11
502.0999236804
 21
282.0156916594
 31
0.0
  0
ARC
  5
183
330
1F
100
AcDbEntity
  8
0
  6
Continuous
 62
     7
370
    35
100
AcDbCircle
 10
520.566108993
 20
272.0156916594
 30
0.0
 40
57.00000000000005
100
AcDbArc
 50
221.7881329677
 51
228.2118670323
  0
LINE
  5
184
330
1F
100
AcDbEntity
  8
0
  6
Continuous
 62
     7
370
    35
100
AcDbLine
 10
478.066108993
 20
234.0321425888
 30
0.0
 11
478.066108993
 21
234.7866707214
 31
0.0
  0
ARC
  5
185
330
1F
100
AcDbEntity
  8
0
  6
Continuous
 62
     7
370
    35
100
AcDbCircle
 10
520.566108993
 20
272.0156916594
 30
0.0
 40
56.50000000000009
100
AcDbArc
 50
221.2176129686
 51
228.7823870314
  0
LINE
  5
186
330
1F
100
AcDbEntity
  8
0
  6
Continuous
 62
     7
370
    35
100
AcDbLine
 10
483.337088055
 20
229.5156916594
 30
0.0
 11
482.5825599224
 21
229.5156916594
 31
0.0
  0
ARC
  5
187
330
1F
100
AcDbEntity
  8
0
  6
Continuous
 62
     7
370
    35
100
AcDbCircle
 10
520.566108993
 20
272.0156916594
 30
0.0
 40
56.49999999999999
100
AcDbArc
 50
41.2176129686
 51
48.7823870314
  0
LINE
  5
188
330
1F
100
AcDbEntity
  8
0
  6
Continuous
 62
     7
370
    35
100
AcDbLine
 10
557.795129931
 20
314.5156916594
 30
0.0
 11
558.5496580636
 21
314.5156916594
 31
0.0
  0
ARC
  5
189
330
1F
100
AcDbEntity
  8
0
  6
Continuous
 62
     7
370
    35
100
AcDbCircle
 10
520.566108993
 20
272.0156916594
 30
0.0
 40
57.00000000000001
100
AcDbArc
 50
41.7881329677
 51
48.2118670323
  0
LINE
  5
18A
330
1F
100
AcDbEntity
  8
0
  6
Continuous
 62
     7
370
    35
100
AcDbLine
 10
563.066108993
 20
309.99924073
 30
0.0
 11
563.066108993
 21
309.2447125973
 31
0.0
  0
CIRCLE
  5
18B
330
1F
100
AcDbEntity
  8
0
  6
Continuous
 62
     7
370
    35
100
AcDbCircle
 10
520.566108993
 20
272.0156916594
 30
0.0
 40
29.99999999999989
  0
CIRCLE
  5
18C
330
1F
100
AcDbEntity
  8
0
  6
Continuous
 62
     7
370
    35
100
AcDbCircle
 10
520.566108993
 20
272.0156916594
 30
0.0
 40
30.5
  0
ARC
  5
18D
330
1F
100
AcDbEntity
  8
0
  6
Continuous
 62
     7
370
    35
100
AcDbCircle
 10
520.566108993
 20
272.0156916594
 30
0.0
 40
57.00000000000003
100
AcDbArc
 50
311.7881329677
 51
318.2118670323
  0
ARC
  5
18E
330
1F
100
AcDbEntity
  8
0
  6
Continuous
 62
     7
370
    35
100
AcDbCircle
 10
520.566108993
 20
272.0156916594
 30
0.0
 40
56.50000000000001
100
AcDbArc
 50
311.2176129686
 51
318.7823870314
  0
LINE
  5
18F
330
1F
100
AcDbEntity
  8
0
  6
Continuous
 62
     7
370
    35
100
AcDbLine
 10
563.066108993
 20
234.7866707214
 30
0.0
 11
563.066108993
 21
234.0321425888
 31
0.0
  0
LINE
  5
190
330
1F
100
AcDbEntity
  8
0
  6
Continuous
 62
     7
370
    35
100
AcDbLine
 10
558.5496580636
 20
229.5156916594
 30
0.0
 11
557.795129931
 21
229.5156916594
 31
0.0
  0
ARC
  5
191
330
1F
100
AcDbEntity
  8
0
  6
Continuous
 62
     7
370
    35
100
AcDbCircle
 10
520.566108993
 20
272.0156916594
 30
0.0
 40
57.00000000000005
100
AcDbArc
 50
131.7881329677
 51
138.2118670323
  0
ARC
  5
192
330
1F
100
AcDbEntity
  8
0
  6
Continuous
 62
     7
370
    35
100
AcDbCircle
 10
520.566108993
 20
272.0156916594
 30
0.0
 40
56.50000000000004
100
AcDbArc
 50
131.2176129686
 51
138.7823870314
  0
LINE
  5
193
330
1F
100
AcDbEntity
  8
0
  6
Continuous
 62
     7
370
    35
100
AcDbLine
 10
478.066108993
 20
309.2447125973
 30
0.0
 11
478.066108993
 21
309.99924073
 31
0.0
  0
LINE
  5
194
330
1F
100
AcDbEntity
  8
0
  6
Continuous
 62
     7
370
    35
100
AcDbLine
 10
482.5825599224
 20
314.5156916594
 30
0.0
 11
483.337088055
 21
314.5156916594
 31
0.0
  0
LINE
  5
195
330
1F
100
AcDbEntity
  8
0
  6
Continuous
 62
     7
370
    35
100
AcDbLine
 10
563.066108993
 20
309.2447125973
 30
0.0
 11
563.066108993
 21
234.7866707214
 31
0.0
  0
CIRCLE
  5
196
330
1F
100
AcDbEntity
  8
0
  6
Continuous
 62
     7
370
    35
100
AcDbCircle
 10
484.7687345289
 20
289.8636041838
 30
0.0
 40
3.999999999999943
  0
CIRCLE
  5
197
330
1F
100
AcDbEntity
  8
0
  6
Continuous
 62
     7
370
    35
100
AcDbCircle
 10
484.7687345289
 20
254.167779135
 30
0.0
 40
4.000000000000057
  0
LINE
  5
198
330
1F
100
AcDbEntity
  8
0
  6
Continuous
 62
     7
370
    35
100
AcDbLine
 10
478.066108993
 20
234.7866707214
 30
0.0
 11
478.066108993
 21
309.2447125973
 31
0.0
  0
CIRCLE
  5
199
330
1F
100
AcDbEntity
  8
0
  6
Continuous
 62
     7
370
    35
100
AcDbCircle
 10
555.5678946617
 20
237.0139059906
 30
0.0
 40
2.500000000000114
  0
LINE
  5
19A
330
1F
100
AcDbEntity
  8
0
  6
Continuous
 62
     7
370
    35
100
AcDbLine
 10
483.337088055
 20
314.5156916594
 30
0.0
 11
557.795129931
 21
314.5156916594
 31
0.0
  0
CIRCLE
  5
19B
330
1F
100
AcDbEntity
  8
0
  6
Continuous
 62
     7
370
    35
100
AcDbCircle
 10
485.5643233243
 20
237.0139059906
 30
0.0
 40
2.499999999999943
  0
LINE
  5
19C
330
1F
100
AcDbEntity
  8
0
  6
Continuous
 62
     7
370
    35
100
AcDbLine
 10
557.795129931
 20
229.5156916594
 30
0.0
 11
483.337088055
 21
229.5156916594
 31
0.0
  0
CIRCLE
  5
19D
330
1F
100
AcDbEntity
  8
0
  6
Continuous
 62
     7
370
    35
100
AcDbCircle
 10
485.5643233243
 20
307.0174773281
 30
0.0
 40
2.499999999999943
  0
CIRCLE
  5
19E
330
1F
100
AcDbEntity
  8
0
  6
Continuous
 62
     7
370
    35
100
AcDbCircle
 10
502.7181964686
 20
236.2183171953
 30
0.0
 40
4.0
  0
CIRCLE
  5
19F
330
1F
100
AcDbEntity
  8
0
  6
Continuous
 62
     7
370
    35
100
AcDbCircle
 10
555.5678946617
 20
307.0174773281
 30
0.0
 40
2.499999999999886
  0
CIRCLE
  5
1A0
330
1F
100
AcDbEntity
  8
0
  6
Continuous
 62
     7
370
    35
100
AcDbCircle
 10
502.7181964686
 20
307.8130661235
 30
0.0
 40
3.999999999999943
  0
CIRCLE
  5
1A1
330
1F
100
AcDbEntity
  8
0
  6
Continuous
 62
     7
370
    35
100
AcDbCircle
 10
556.3634834571
 20
254.167779135
 30
0.0
 40
4.0
  0
CIRCLE
  5
1A2
330
1F
100
AcDbEntity
  8
0
  6
Continuous
 62
     7
370
    35
100
AcDbCircle
 10
538.4140215174
 20
307.8130661235
 30
0.0
 40
4.0
  0
CIRCLE
  5
1A3
330
1F
100
AcDbEntity
  8
0
  6
Continuous
 62
     7
370
    35
100
AcDbCircle
 10
538.4140215174
 20
236.2183171953
 30
0.0
 40
4.0
  0
CIRCLE
  5
1A4
330
1F
100
AcDbEntity
  8
0
  6
Continuous
 62
     7
370
    35
100
AcDbCircle
 10
556.3634834571
 20
289.8636041838
 30
0.0
 40
3.999999999999886
  0
CIRCLE
  5
1A5
330
1F
100
AcDbEntity
  8
0
  6
Continuous
 62
     7
370
    35
100
AcDbCircle
 10
520.566108993
 20
272.0156916594
 30
0.0
 40
25.0
  0
LINE
  5
1A6
330
1F
100
AcDbEntity
  8
0
  6
Continuous
 62
     7
370
    35
100
AcDbLine
 10
512.5817492817
 20
271.5156916594
 30
0.0
 11
512.0808276187
 21
271.5156916594
 31
0.0
  0
ARC
  5
1A7
330
1F
100
AcDbEntity
  8
0
  6
Continuous
 62
     7
370
    35
100
AcDbCircle
 10
520.566108993
 20
272.0156916594
 30
0.0
 40
8.000000000000085
100
AcDbArc
 50
183.5833216985
 51
356.4166783015
  0
LINE
  5
1A8
330
1F
100
AcDbEntity
  8
0
  6
Continuous
 62
     7
370
    35
100
AcDbLine
 10
529.0513903672
 20
271.5156916594
 30
0.0
 11
528.5504687043
 21
271.5156916594
 31
0.0
  0
ARC
  5
1A9
330
1F
100
AcDbEntity
  8
0
  6
Continuous
 62
     7
370
    35
100
AcDbCircle
 10
520.566108993
 20
272.0156916594
 30
0.0
 40
8.50000000000007
100
AcDbArc
 50
183.3722866834
 51
356.6277133166
  0
ARC
  5
1AA
330
1F
100
AcDbEntity
  8
0
  6
Continuous
 62
     7
370
    35
100
AcDbCircle
 10
520.566108993
 20
272.0156916594
 30
0.0
 40
8.000000000000085
100
AcDbArc
 50
3.5833216985
 51
176.4166783015
  0
LINE
  5
1AB
330
1F
100
AcDbEntity
  8
0
  6
Continuous
 62
     7
370
    35
100
AcDbLine
 10
512.5817492817
 20
272.5156916594
 30
0.0
 11
512.0808276187
 21
272.5156916594
 31
0.0
  0
ARC
  5
1AC
330
1F
100
AcDbEntity
  8
0
  6
Continuous
 62
     7
370
    35
100
AcDbCircle
 10
520.566108993
 20
272.0156916594
 30
0.0
 40
8.50000000000007
100
AcDbArc
 50
3.3722866834
 51
176.6277133166
  0
LINE
  5
1AD
330
1F
100
AcDbEntity
  8
0
  6
Continuous
 62
     7
370
    35
100
AcDbLine
 10
529.0513903672
 20
272.5156916594
 30
0.0
 11
528.5504687043
 21
272.5156916594
 31
0.0
  0
LINE
  5
1AE
330
1F
100
AcDbEntity
  8
0
  6
Continuous
 62
     7
370
    35
100
AcDbLine
 10
528.5504687043
 20
271.5156916594
 30
0.0
 11
528.5504687043
 21
272.5156916594
 31
0.0
  0
LINE
  5
1AF
330
1F
100
AcDbEntity
  8
0
  6
Continuous
 62
     7
370
    35
100
AcDbLine
 10
533.566108993
 20
271.5156916594
 30
0.0
 11
533.566108993
 21
272.5156916594
 31
0.0
  0
LINE
  5
1B0
330
1F
100
AcDbEntity
  8
0
  6
Continuous
 62
     7
370
    35
100
AcDbLine
 10
533.566108993
 20
271.5156916594
 30
0.0
 11
529.0513903672
 21
271.5156916594
 31
0.0
  0
LINE
  5
1B1
330
1F
100
AcDbEntity
  8
0
  6
Continuous
 62
     7
370
    35
100
AcDbLine
 10
533.566108993
 20
272.5156916594
 30
0.0
 11
529.0513903672
 21
272.5156916594
 31
0.0
  0
ARC
  5
1B2
330
1F
100
AcDbEntity
  8
0
  6
Continuous
 62
     7
370
    35
100
AcDbCircle
 10
520.566108993
 20
272.0156916594
 30
0.0
 40
20.50000000000002
100
AcDbArc
 50
181.3975966282
 51
178.6024033718
  0
LINE
  5
1B3
330
1F
100
AcDbEntity
  8
0
  6
Continuous
 62
     7
370
    35
100
AcDbLine
 10
512.0808276187
 20
272.5156916594
 30
0.0
 11
500.0722074611
 21
272.5156916594
 31
0.0
  0
LINE
  5
1B4
330
1F
100
AcDbEntity
  8
0
  6
Continuous
 62
     7
370
    35
100
AcDbLine
 10
512.0808276187
 20
271.5156916594
 30
0.0
 11
500.0722074611
 21
271.5156916594
 31
0.0
  0
ARC
  5
1B5
330
1F
100
AcDbEntity
  8
0
  6
Continuous
 62
     7
370
    35
100
AcDbCircle
 10
520.566108993
 20
272.0156916594
 30
0.0
 40
21.00000000000003
100
AcDbArc
 50
181.3643141507
 51
178.6356858493
  0
LINE
  5
1B6
330
1F
100
AcDbEntity
  8
0
  6
Continuous
 62
     7
370
    35
100
AcDbLine
 10
500.0722074611
 20
272.5156916594
 30
0.0
 11
499.5720622178
 21
272.5156916594
 31
0.0
  0
LINE
  5
1B7
330
1F
100
AcDbEntity
  8
0
  6
Continuous
 62
     7
370
    35
100
AcDbLine
 10
499.5720622178
 20
271.5156916594
 30
0.0
 11
500.0722074611
 21
271.5156916594
 31
0.0
  0
LINE
  5
1B8
330
1F
100
AcDbEntity
  8
0
  6
Continuous
 62
     7
370
    35
100
AcDbLine
 10
512.5817492817
 20
272.5156916594
 30
0.0
 11
512.5817492817
 21
271.5156916594
 31
0.0
  0
LINE
  5
1B9
330
1F
100
AcDbEntity
  8
0
  6
Continuous
 62
     7
370
    35
100
AcDbLine
 10
499.5720622178
 20
272.5156916594
 30
0.0
 11
499.5720622178
 21
271.5156916594
 31
0.0
  0
CIRCLE
  5
1BA
330
1F
100
AcDbEntity
  8
0
  6
Continuous
 62
     7
370
    35
100
AcDbCircle
 10
520.566108993
 20
272.0156916594
 30
0.0
 40
22.19999999999993
  0
CIRCLE
  5
1BB
330
1F
100
AcDbEntity
  8
0
  6
Continuous
 62
     7
370
    35
100
AcDbCircle
 10
520.566108993
 20
272.0156916594
 30
0.0
 40
22.49999999999989
  0
LINE
  5
1BC
330
1F
100
AcDbEntity
  8
0
  6
Continuous
 62
     7
370
    35
100
AcDbLine
 10
504.0995510275
 20
227.2226352857
 30
0.0
 11
504.105603478
 21
227.229063793
 31
0.0
  0
LINE
  5
1BD
330
1F
100
AcDbEntity
  8
0
  6
Continuous
 62
     7
370
    35
100
AcDbLine
 10
501.983633338
 20
228.1628203846
 30
0.0
 11
501.9686241017
 21
228.1477983216
 31
0.0
  0
LINE
  5
1BE
330
1F
100
AcDbEntity
  8
0
  6
Continuous
 62
     7
370
    35
100
AcDbLine
 10
564.4489848376
 20
290.547407027
 30
0.0
 11
564.4489848376
 21
253.4839762918
 31
0.0
  0
LINE
  5
1BF
330
1F
100
AcDbEntity
  8
0
  6
Continuous
 62
     7
370
    35
100
AcDbLine
 10
565.3735237987
 20
255.6134679572
 30
0.0
 11
565.3735237987
 21
288.4179153615
 31
0.0
  0
LINE
  5
1C0
330
1F
100
AcDbEntity
  8
0
  6
Continuous
 62
     7
370
    35
100
AcDbLine
 10
565.3591653666
 20
255.5491336939
 30
0.0
 11
565.3527368594
 21
255.5551861444
 31
0.0
  0
LINE
  5
1C1
330
1F
100
AcDbEntity
  8
0
  6
Continuous
 62
     7
370
    35
100
AcDbLine
 10
564.4189802677
 20
253.4332160044
 30
0.0
 11
564.4340023308
 21
253.4182067681
 31
0.0
  0
LINE
  5
1C2
330
1F
100
AcDbEntity
  8
0
  6
Continuous
 62
     7
370
    35
100
AcDbLine
 10
564.4340023308
 20
290.6131765507
 30
0.0
 11
564.4189802677
 21
290.5981673144
 31
0.0
  0
LINE
  5
1C3
330
1F
100
AcDbEntity
  8
0
  6
Continuous
 62
     7
370
    35
100
AcDbLine
 10
565.3527368594
 20
288.4761971743
 30
0.0
 11
565.3591653666
 21
288.4822496249
 31
0.0
  0
LINE
  5
1C4
330
1F
100
AcDbEntity
  8
0
  6
Continuous
 62
     7
370
    35
100
AcDbLine
 10
501.9989851674
 20
228.1474769826
 30
0.0
 11
502.0343936254
 21
228.1328158148
 31
0.0
  0
SPLINE
  5
1C5
330
1F
100
AcDbEntity
  8
0
  6
Continuous
 62
     7
370
    35
100
AcDbSpline
210
0.0
220
0.0
230
1.0
 70
     8
 71
     3
 72
    14
 73
    10
 74
     0
 42
0.00000001
 43
0.00000001
 40
0.0
 40
0.0
 40
0.0
 40
0.0
 40
0.0000167897367392
 40
0.0000167897367392
 40
0.0000167897367392
 40
0.0000335786992853
 40
0.0000335786992853
 40
0.0000335786992853
 40
0.0000397063556849
 40
0.0000397063556849
 40
0.0000397063556849
 40
0.0000397063556849
 10
564.4340023307626
 20
290.6131765506531
 30
0.0
 10
564.4379613995463
 20
290.6171322389492
 30
0.0
 10
564.4412916310456
 20
290.6218264555775
 30
0.0
 10
564.4437177410452
 20
290.6268698359716
 30
0.0
 10
564.4461437852259
 20
290.6319130795417
 30
0.0
 10
564.4477327346557
 20
290.6374444494228
 30
0.0
 10
564.4483540088188
 20
290.6430062849551
 30
0.0
 10
564.4485835793672
 20
290.645061470426
 30
0.0
 10
564.4486857519614
 20
290.6471348675951
 30
0.0
 10
564.4486593895108
 20
290.6492026671448
 30
0.0
  0
ARC
  5
1C6
330
1F
100
AcDbEntity
  8
0
  6
Continuous
 62
     7
370
    35
100
AcDbCircle
 10
520.566108993
 20
272.0156916594
 30
0.0
 40
48.00000000000001
100
AcDbArc
 50
294.985440683
 51
297.6971598753
  0
SPLINE
  5
1C7
330
1F
100
AcDbEntity
  8
0
  6
Continuous
 62
     7
370
    35
100
AcDbSpline
210
0.0
220
0.0
230
1.0
 70
     8
 71
     3
 72
     8
 73
     4
 74
     0
 42
0.00000001
 43
0.00000001
 40
0.0
 40
0.0
 40
0.0
 40
0.0
 40
1.0
 40
1.0
 40
1.0
 40
1.0
 10
539.1996200007555
 20
228.1331412628519
 30
0.0
 10
539.7663847147584
 20
228.1403669665072
 30
0.0
 10
540.3268401510891
 20
228.2682924881535
 30
0.0
 10
540.8407304980799
 20
228.5077645331011
 30
0.0
  0
SPLINE
  5
1C8
330
1F
100
AcDbEntity
  8
0
  6
Continuous
 62
     7
370
    35
100
AcDbSpline
210
0.0
220
0.0
230
1.0
 70
     8
 71
     3
 72
    14
 73
    10
 74
     0
 42
0.00000001
 43
0.00000001
 40
0.0
 40
0.0
 40
0.0
 40
0.0
 40
0.0000167897367392
 40
0.0000167897367392
 40
0.0000167897367392
 40
0.0000335786992853
 40
0.0000335786992853
 40
0.0000335786992853
 40
0.0000397063556849
 40
0.0000397063556849
 40
0.0000397063556849
 40
0.0000397063556849
 10
539.1635938842637
 20
228.1477983216001
 30
0.0
 10
539.1675495725599
 20
228.1438392528165
 30
0.0
 10
539.1722437891882
 20
228.1405090213173
 30
0.0
 10
539.1772871695823
 20
228.1380829113176
 30
0.0
 10
539.1823304131524
 20
228.1356568671369
 30
0.0
 10
539.1878617830334
 20
228.1340679177071
 30
0.0
 10
539.1934236185657
 20
228.133446643544
 30
0.0
 10
539.1954788040366
 20
228.1332170729956
 30
0.0
 10
539.1975522012058
 20
228.1331149004013
 30
0.0
 10
539.1996200007555
 20
228.1331412628519
 30
0.0
  0
LINE
  5
1C9
330
1F
100
AcDbEntity
  8
0
  6
Continuous
 62
     7
370
    35
100
AcDbLine
 10
539.1635938843
 20
228.1477983216
 30
0.0
 11
539.148584648
 21
228.1628203846
 31
0.0
  0
LINE
  5
1CA
330
1F
100
AcDbEntity
  8
0
  6
Continuous
 62
     7
370
    35
100
AcDbLine
 10
539.148584648
 20
228.1628203846
 30
0.0
 11
539.1332328186
 21
228.1474769826
 31
0.0
  0
LINE
  5
1CB
330
1F
100
AcDbEntity
  8
0
  6
Continuous
 62
     7
370
    35
100
AcDbLine
 10
539.0978243606
 20
228.1328158148
 30
0.0
 11
539.1332328186
 21
228.1474769826
 31
0.0
  0
LINE
  5
1CC
330
1F
100
AcDbEntity
  8
0
  6
Continuous
 62
     7
370
    35
100
AcDbLine
 10
539.0978243606
 20
228.1328158148
 30
0.0
 11
502.0343936254
 21
228.1328158148
 31
0.0
  0
LINE
  5
1CD
330
1F
100
AcDbEntity
  8
0
  6
Continuous
 62
     7
370
    35
100
AcDbLine
 10
501.9989851674
 20
228.1474769826
 30
0.0
 11
501.983633338
 21
228.1628203846
 31
0.0
  0
SPLINE
  5
1CE
330
1F
100
AcDbEntity
  8
0
  6
Continuous
 62
     7
370
    35
100
AcDbSpline
210
0.0
220
0.0
230
1.0
 70
     8
 71
     3
 72
    14
 73
    10
 74
     0
 42
0.00000001
 43
0.00000001
 40
0.0
 40
0.0
 40
0.0
 40
0.0
 40
0.0000196931844756
 40
0.0000196931844756
 40
0.0000196931844756
 40
0.0000364081689853
 40
0.0000364081689853
 40
0.0000364081689853
 40
0.0000395840549447
 40
0.0000395840549447
 40
0.0000395840549447
 40
0.0000395840549447
 10
501.9325979852186
 20
228.1331412628519
 30
0.0
 10
501.9391618466274
 20
228.1330575799476
 30
0.0
 10
501.9458662062302
 20
228.134313477406
 30
0.0
 10
501.9519542440335
 20
228.1367684876151
 30
0.0
 10
501.9571496850373
 20
228.1388635568505
 30
0.0
 10
501.9620550295479
 20
228.1418852013041
 30
0.0
 10
501.966262805331
 20
228.1455833826522
 30
0.0
 10
501.9670734059128
 20
228.1462958131872
 30
0.0
 10
501.9678613318514
 20
228.1470348998865
 30
0.0
 10
501.9686241017104
 20
228.1477983216001
 30
0.0
  0
SPLINE
  5
1CF
330
1F
100
AcDbEntity
  8
0
  6
Continuous
 62
     7
370
    35
100
AcDbSpline
210
0.0
220
0.0
230
1.0
 70
     8
 71
     3
 72
     8
 73
     4
 74
     0
 42
0.00000001
 43
0.00000001
 40
0.0
 40
0.0
 40
0.0
 40
0.0
 40
1.0
 40
1.0
 40
1.0
 40
1.0
 10
500.2914874878942
 20
228.5077645331011
 30
0.0
 10
500.8053951911981
 20
228.2682844001405
 30
0.0
 10
501.3662355269193
 20
228.1403618381348
 30
0.0
 10
501.9325979852186
 20
228.1331412628519
 30
0.0
  0
ARC
  5
1D0
330
1F
100
AcDbEntity
  8
0
  6
Continuous
 62
     7
370
    35
100
AcDbCircle
 10
520.566108993
 20
272.0156916594
 30
0.0
 40
48.00000000000005
100
AcDbArc
 50
242.3028401247
 51
245.014559317
  0
ARC
  5
1D1
330
1F
100
AcDbEntity
  8
0
  6
Continuous
 62
     7
370
    35
100
AcDbCircle
 10
520.566108993
 20
272.0156916594
 30
0.0
 40
48.00000000000006
100
AcDbArc
 50
204.985440683
 51
207.6971598753
  0
SPLINE
  5
1D2
330
1F
100
AcDbEntity
  8
0
  6
Continuous
 62
     7
370
    35
100
AcDbSpline
210
0.0
220
0.0
230
1.0
 70
     8
 71
     3
 72
    10
 73
     6
 74
     0
 42
0.00000001
 43
0.00000001
 40
0.0
 40
0.0
 40
0.0
 40
0.0
 40
0.5
 40
0.5
 40
1.0
 40
1.0
 40
1.0
 40
1.0
 10
476.6835585964632
 20
253.3821806516071
 30
0.0
 10
476.6871892453466
 20
253.0974023415345
 30
0.0
 10
476.7215000048725
 20
252.8135251671382
 30
0.0
 10
476.8468924006364
 20
252.2656295284438
 30
0.0
 10
476.9378228178224
 20
251.9993522991199
 30
0.0
 10
477.0581818667124
 20
251.7410701542829
 30
0.0
  0
SPLINE
  5
1D3
330
1F
100
AcDbEntity
  8
0
  6
Continuous
 62
     7
370
    35
100
AcDbSpline
210
0.0
220
0.0
230
1.0
 70
     8
 71
     3
 72
    14
 73
    10
 74
     0
 42
0.00000001
 43
0.00000001
 40
0.0
 40
0.0
 40
0.0
 40
0.0
 40
0.0000196093510308
 40
0.0000196093510308
 40
0.0000196093510308
 40
0.0000363063740058
 40
0.0000363063740058
 40
0.0000363063740058
 40
0.0000395860233713
 40
0.0000395860233713
 40
0.0000395860233713
 40
0.0000395860233713
 10
476.6982156552115
 20
253.4182067680988
 30
0.0
 10
476.6935917131723
 20
253.4135867742554
 30
0.0
 10
476.6898232459118
 20
253.4079381488296
 30
0.0
 10
476.6873318798596
 20
253.4018951133103
 30
0.0
 10
476.685199180257
 20
253.3967220559672
 30
0.0
 10
476.6839297099469
 20
253.3911098968233
 30
0.0
 10
476.6836275732696
 20
253.3855226217005
 30
0.0
 10
476.6835674083799
 20
253.3844100199659
 30
0.0
 10
476.683544392294
 20
253.3832947883472
 30
0.0
 10
476.6835585964632
 20
253.3821806516071
 30
0.0
  0
LINE
  5
1D4
330
1F
100
AcDbEntity
  8
0
  6
Continuous
 62
     7
370
    35
100
AcDbLine
 10
476.6982156552
 20
253.4182067681
 30
0.0
 11
476.7132377182
 21
253.4332160044
 31
0.0
  0
LINE
  5
1D5
330
1F
100
AcDbEntity
  8
0
  6
Continuous
 62
     7
370
    35
100
AcDbLine
 10
476.7132377182
 20
253.4332160044
 30
0.0
 11
476.6978943162
 21
253.4485678337
 31
0.0
  0
LINE
  5
1D6
330
1F
100
AcDbEntity
  8
0
  6
Continuous
 62
     7
370
    35
100
AcDbLine
 10
476.6832331484
 20
253.4839762918
 30
0.0
 11
476.6978943162
 21
253.4485678337
 31
0.0
  0
LINE
  5
1D7
330
1F
100
AcDbEntity
  8
0
  6
Continuous
 62
     7
370
    35
100
AcDbLine
 10
476.6832331484
 20
253.4839762918
 30
0.0
 11
476.6832331484
 21
290.547407027
 31
0.0
  0
LINE
  5
1D8
330
1F
100
AcDbEntity
  8
0
  6
Continuous
 62
     7
370
    35
100
AcDbLine
 10
476.6978943162
 20
290.582815485
 30
0.0
 11
476.6832331484
 21
290.547407027
 31
0.0
  0
LINE
  5
1D9
330
1F
100
AcDbEntity
  8
0
  6
Continuous
 62
     7
370
    35
100
AcDbLine
 10
476.6978943162
 20
290.582815485
 30
0.0
 11
476.7132377182
 21
290.5981673144
 31
0.0
  0
LINE
  5
1DA
330
1F
100
AcDbEntity
  8
0
  6
Continuous
 62
     7
370
    35
100
AcDbLine
 10
476.7132377182
 20
290.5981673144
 30
0.0
 11
476.6982156552
 21
290.6131765507
 31
0.0
  0
SPLINE
  5
1DB
330
1F
100
AcDbEntity
  8
0
  6
Continuous
 62
     7
370
    35
100
AcDbSpline
210
0.0
220
0.0
230
1.0
 70
     8
 71
     3
 72
    14
 73
    10
 74
     0
 42
0.00000001
 43
0.00000001
 40
0.0
 40
0.0
 40
0.0
 40
0.0
 40
0.0000196141847359
 40
0.0000196141847359
 40
0.0000196141847359
 40
0.0000363318994045
 40
0.0000363318994045
 40
0.0000363318994045
 40
0.0000395873546621
 40
0.0000395873546621
 40
0.0000395873546621
 40
0.0000395873546621
 10
476.6835585964632
 20
290.6492026671439
 30
0.0
 10
476.6834752492551
 20
290.642665136842
 30
0.0
 10
476.6847203572657
 20
290.6359887003294
 30
0.0
 10
476.6871557496998
 20
290.6299211544583
 30
0.0
 10
476.6892424525391
 20
290.6247223351547
 30
0.0
 10
476.6922561958741
 20
290.6198121193886
 30
0.0
 10
476.6959475996166
 20
290.6155983812263
 30
0.0
 10
476.6966764028063
 20
290.6147664522292
 30
0.0
 10
476.6974332534977
 20
290.6139582843051
 30
0.0
 10
476.6982156552115
 20
290.6131765506523
 30
0.0
  0
SPLINE
  5
1DC
330
1F
100
AcDbEntity
  8
0
  6
Continuous
 62
     7
370
    35
100
AcDbSpline
210
0.0
220
0.0
230
1.0
 70
     8
 71
     3
 72
    10
 73
     6
 74
     0
 42
0.00000001
 43
0.00000001
 40
0.0
 40
0.0
 40
0.0
 40
0.0
 40
0.5
 40
0.5
 40
1.0
 40
1.0
 40
1.0
 40
1.0
 10
477.0581818667124
 20
292.2903131644686
 30
0.0
 10
476.9378200749015
 20
292.0320251335143
 30
0.0
 10
476.845452565647
 20
291.761041118086
 30
0.0
 10
476.7206867601192
 20
291.2126974208319
 30
0.0
 10
476.6871835311141
 20
290.9335327682274
 30
0.0
 10
476.6835585964632
 20
290.6492026671439
 30
0.0
  0
ARC
  5
1DD
330
1F
100
AcDbEntity
  8
0
  6
Continuous
 62
     7
370
    35
100
AcDbCircle
 10
520.566108993
 20
272.0156916594
 30
0.0
 40
48.00000000000008
100
AcDbArc
 50
152.3028401247
 51
155.014559317
  0
SPLINE
  5
1DE
330
1F
100
AcDbEntity
  8
0
  6
Continuous
 62
     7
370
    35
100
AcDbSpline
210
0.0
220
0.0
230
1.0
 70
     8
 71
     3
 72
     8
 73
     4
 74
     0
 42
0.00000001
 43
0.00000001
 40
0.0
 40
0.0
 40
0.0
 40
0.0
 40
1.0
 40
1.0
 40
1.0
 40
1.0
 10
501.9325979852186
 20
315.8982420558996
 30
0.0
 10
501.3658332712158
 20
315.8910163522443
 30
0.0
 10
500.8053778348851
 20
315.7630908305981
 30
0.0
 10
500.2914874878942
 20
315.5236187856504
 30
0.0
  0
SPLINE
  5
1DF
330
1F
100
AcDbEntity
  8
0
  6
Continuous
 62
     7
370
    35
100
AcDbSpline
210
0.0
220
0.0
230
1.0
 70
     8
 71
     3
 72
    14
 73
    10
 74
     0
 42
0.00000001
 43
0.00000001
 40
0.0
 40
0.0
 40
0.0
 40
0.0
 40
0.0000167870118481
 40
0.0000167870118481
 40
0.0000167870118481
 40
0.0000335732500324
 40
0.0000335732500324
 40
0.0000335732500324
 40
0.0000397064056912
 40
0.0000397064056912
 40
0.0000397064056912
 40
0.0000397064056912
 10
501.9686241017104
 20
315.8835849971514
 30
0.0
 10
501.9646690554028
 20
315.8875434233978
 30
0.0
 10
501.9599757350692
 20
315.8908732141787
 30
0.0
 10
501.9549333072623
 20
315.89329920912
 30
0.0
 10
501.9498910161822
 20
315.8957251382796
 30
0.0
 10
501.9443607253669
 20
315.8973142738469
 30
0.0
 10
501.9387998610405
 20
315.8979360612448
 30
0.0
 10
501.9367428732542
 20
315.8981660630949
 30
0.0
 10
501.9346676236868
 20
315.8982684417946
 30
0.0
 10
501.9325979852186
 20
315.8982420558996
 30
0.0
  0
LINE
  5
1E0
330
1F
100
AcDbEntity
  8
0
  6
Continuous
 62
     7
370
    35
100
AcDbLine
 10
501.9686241017
 20
315.8835849972
 30
0.0
 11
501.983633338
 21
315.8685629341
 31
0.0
  0
LINE
  5
1E1
330
1F
100
AcDbEntity
  8
0
  6
Continuous
 62
     7
370
    35
100
AcDbLine
 10
501.983633338
 20
315.8685629341
 30
0.0
 11
501.9989851674
 21
315.8839063361
 31
0.0
  0
LINE
  5
1E2
330
1F
100
AcDbEntity
  8
0
  6
Continuous
 62
     7
370
    35
100
AcDbLine
 10
502.0343936254
 20
315.898567504
 30
0.0
 11
501.9989851674
 21
315.8839063361
 31
0.0
  0
LINE
  5
1E3
330
1F
100
AcDbEntity
  8
0
  6
Continuous
 62
     7
370
    35
100
AcDbLine
 10
502.0343936254
 20
315.898567504
 30
0.0
 11
510.066108993
 21
315.898567504
 31
0.0
  0
LINE
  5
1E4
330
1F
100
AcDbEntity
  8
0
  6
Continuous
 62
     7
370
    35
100
AcDbLine
 10
531.066108993
 20
315.898567504
 30
0.0
 11
539.0978243606
 21
315.898567504
 31
0.0
  0
LINE
  5
1E5
330
1F
100
AcDbEntity
  8
0
  6
Continuous
 62
     7
370
    35
100
AcDbLine
 10
539.1332328186
 20
315.8839063361
 30
0.0
 11
539.0978243606
 21
315.898567504
 31
0.0
  0
LINE
  5
1E6
330
1F
100
AcDbEntity
  8
0
  6
Continuous
 62
     7
370
    35
100
AcDbLine
 10
539.1332328186
 20
315.8839063361
 30
0.0
 11
539.148584648
 21
315.8685629341
 31
0.0
  0
LINE
  5
1E7
330
1F
100
AcDbEntity
  8
0
  6
Continuous
 62
     7
370
    35
100
AcDbLine
 10
539.148584648
 20
315.8685629341
 30
0.0
 11
539.1635938843
 21
315.8835849972
 31
0.0
  0
SPLINE
  5
1E8
330
1F
100
AcDbEntity
  8
0
  6
Continuous
 62
     7
370
    35
100
AcDbSpline
210
0.0
220
0.0
230
1.0
 70
     8
 71
     3
 72
    14
 73
    10
 74
     0
 42
0.00000001
 43
0.00000001
 40
0.0
 40
0.0
 40
0.0
 40
0.0
 40
0.0000168024516136
 40
0.0000168024516136
 40
0.0000168024516136
 40
0.0000336056860749
 40
0.0000336056860749
 40
0.0000336056860749
 40
0.0000397069546505
 40
0.0000397069546505
 40
0.0000397069546505
 40
0.0000397069546505
 10
539.1996200007555
 20
315.8982420558996
 30
0.0
 10
539.194019638668
 20
315.8983134551166
 30
0.0
 10
539.1883296941919
 20
315.8974195896508
 30
0.0
 10
539.1830212453534
 20
315.8956336657197
 30
0.0
 10
539.177712650732
 20
315.8938476927427
 30
0.0
 10
539.1726391177882
 20
315.8911202245192
 30
0.0
 10
539.1682217712414
 20
315.8876766906056
 30
0.0
 10
539.1665978047924
 20
315.8864107307171
 30
0.0
 10
539.165049270746
 20
315.8850416273908
 30
0.0
 10
539.1635938842638
 20
315.8835849971513
 30
0.0
  0
SPLINE
  5
1E9
330
1F
100
AcDbEntity
  8
0
  6
Continuous
 62
     7
370
    35
100
AcDbSpline
210
0.0
220
0.0
230
1.0
 70
     8
 71
     3
 72
     8
 73
     4
 74
     0
 42
0.00000001
 43
0.00000001
 40
0.0
 40
0.0
 40
0.0
 40
0.0
 40
1.0
 40
1.0
 40
1.0
 40
1.0
 10
540.8407304980799
 20
315.5236187856504
 30
0.0
 10
540.326822794776
 20
315.763098918611
 30
0.0
 10
539.7659824590548
 20
315.8910214806166
 30
0.0
 10
539.1996200007555
 20
315.8982420558996
 30
0.0
  0
SPLINE
  5
1EA
330
1F
100
AcDbEntity
  8
0
  6
Continuous
 62
     7
370
    35
100
AcDbSpline
210
0.0
220
0.0
230
1.0
 70
     8
 71
     3
 72
    10
 73
     6
 74
     0
 42
0.00000001
 43
0.00000001
 40
0.0
 40
0.0
 40
0.0
 40
0.0
 40
0.5
 40
0.5
 40
1.0
 40
1.0
 40
1.0
 40
1.0
 10
564.4486593895108
 20
290.6492026671448
 30
0.0
 10
564.4450287406274
 20
290.9339809772174
 30
0.0
 10
564.4107179811016
 20
291.2178581516135
 30
0.0
 10
564.2853255853377
 20
291.7657537903079
 30
0.0
 10
564.1943951681517
 20
292.0320310196316
 30
0.0
 10
564.0740361192617
 20
292.2903131644686
 30
0.0
  0
LINE
  5
1EB
330
1F
100
AcDbEntity
  8
0
  6
Continuous
 62
     7
370
    35
100
AcDbLine
 10
564.4489848376
 20
290.547407027
 30
0.0
 11
564.4343236697
 21
290.582815485
 31
0.0
  0
LINE
  5
1EC
330
1F
100
AcDbEntity
  8
0
  6
Continuous
 62
     7
370
    35
100
AcDbLine
 10
564.4343236697
 20
253.4485678337
 30
0.0
 11
564.4489848376
 21
253.4839762918
 31
0.0
  0
LINE
  5
1ED
330
1F
100
AcDbEntity
  8
0
  6
Continuous
 62
     7
370
    35
100
AcDbLine
 10
564.4343236697
 20
253.4485678337
 30
0.0
 11
564.4189802677
 21
253.4332160044
 31
0.0
  0
SPLINE
  5
1EE
330
1F
100
AcDbEntity
  8
0
  6
Continuous
 62
     7
370
    35
100
AcDbSpline
210
0.0
220
0.0
230
1.0
 70
     8
 71
     3
 72
    14
 73
    10
 74
     0
 42
0.00000001
 43
0.00000001
 40
0.0
 40
0.0
 40
0.0
 40
0.0
 40
0.0000168024516136
 40
0.0000168024516136
 40
0.0000168024516136
 40
0.0000336056860748
 40
0.0000336056860748
 40
0.0000336056860748
 40
0.0000397069546505
 40
0.0000397069546505
 40
0.0000397069546505
 40
0.0000397069546505
 10
564.4486593895108
 20
253.382180651608
 30
0.0
 10
564.4487307887279
 20
253.3877810136954
 30
0.0
 10
564.447836923262
 20
253.3934709581715
 30
0.0
 10
564.446050999331
 20
253.39877940701
 30
0.0
 10
564.4442650263541
 20
253.4040880016314
 30
0.0
 10
564.4415375581306
 20
253.4091615345752
 30
0.0
 10
564.438094024217
 20
253.413578881122
 30
0.0
 10
564.4368280643284
 20
253.415202847571
 30
0.0
 10
564.435458961002
 20
253.4167513816175
 30
0.0
 10
564.4340023307627
 20
253.4182067680997
 30
0.0
  0
SPLINE
  5
1EF
330
1F
100
AcDbEntity
  8
0
  6
Continuous
 62
     7
370
    35
100
AcDbSpline
210
0.0
220
0.0
230
1.0
 70
     8
 71
     3
 72
    10
 73
     6
 74
     0
 42
0.00000001
 43
0.00000001
 40
0.0
 40
0.0
 40
0.0
 40
0.0
 40
0.5
 40
0.5
 40
1.0
 40
1.0
 40
1.0
 40
1.0
 10
564.0740361192617
 20
251.7410701542829
 30
0.0
 10
564.1943979110727
 20
251.9993581852374
 30
0.0
 10
564.2867654203271
 20
252.2703422006657
 30
0.0
 10
564.411531225855
 20
252.8186858979199
 30
0.0
 10
564.44503445486
 20
253.0978505505244
 30
0.0
 10
564.4486593895108
 20
253.382180651608
 30
0.0
  0
ARC
  5
1F0
330
1F
100
AcDbEntity
  8
0
  6
Continuous
 62
     7
370
    35
100
AcDbCircle
 10
520.566108993
 20
272.0156916594
 30
0.0
 40
48.00000000000002
100
AcDbArc
 50
114.985440683
 51
117.6971598753
  0
ARC
  5
1F1
330
1F
100
AcDbEntity
  8
0
  6
Continuous
 62
     7
370
    35
100
AcDbCircle
 10
520.566108993
 20
272.0156916594
 30
0.0
 40
48.00000000000003
100
AcDbArc
 50
332.3028401247
 51
335.014559317
  0
ARC
  5
1F2
330
1F
100
AcDbEntity
  8
0
  6
Continuous
 62
     7
370
    35
100
AcDbCircle
 10
520.566108993
 20
272.0156916594
 30
0.0
 40
47.99999999999997
100
AcDbArc
 50
62.3028401247
 51
65.014559317
  0
ARC
  5
1F3
330
1F
100
AcDbEntity
  8
0
  6
Continuous
 62
     7
370
    35
100
AcDbCircle
 10
520.566108993
 20
272.0156916594
 30
0.0
 40
48.00000000000001
100
AcDbArc
 50
24.985440683
 51
27.6971598753
  0
LINE
  5
1F4
330
1F
100
AcDbEntity
  8
0
  6
Continuous
 62
     7
370
    35
100
AcDbLine
 10
564.4189802677
 20
290.5981673144
 30
0.0
 11
564.4343236697
 21
290.582815485
 31
0.0
  0
LINE
  5
1F5
330
1F
100
AcDbEntity
  8
0
  6
Continuous
 62
     7
370
    35
100
AcDbLine
 10
475.7794811266
 20
255.5551861444
 30
0.0
 11
475.7730526193
 21
255.5491336939
 31
0.0
  0
LINE
  5
1F6
330
1F
100
AcDbEntity
  8
0
  6
Continuous
 62
     7
370
    35
100
AcDbLine
 10
537.0266145079
 20
227.229063793
 30
0.0
 11
537.0326669585
 21
227.2226352857
 31
0.0
  0
LINE
  5
1F7
330
1F
100
AcDbEntity
  8
0
  6
Continuous
 62
     7
370
    35
100
AcDbLine
 10
475.7586941872
 20
288.4179153615
 30
0.0
 11
475.7586941872
 21
255.6134679572
 31
0.0
  0
LINE
  5
1F8
330
1F
100
AcDbEntity
  8
0
  6
Continuous
 62
     7
370
    35
100
AcDbLine
 10
475.7730526193
 20
288.4822496249
 30
0.0
 11
475.7794811266
 21
288.4761971743
 31
0.0
  0
ARC
  5
1F9
330
1F
100
AcDbEntity
  8
0
  6
Continuous
 62
     7
370
    35
100
AcDbCircle
 10
565.3236129151
 20
255.613431939
 30
0.0
 40
0.0499108966497285
100
AcDbArc
 50
336.5321358427
 51
0.041347582
  0
SPLINE
  5
1FA
330
1F
100
AcDbEntity
  8
0
  6
Continuous
 62
     7
370
    35
100
AcDbSpline
210
0.0
220
0.0
230
1.0
 70
     8
 71
     3
 72
    10
 73
     6
 74
     0
 42
0.00000001
 43
0.00000001
 40
0.0
 40
0.0
 40
0.0
 40
0.0
 40
0.5
 40
0.5
 40
1.0
 40
1.0
 40
1.0
 40
1.0
 10
537.0680926934155
 20
227.2077183418237
 30
0.0
 10
537.3254108413007
 20
227.2110536629207
 30
0.0
 10
537.5767066309589
 20
227.2392426185309
 30
0.0
 10
538.0684133724604
 20
227.3405411024871
 30
0.0
 10
538.3059999827093
 20
227.4135107826573
 30
0.0
 10
538.5298523114794
 20
227.5038513695459
 30
0.0
  0
ARC
  5
1FB
330
1F
100
AcDbEntity
  8
0
  6
Continuous
 62
     7
370
    35
100
AcDbCircle
 10
520.566108993
 20
272.0156916594
 30
0.0
 40
48.00000000000001
100
AcDbArc
 50
291.9776354452
 51
294.985440683
  0
SPLINE
  5
1FC
330
1F
100
AcDbEntity
  8
0
  6
Continuous
 62
     7
370
    35
100
AcDbSpline
210
0.0
220
0.0
230
1.0
 70
     8
 71
     3
 72
    10
 73
     6
 74
     0
 42
0.00000001
 43
0.00000001
 40
0.0
 40
0.0
 40
0.0
 40
0.0
 40
0.5
 40
0.5
 40
1.0
 40
1.0
 40
1.0
 40
1.0
 10
538.5298523114793
 20
316.5275319492056
 30
0.0
 10
538.3059257708661
 20
316.6179024859343
 30
0.0
 10
538.0723827713335
 20
316.6896745286882
 30
0.0
 10
537.5835095413507
 20
316.7910815150468
 30
0.0
 10
537.3261065054461
 20
316.8203206387315
 30
0.0
 10
537.0680926934155
 20
316.8236649769278
 30
0.0
  0
ARC
  5
1FD
330
1F
100
AcDbEntity
  8
0
  6
Continuous
 62
     7
370
    35
100
AcDbCircle
 10
520.566108993
 20
272.0156916594
 30
0.0
 40
47.99999999999996
100
AcDbArc
 50
65.014559317
 51
68.0223645548
  0
LINE
  5
1FE
330
1F
100
AcDbEntity
  8
0
  6
Continuous
 62
     7
370
    35
100
AcDbLine
 10
504.1638852908
 20
227.2082768536
 30
0.0
 11
536.9683326951
 21
227.2082768536
 31
0.0
  0
LINE
  5
1FF
330
1F
100
AcDbEntity
  8
0
  6
Continuous
 62
     7
370
    35
100
AcDbLine
 10
537.0326669585
 20
316.808748033
 30
0.0
 11
537.0266145079
 21
316.8023195258
 31
0.0
  0
LINE
  5
200
330
1F
100
AcDbEntity
  8
0
  6
Continuous
 62
     7
370
    35
100
AcDbLine
 10
504.105603478
 20
316.8023195258
 30
0.0
 11
504.0995510275
 21
316.808748033
 31
0.0
  0
SPLINE
  5
201
330
1F
100
AcDbEntity
  8
0
  6
Continuous
 62
     7
370
    35
100
AcDbSpline
210
0.0
220
0.0
230
1.0
 70
     8
 71
     3
 72
    10
 73
     6
 74
     0
 42
0.00000001
 43
0.00000001
 40
0.0
 40
0.0
 40
0.0
 40
0.0
 40
0.5
 40
0.5
 40
1.0
 40
1.0
 40
1.0
 40
1.0
 10
504.0641252925586
 20
316.8236649769278
 30
0.0
 10
503.8068071446733
 20
316.8203296558308
 30
0.0
 10
503.5555113550152
 20
316.7921407002206
 30
0.0
 10
503.0638046135138
 20
316.6908422162644
 30
0.0
 10
502.8262180032648
 20
316.6178725360942
 30
0.0
 10
502.6023656744947
 20
316.5275319492056
 30
0.0
  0
ARC
  5
202
330
1F
100
AcDbEntity
  8
0
  6
Continuous
 62
     7
370
    35
100
AcDbCircle
 10
520.566108993
 20
272.0156916594
 30
0.0
 40
48.00000000000002
100
AcDbArc
 50
111.9776354452
 51
114.985440683
  0
SPLINE
  5
203
330
1F
100
AcDbEntity
  8
0
  6
Continuous
 62
     7
370
    35
100
AcDbSpline
210
0.0
220
0.0
230
1.0
 70
     8
 71
     3
 72
    10
 73
     6
 74
     0
 42
0.00000001
 43
0.00000001
 40
0.0
 40
0.0
 40
0.0
 40
0.0
 40
0.5
 40
0.5
 40
1.0
 40
1.0
 40
1.0
 40
1.0
 10
502.6023656744947
 20
227.5038513695459
 30
0.0
 10
502.826292215108
 20
227.4134808328172
 30
0.0
 10
503.0598352146406
 20
227.3417087900633
 30
0.0
 10
503.5487084446233
 20
227.2403018037047
 30
0.0
 10
503.8061114805279
 20
227.2110626800201
 30
0.0
 10
504.0641252925586
 20
227.2077183418237
 30
0.0
  0
ARC
  5
204
330
1F
100
AcDbEntity
  8
0
  6
Continuous
 62
     7
370
    35
100
AcDbCircle
 10
520.566108993
 20
272.0156916594
 30
0.0
 40
48.00000000000003
100
AcDbArc
 50
245.014559317
 51
248.0223645548
  0
SPLINE
  5
205
330
1F
100
AcDbEntity
  8
0
  6
Continuous
 62
     7
370
    35
100
AcDbSpline
210
0.0
220
0.0
230
1.0
 70
     8
 71
     3
 72
    10
 73
     6
 74
     0
 42
0.00000001
 43
0.00000001
 40
0.0
 40
0.0
 40
0.0
 40
0.0
 40
0.5
 40
0.5
 40
1.0
 40
1.0
 40
1.0
 40
1.0
 10
565.374082310539
 20
288.5176753598048
 30
0.0
 10
565.3707469894421
 20
288.77499350769
 30
0.0
 10
565.3425580338318
 20
289.0262892973481
 30
0.0
 10
565.2412595498756
 20
289.5179960388493
 30
0.0
 10
565.1682898697055
 20
289.7555826490981
 30
0.0
 10
565.0779492828169
 20
289.9794349778681
 30
0.0
  0
ARC
  5
206
330
1F
100
AcDbEntity
  8
0
  6
Continuous
 62
     7
370
    35
100
AcDbCircle
 10
520.566108993
 20
272.0156916594
 30
0.0
 40
48.00000000000001
100
AcDbArc
 50
21.9776354452
 51
24.985440683
  0
ARC
  5
207
330
1F
100
AcDbEntity
  8
0
  6
Continuous
 62
     7
370
    35
100
AcDbCircle
 10
475.8086045163
 20
255.613431824
 30
0.0
 40
0.0499103421355653
100
AcDbArc
 50
179.9585199583
 51
203.467996617
  0
ARC
  5
208
330
1F
100
AcDbEntity
  8
0
  6
Continuous
 62
     7
370
    35
100
AcDbCircle
 10
475.8086050709
 20
288.4179513798
 30
0.0
 40
0.0499108966651876
100
AcDbArc
 50
156.5321358464
 51
180.0413475783
  0
LINE
  5
209
330
1F
100
AcDbEntity
  8
0
  6
Continuous
 62
     7
370
    35
100
AcDbLine
 10
536.9683326951
 20
316.8231064651
 30
0.0
 11
504.1638852908
 21
316.8231064651
 31
0.0
  0
ARC
  5
20A
330
1F
100
AcDbEntity
  8
0
  6
Continuous
 62
     7
370
    35
100
AcDbCircle
 10
565.3236134697
 20
288.4179514948
 30
0.0
 40
0.0499103421192575
100
AcDbArc
 50
359.9585199544
 51
23.467996621
  0
SPLINE
  5
20B
330
1F
100
AcDbEntity
  8
0
  6
Continuous
 62
     7
370
    35
100
AcDbSpline
210
0.0
220
0.0
230
1.0
 70
     8
 71
     3
 72
    10
 73
     6
 74
     0
 42
0.00000001
 43
0.00000001
 40
0.0
 40
0.0
 40
0.0
 40
0.0
 40
0.5
 40
0.5
 40
1.0
 40
1.0
 40
1.0
 40
1.0
 10
565.0779492828169
 20
254.0519483408834
 30
0.0
 10
565.1683198195457
 20
254.2758748814968
 30
0.0
 10
565.2400918622996
 20
254.5094178810294
 30
0.0
 10
565.3414988486581
 20
254.9982911110125
 30
0.0
 10
565.3707379723428
 20
255.2556941469172
 30
0.0
 10
565.374082310539
 20
255.5137079589479
 30
0.0
  0
ARC
  5
20C
330
1F
100
AcDbEntity
  8
0
  6
Continuous
 62
     7
370
    35
100
AcDbCircle
 10
520.566108993
 20
272.0156916594
 30
0.0
 40
48.00000000000003
100
AcDbArc
 50
335.014559317
 51
338.0223645548
  0
SPLINE
  5
20D
330
1F
100
AcDbEntity
  8
0
  6
Continuous
 62
     7
370
    35
100
AcDbSpline
210
0.0
220
0.0
230
1.0
 70
     8
 71
     3
 72
    10
 73
     6
 74
     0
 42
0.00000001
 43
0.00000001
 40
0.0
 40
0.0
 40
0.0
 40
0.0
 40
0.5
 40
0.5
 40
1.0
 40
1.0
 40
1.0
 40
1.0
 10
475.7581356754351
 20
255.5137079589471
 30
0.0
 10
475.7614709965321
 20
255.2563898110618
 30
0.0
 10
475.7896599521422
 20
255.0050940214037
 30
0.0
 10
475.8909584360985
 20
254.5133872799023
 30
0.0
 10
475.9639281162686
 20
254.2758006696535
 30
0.0
 10
476.0542687031572
 20
254.0519483408834
 30
0.0
  0
ARC
  5
20E
330
1F
100
AcDbEntity
  8
0
  6
Continuous
 62
     7
370
    35
100
AcDbCircle
 10
520.566108993
 20
272.0156916594
 30
0.0
 40
48.00000000000006
100
AcDbArc
 50
201.9776354452
 51
204.985440683
  0
SPLINE
  5
20F
330
1F
100
AcDbEntity
  8
0
  6
Continuous
 62
     7
370
    35
100
AcDbSpline
210
0.0
220
0.0
230
1.0
 70
     8
 71
     3
 72
    10
 73
     6
 74
     0
 42
0.00000001
 43
0.00000001
 40
0.0
 40
0.0
 40
0.0
 40
0.0
 40
0.5
 40
0.5
 40
1.0
 40
1.0
 40
1.0
 40
1.0
 10
476.0542687031572
 20
289.9794349778681
 30
0.0
 10
475.9638981664284
 20
289.7555084372548
 30
0.0
 10
475.8921261236746
 20
289.5219654377221
 30
0.0
 10
475.7907191373159
 20
289.0330922077393
 30
0.0
 10
475.7614800136313
 20
288.7756891718347
 30
0.0
 10
475.7581356754351
 20
288.5176753598039
 30
0.0
  0
ARC
  5
210
330
1F
100
AcDbEntity
  8
0
  6
Continuous
 62
     7
370
    35
100
AcDbCircle
 10
520.566108993
 20
272.0156916594
 30
0.0
 40
48.00000000000006
100
AcDbArc
 50
155.014559317
 51
158.0223645548
  0
SPLINE
  5
211
330
1F
100
AcDbEntity
  8
0
  6
Continuous
 62
     7
370
    35
100
AcDbSpline
210
0.0
220
0.0
230
1.0
 70
     8
 71
     3
 72
    14
 73
    10
 74
     0
 42
0.00000001
 43
0.00000001
 40
0.0
 40
0.0
 40
0.0
 40
0.0
 40
0.0000198816034976
 40
0.0000198816034976
 40
0.0000198816034976
 40
0.0000325232410928
 40
0.0000325232410928
 40
0.0000325232410928
 40
0.0000426092552237
 40
0.0000426092552237
 40
0.0000426092552237
 40
0.0000426092552237
 10
504.0995510274823
 20
227.2226352857342
 30
0.0
 10
504.0958784489418
 20
227.2187345190047
 30
0.0
 10
504.0912294987579
 20
227.2151566785637
 30
0.0
 10
504.0857644750827
 20
227.2125058945736
 30
0.0
 10
504.0822609203235
 20
227.2108065118415
 30
0.0
 10
504.078338042676
 20
227.2094571057476
 30
0.0
 10
504.0742479233099
 20
227.2086442026587
 30
0.0
 10
504.070972524063
 20
227.207993223573
 30
0.0
 10
504.0675270420178
 20
227.2076742488329
 30
0.0
 10
504.0641252925586
 20
227.2077183418237
 30
0.0
  0
SPLINE
  5
212
330
1F
100
AcDbEntity
  8
0
  6
Continuous
 62
     7
370
    35
100
AcDbSpline
210
0.0
220
0.0
230
1.0
 70
     8
 71
     3
 72
    14
 73
    10
 74
     0
 42
0.00000001
 43
0.00000001
 40
0.0
 40
0.0
 40
0.0
 40
0.0
 40
0.000016567511187
 40
0.000016567511187
 40
0.000016567511187
 40
0.000029994084789
 40
0.000029994084789
 40
0.000029994084789
 40
0.0000428602625668
 40
0.0000428602625668
 40
0.0000428602625668
 40
0.0000428602625668
 10
475.7730526193455
 20
288.4822496248803
 30
0.0
 10
475.7698020768811
 20
288.4853100161642
 30
0.0
 10
475.7667888765741
 20
288.4890252833936
 30
0.0
 10
475.7643445033053
 20
288.4933320369369
 30
0.0
 10
475.7623624725661
 20
288.4968241868543
 30
0.0
 10
475.7607186461946
 20
288.5007927553883
 30
0.0
 10
475.7596407249904
 20
288.5050032392681
 30
0.0
 10
475.7586096802763
 20
288.5090306182001
 30
0.0
 10
475.7580801664045
 20
288.5133928692947
 30
0.0
 10
475.7581356754351
 20
288.5176753598039
 30
0.0
  0
SPLINE
  5
213
330
1F
100
AcDbEntity
  8
0
  6
Continuous
 62
     7
370
    35
100
AcDbSpline
210
0.0
220
0.0
230
1.0
 70
     8
 71
     3
 72
    14
 73
    10
 74
     0
 42
0.00000001
 43
0.00000001
 40
0.0
 40
0.0
 40
0.0
 40
0.0
 40
0.0000198816034976
 40
0.0000198816034976
 40
0.0000198816034976
 40
0.0000325232410928
 40
0.0000325232410928
 40
0.0000325232410928
 40
0.0000426092552237
 40
0.0000426092552237
 40
0.0000426092552237
 40
0.0000426092552237
 10
565.3591653666285
 20
255.5491336938717
 30
0.0
 10
565.3630661333581
 20
255.5454611153311
 30
0.0
 10
565.3666439737991
 20
255.5408121651471
 30
0.0
 10
565.3692947577891
 20
255.5353471414721
 30
0.0
 10
565.3709941405214
 20
255.5318435867128
 30
0.0
 10
565.3723435466152
 20
255.5279207090653
 30
0.0
 10
565.3731564497041
 20
255.5238305896993
 30
0.0
 10
565.3738074287899
 20
255.5205551904524
 30
0.0
 10
565.3741264035299
 20
255.5171097084071
 30
0.0
 10
565.374082310539
 20
255.5137079589479
 30
0.0
  0
SPLINE
  5
214
330
1F
100
AcDbEntity
  8
0
  6
Continuous
 62
     7
370
    35
100
AcDbSpline
210
0.0
220
0.0
230
1.0
 70
     8
 71
     3
 72
    14
 73
    10
 74
     0
 42
0.00000001
 43
0.00000001
 40
0.0
 40
0.0
 40
0.0
 40
0.0
 40
0.0000122715103816
 40
0.0000122715103816
 40
0.0000122715103816
 40
0.0000244722830705
 40
0.0000244722830705
 40
0.0000244722830705
 40
0.0000428769722649
 40
0.0000428769722649
 40
0.0000428769722649
 40
0.0000428769722649
 10
565.374082310539
 20
288.5176753598048
 30
0.0
 10
565.3741353221552
 20
288.5135855434156
 30
0.0
 10
565.3736568128195
 20
288.5094248759723
 30
0.0
 10
565.372715529826
 20
288.5055570353327
 30
0.0
 10
565.3717772294153
 20
288.5017014504707
 30
0.0
 10
565.3703656492793
 20
288.4980372708775
 30
0.0
 10
565.3686511992478
 20
288.4947589066317
 30
0.0
 10
565.3660804387218
 20
288.4898431090068
 30
0.0
 10
565.3627641447831
 20
288.4856378806626
 30
0.0
 10
565.3591653666285
 20
288.4822496248811
 30
0.0
  0
SPLINE
  5
215
330
1F
100
AcDbEntity
  8
0
  6
Continuous
 62
     7
370
    35
100
AcDbSpline
210
0.0
220
0.0
230
1.0
 70
     8
 71
     3
 72
    14
 73
    10
 74
     0
 42
0.00000001
 43
0.00000001
 40
0.0
 40
0.0
 40
0.0
 40
0.0
 40
0.000012797974209
 40
0.000012797974209
 40
0.000012797974209
 40
0.0000255093113908
 40
0.0000255093113908
 40
0.0000255093113908
 40
0.0000428115197143
 40
0.0000428115197143
 40
0.0000428115197143
 40
0.0000428115197143
 10
475.7581356754351
 20
255.5137079589471
 30
0.0
 10
475.7580803895513
 20
255.5179732338026
 30
0.0
 10
475.7586052308969
 20
255.5223174501978
 30
0.0
 10
475.7596281096849
 20
255.5263306933527
 30
0.0
 10
475.7606471705971
 20
255.5303289571537
 30
0.0
 10
475.7621753725628
 20
255.5341100221236
 30
0.0
 10
475.7640183723262
 20
255.537467072533
 30
0.0
 10
475.7665192606185
 20
255.5420224763002
 30
0.0
 10
475.7696580492001
 20
255.5459377002789
 30
0.0
 10
475.7730526193455
 20
255.5491336938708
 30
0.0
  0
SPLINE
  5
216
330
1F
100
AcDbEntity
  8
0
  6
Continuous
 62
     7
370
    35
100
AcDbSpline
210
0.0
220
0.0
230
1.0
 70
     8
 71
     3
 72
    14
 73
    10
 74
     0
 42
0.00000001
 43
0.00000001
 40
0.0000000000000001
 40
0.0000000000000001
 40
0.0000000000000001
 40
0.0000000000000001
 40
0.0000122715103815
 40
0.0000122715103815
 40
0.0000122715103815
 40
0.0000244722830703
 40
0.0000244722830703
 40
0.0000244722830703
 40
0.0000428769722645
 40
0.0000428769722645
 40
0.0000428769722645
 40
0.0000428769722645
 10
537.0680926934156
 20
227.2077183418237
 30
0.0
 10
537.0640028770263
 20
227.2076653302076
 30
0.0
 10
537.0598422095829
 20
227.2081438395433
 30
0.0
 10
537.0559743689433
 20
227.2090851225368
 30
0.0
 10
537.0521187840814
 20
227.2100234229474
 30
0.0
 10
537.0484546044881
 20
227.2114350030836
 30
0.0
 10
537.0451762402423
 20
227.213149453115
 30
0.0
 10
537.0402604426174
 20
227.2157202136409
 30
0.0
 10
537.0360552142732
 20
227.2190365075796
 30
0.0
 10
537.0326669584919
 20
227.2226352857342
 30
0.0
  0
SPLINE
  5
217
330
1F
100
AcDbEntity
  8
0
  6
Continuous
 62
     7
370
    35
100
AcDbSpline
210
0.0
220
0.0
230
1.0
 70
     8
 71
     3
 72
    14
 73
    10
 74
     0
 42
0.00000001
 43
0.00000001
 40
0.0
 40
0.0
 40
0.0
 40
0.0
 40
0.000012797974209
 40
0.000012797974209
 40
0.000012797974209
 40
0.0000255093113908
 40
0.0000255093113908
 40
0.0000255093113908
 40
0.0000428115197143
 40
0.0000428115197143
 40
0.0000428115197143
 40
0.0000428115197143
 10
504.0641252925586
 20
316.8236649769278
 30
0.0
 10
504.0683905674141
 20
316.8237202628115
 30
0.0
 10
504.0727347838092
 20
316.8231954214659
 30
0.0
 10
504.0767480269643
 20
316.8221725426779
 30
0.0
 10
504.0807462907651
 20
316.8211534817657
 30
0.0
 10
504.084527355735
 20
316.8196252798001
 30
0.0
 10
504.0878844061444
 20
316.8177822800366
 30
0.0
 10
504.0924398099118
 20
316.8152813917443
 30
0.0
 10
504.0963550338904
 20
316.8121426031627
 30
0.0
 10
504.0995510274823
 20
316.8087480330173
 30
0.0
  0
SPLINE
  5
218
330
1F
100
AcDbEntity
  8
0
  6
Continuous
 62
     7
370
    35
100
AcDbSpline
210
0.0
220
0.0
230
1.0
 70
     8
 71
     3
 72
    14
 73
    10
 74
     0
 42
0.00000001
 43
0.00000001
 40
0.0
 40
0.0
 40
0.0
 40
0.0
 40
0.000016567511187
 40
0.000016567511187
 40
0.000016567511187
 40
0.0000299940847889
 40
0.0000299940847889
 40
0.0000299940847889
 40
0.0000428602625667
 40
0.0000428602625667
 40
0.0000428602625667
 40
0.0000428602625667
 10
537.0326669584919
 20
316.8087480330173
 30
0.0
 10
537.0357273497758
 20
316.8119985754817
 30
0.0
 10
537.0394426170052
 20
316.8150117757887
 30
0.0
 10
537.0437493705483
 20
316.8174561490575
 30
0.0
 10
537.0472415204657
 20
316.8194381797967
 30
0.0
 10
537.0512100889998
 20
316.8210820061682
 30
0.0
 10
537.0554205728797
 20
316.8221599273725
 30
0.0
 10
537.0594479518118
 20
316.8231909720866
 30
0.0
 10
537.0638102029062
 20
316.8237204859584
 30
0.0
 10
537.0680926934155
 20
316.8236649769278
 30
0.0
  0
LINE
  5
219
330
1F
100
AcDbEntity
  8
0
  6
Continuous
 62
     7
370
    35
100
AcDbLine
 10
476.7755697721
 20
252.3589199319
 30
0.0
 11
476.7755697721
 21
236.206016538
 31
0.0
  0
LINE
  5
21A
330
1F
100
AcDbEntity
  8
0
  6
Continuous
 62
     7
370
    35
100
AcDbLine
 10
484.7564338716
 20
228.2251524385
 30
0.0
 11
500.9093372655
 21
228.2251524385
 31
0.0
  0
SPLINE
  5
21B
330
1F
100
AcDbEntity
  8
0
  6
Continuous
 62
     7
370
    35
100
AcDbSpline
210
0.0
220
0.0
230
1.0
 70
     8
 71
     3
 72
    28
 73
    24
 74
     0
 42
0.00000001
 43
0.00000001
 40
0.0
 40
0.0
 40
0.0
 40
0.0
 40
0.0208215902914081
 40
0.0416549694093914
 40
0.0625224778241894
 40
0.0937693216860817
 40
0.1250398336316511
 40
0.1875364692332533
 40
0.2500315549498794
 40
0.3125253205067973
 40
0.3750180504656819
 40
0.4375100659583384
 40
0.5000017177965379
 40
0.5624933696347414
 40
0.6249853851274006
 40
0.6874781150862829
 40
0.7499718806431986
 40
0.8124669663598275
 40
0.8749636019614326
 40
0.9061903568398448
 40
0.9374809578695404
 40
0.9687444805300661
 40
1.0
 40
1.0
 40
1.0
 40
1.0
 10
476.7755697721257
 20
236.2060165380266
 30
0.0
 10
476.776387268797
 20
236.1190310379478
 30
0.0
 10
476.778022724992
 20
235.9450107880952
 30
0.0
 10
476.7913347817976
 20
235.6840919722239
 30
0.0
 10
476.8160958541906
 20
235.3803260126358
 30
0.0
 10
476.858781903748
 20
235.0344503645771
 30
0.0
 10
476.9480417389657
 20
234.5197235382801
 30
0.0
 10
477.1069771132919
 20
233.8854045236131
 30
0.0
 10
477.3711438446646
 20
233.1467785642569
 30
0.0
 10
477.7066048588226
 20
232.4376569529734
 30
0.0
 10
478.1097950779675
 20
231.7647606942154
 30
0.0
 10
478.5771469113553
 20
231.1347414284324
 30
0.0
 10
479.103868572936
 20
230.5534512602351
 30
0.0
 10
479.685158769232
 20
230.0267295012904
 30
0.0
 10
480.315178019984
 20
229.5593780292633
 30
0.0
 10
480.9880743107674
 20
229.1561864620165
 30
0.0
 10
481.6971958089778
 20
228.8207304790265
 30
0.0
 10
482.4358221886139
 20
228.5565449705161
 30
0.0
 10
483.0699622726164
 20
228.397712492977
 30
0.0
 10
483.5846883782269
 20
228.3083159029331
 30
0.0
 10
483.973675742237
 20
228.2606587001205
 30
0.0
 10
484.36465231043
 20
228.2306774505937
 30
0.0
 10
484.6258511634353
 20
228.2269939520301
 30
0.0
 10
484.756433871638
 20
228.2251524385144
 30
0.0
  0
LINE
  5
21C
330
1F
100
AcDbEntity
  8
0
  6
Continuous
 62
     7
370
    35
100
AcDbLine
 10
537.0052047821
 20
316.8239960371
 30
0.0
 11
537.0170229804
 21
316.8239960371
 31
0.0
  0
LINE
  5
21D
330
1F
100
AcDbEntity
  8
0
  6
Continuous
 62
     7
370
    35
100
AcDbLine
 10
537.0170229804
 20
316.8239960371
 30
0.0
 11
537.0470229804
 21
316.8239960371
 31
0.0
  0
LINE
  5
21E
330
1F
100
AcDbEntity
  8
0
  6
Continuous
 62
     7
370
    35
100
AcDbLine
 10
537.0470229804
 20
316.8239960371
 30
0.0
 11
556.3757841143
 21
316.8239960371
 31
0.0
  0
LINE
  5
21F
330
1F
100
AcDbEntity
  8
0
  6
Continuous
 62
     7
370
    35
100
AcDbLine
 10
556.3757841143
 20
315.8062308802
 30
0.0
 11
540.2228807205
 21
315.8062308802
 31
0.0
  0
LINE
  5
220
330
1F
100
AcDbEntity
  8
0
  6
Continuous
 62
     7
370
    35
100
AcDbLine
 10
537.0052047821
 20
316.8116147609
 30
0.0
 11
537.0052047821
 21
316.8239960371
 31
0.0
  0
LINE
  5
221
330
1F
100
AcDbEntity
  8
0
  6
Continuous
 62
     7
370
    35
100
AcDbLine
 10
565.3744133707
 20
255.5765958702
 30
0.0
 11
565.3744133707
 21
255.5647776719
 31
0.0
  0
LINE
  5
222
330
1F
100
AcDbEntity
  8
0
  6
Continuous
 62
     7
370
    35
100
AcDbLine
 10
565.3744133707
 20
255.5647776719
 30
0.0
 11
565.3744133707
 21
255.5347776719
 31
0.0
  0
LINE
  5
223
330
1F
100
AcDbEntity
  8
0
  6
Continuous
 62
     7
370
    35
100
AcDbLine
 10
565.3744133707
 20
255.5347776719
 30
0.0
 11
565.3744133707
 21
236.206016538
 31
0.0
  0
LINE
  5
224
330
1F
100
AcDbEntity
  8
0
  6
Continuous
 62
     7
370
    35
100
AcDbLine
 10
564.3566482138
 20
236.206016538
 30
0.0
 11
564.3566482138
 21
252.3589199319
 31
0.0
  0
LINE
  5
225
330
1F
100
AcDbEntity
  8
0
  6
Continuous
 62
     7
370
    35
100
AcDbLine
 10
565.3620320945
 20
255.5765958702
 30
0.0
 11
565.3744133707
 21
255.5765958702
 31
0.0
  0
LINE
  5
226
330
1F
100
AcDbEntity
  8
0
  6
Continuous
 62
     7
370
    35
100
AcDbLine
 10
500.9093372655
 20
315.8062308802
 30
0.0
 11
484.7564338716
 21
315.8062308802
 31
0.0
  0
LINE
  5
227
330
1F
100
AcDbEntity
  8
0
  6
Continuous
 62
     7
370
    35
100
AcDbLine
 10
476.7755697721
 20
307.8253667807
 30
0.0
 11
476.7755697721
 21
291.6724633869
 31
0.0
  0
SPLINE
  5
228
330
1F
100
AcDbEntity
  8
0
  6
Continuous
 62
     7
370
    35
100
AcDbSpline
210
0.0
220
0.0
230
1.0
 70
     8
 71
     3
 72
    28
 73
    24
 74
     0
 42
0.00000001
 43
0.00000001
 40
0.0
 40
0.0
 40
0.0
 40
0.0
 40
0.0208215902932882
 40
0.0416549694112709
 40
0.0625224778241961
 40
0.093769321687804
 40
0.1250398336316513
 40
0.1875364692332534
 40
0.2500315549498806
 40
0.3125253205067996
 40
0.3750180504656834
 40
0.4375100659583409
 40
0.5000017177965401
 40
0.5624933696347422
 40
0.6249853851274018
 40
0.6874781150862835
 40
0.7499718806432002
 40
0.8124669663598295
 40
0.8749636019614336
 40
0.9061903568369408
 40
0.9374809578695377
 40
0.9687444805277635
 40
1.0
 40
1.0
 40
1.0
 40
1.0
 10
484.7564338716379
 20
315.8062308802371
 30
0.0
 10
484.6694483715513
 20
315.805413383566
 30
0.0
 10
484.4954281216908
 20
315.8037779273711
 30
0.0
 10
484.2345093058194
 20
315.7904658705663
 30
0.0
 10
483.9307433462322
 20
315.7657047981701
 30
0.0
 10
483.5848676981816
 20
315.7230187486115
 30
0.0
 10
483.0701408718841
 20
315.6337589133967
 30
0.0
 10
482.4358218572245
 20
315.4748235390705
 30
0.0
 10
481.6971958978681
 20
315.2106568076983
 30
0.0
 10
480.9880742865847
 20
314.8751957935403
 30
0.0
 10
480.3151780278266
 20
314.4720055743953
 30
0.0
 10
479.6851587620436
 20
314.0046537410075
 30
0.0
 10
479.1038685938465
 20
313.4779320794268
 30
0.0
 10
478.5771468349017
 20
312.8966418831309
 30
0.0
 10
478.1097953628746
 20
312.2666226323788
 30
0.0
 10
477.7066037956279
 20
311.5937263415954
 30
0.0
 10
477.3711478126377
 20
310.8846048433851
 30
0.0
 10
477.1069623041277
 20
310.1459784637488
 30
0.0
 10
476.9481298265903
 20
309.5118383797583
 30
0.0
 10
476.8587332365477
 20
308.9971122741476
 30
0.0
 10
476.811076033734
 20
308.6081249101475
 30
0.0
 10
476.7810947842033
 20
308.2171483419426
 30
0.0
 10
476.7774112856409
 20
307.9559494889372
 30
0.0
 10
476.7755697721257
 20
307.8253667807249
 30
0.0
  0
LINE
  5
229
330
1F
100
AcDbEntity
  8
0
  6
Continuous
 62
     7
370
    35
100
AcDbLine
 10
564.3566482138
 20
291.6724633869
 30
0.0
 11
564.3566482138
 21
307.8253667807
 31
0.0
  0
SPLINE
  5
22A
330
1F
100
AcDbEntity
  8
0
  6
Continuous
 62
     7
370
    35
100
AcDbSpline
210
0.0
220
0.0
230
1.0
 70
     8
 71
     3
 72
    28
 73
    24
 74
     0
 42
0.00000001
 43
0.00000001
 40
0.0
 40
0.0
 40
0.0
 40
0.0
 40
0.0208215902903375
 40
0.0416549694083219
 40
0.0625224778241871
 40
0.093769321683289
 40
0.125039833631647
 40
0.1875364692332482
 40
0.2500315549498759
 40
0.3125253205067952
 40
0.3750180504656795
 40
0.4375100659583361
 40
0.5000017177965353
 40
0.5624933696347385
 40
0.6249853851273979
 40
0.6874781150862793
 40
0.749971880643196
 40
0.812466966359825
 40
0.8749636019614301
 40
0.9061903568389547
 40
0.9374809578695386
 40
0.9687444805299696
 40
0.9999999999999999
 40
0.9999999999999999
 40
0.9999999999999999
 40
0.9999999999999999
 10
564.3566482138484
 20
307.8253667807249
 30
0.0
 10
564.3558307171771
 20
307.9123522807992
 30
0.0
 10
564.3541952609819
 20
308.0863725306473
 30
0.0
 10
564.3408832041758
 20
308.3472913465186
 30
0.0
 10
564.3161221317855
 20
308.6510573060998
 30
0.0
 10
564.2734360822272
 20
308.9969329541628
 30
0.0
 10
564.1841762470116
 20
309.5116597804602
 30
0.0
 10
564.025240872682
 20
310.1459787951384
 30
0.0
 10
563.7610741413096
 20
310.8846047544947
 30
0.0
 10
563.4256131271516
 20
311.5937263657781
 30
0.0
 10
563.0224229080065
 20
312.2666226245362
 30
0.0
 10
562.5550710746188
 20
312.8966418903192
 30
0.0
 10
562.0283494130381
 20
313.4779320585164
 30
0.0
 10
561.4470592167421
 20
314.0046538174611
 30
0.0
 10
560.81703996599
 20
314.4720052894882
 30
0.0
 10
560.1441436752067
 20
314.875196856735
 30
0.0
 10
559.4350221769963
 20
315.210652839725
 30
0.0
 10
558.6963957973602
 20
315.4748383482356
 30
0.0
 10
558.0622557133612
 20
315.6336708257732
 30
0.0
 10
557.5475296077509
 20
315.7230674158187
 30
0.0
 10
557.1585422437412
 20
315.7707246186304
 30
0.0
 10
556.7675656755445
 20
315.800705868158
 30
0.0
 10
556.5063668225392
 20
315.8043893667215
 30
0.0
 10
556.3757841143362
 20
315.8062308802371
 30
0.0
  0
SPLINE
  5
22B
330
1F
100
AcDbEntity
  8
0
  6
Continuous
 62
     7
370
    35
100
AcDbSpline
210
0.0
220
0.0
230
1.0
 70
     8
 71
     3
 72
    29
 73
    25
 74
     0
 42
0.00000001
 43
0.00000001
 40
0.0
 40
0.0
 40
0.0
 40
0.0
 40
0.0216862077630959
 40
0.0432205313694686
 40
0.0646029771193601
 40
0.0858335514569123
 40
0.106912260974246
 40
0.127839112415688
 40
0.1486141126821533
 40
0.1692372688356813
 40
0.1897085881041564
 40
0.2100280778861809
 40
0.2301957457561521
 40
0.2502115994695186
 40
0.3759257594183194
 40
0.5000167744249303
 40
0.6241043189130948
 40
0.7498219489439376
 40
0.7899994268437981
 40
0.8307843824720756
 40
0.8721768687980131
 40
0.9141769359530877
 40
0.9567846313848563
 40
0.9999999999999999
 40
0.9999999999999999
 40
0.9999999999999999
 40
0.9999999999999999
 10
484.756433871638
 20
227.2073872816191
 30
0.0
 10
484.6543384351107
 20
227.2083932370965
 30
0.0
 10
484.4508626100465
 20
227.2103981026193
 30
0.0
 10
484.1470729886555
 20
227.226476507908
 30
0.0
 10
483.8461155908969
 20
227.2518525748906
 30
0.0
 10
483.5483109347201
 20
227.2872180606607
 30
0.0
 10
483.2539641941436
 20
227.3320730868943
 30
0.0
 10
482.963365293963
 20
227.3862240845246
 30
0.0
 10
482.6767887605361
 20
227.4493877725839
 30
0.0
 10
482.3944943052854
 20
227.5212967588527
 30
0.0
 10
482.116724945898
 20
227.6016737762753
 30
0.0
 10
481.8437143390285
 20
227.6902346953428
 30
0.0
 10
481.5756602613379
 20
227.7867060875184
 30
0.0
 10
480.8495014964045
 20
228.0741748178429
 30
0.0
 10
479.7211329358752
 20
228.6780068701618
 30
0.0
 10
478.3530045863947
 20
229.8025376752798
 30
0.0
 10
477.2283914754827
 20
231.170766184692
 30
0.0
 10
476.5795797587881
 20
232.3832160797687
 30
0.0
 10
476.2356758367748
 20
233.293813318544
 30
0.0
 10
476.0666685308863
 20
233.8449025854556
 30
0.0
 10
475.9313715501389
 20
234.4140615769357
 30
0.0
 10
475.8329027526806
 20
234.9993304343805
 30
0.0
 10
475.7697123191296
 20
235.5984351912645
 30
0.0
 10
475.7617925419491
 20
236.002535673277
 30
0.0
 10
475.7578046152304
 20
236.2060165380266
 30
0.0
  0
SPLINE
  5
22C
330
1F
100
AcDbEntity
  8
0
  6
Continuous
 62
     7
370
    35
100
AcDbSpline
210
0.0
220
0.0
230
1.0
 70
     8
 71
     3
 72
    28
 73
    24
 74
     0
 42
0.00000001
 43
0.00000001
 40
0.0
 40
0.0
 40
0.0
 40
0.0
 40
0.0208215902931989
 40
0.0416549694111822
 40
0.062522477824195
 40
0.0937693216877048
 40
0.1250398336316506
 40
0.1875364692332528
 40
0.2500315549498791
 40
0.3125253205067972
 40
0.3750180504656815
 40
0.437510065958337
 40
0.5000017177965368
 40
0.5624933696347405
 40
0.6249853851274002
 40
0.6874781150862809
 40
0.749971880643197
 40
0.8124669663598262
 40
0.8749636019614316
 40
0.9061903568369432
 40
0.9374809578695372
 40
0.9687444805281539
 40
1.0
 40
1.0
 40
1.0
 40
1.0
 10
556.3757841143362
 20
228.2251524385144
 30
0.0
 10
556.4627696144223
 20
228.2259699351856
 30
0.0
 10
556.6367898642825
 20
228.2276053913805
 30
0.0
 10
556.8977086801539
 20
228.2409174481853
 30
0.0
 10
557.2014746397411
 20
228.2656785205813
 30
0.0
 10
557.547350287792
 20
228.3083645701399
 30
0.0
 10
558.0620771140896
 20
228.3976244053548
 30
0.0
 10
558.6963961287496
 20
228.5565597796811
 30
0.0
 10
559.4350220881059
 20
228.8207265110532
 30
0.0
 10
560.1441436993895
 20
229.1561875252113
 30
0.0
 10
560.8170399581475
 20
229.5593777443562
 30
0.0
 10
561.4470592239304
 20
230.026729577744
 30
0.0
 10
562.0283493921277
 20
230.5534512393247
 30
0.0
 10
562.5550711510724
 20
231.1347414356207
 30
0.0
 10
563.0224226230995
 20
231.7647606863727
 30
0.0
 10
563.4256141903463
 20
232.4376569771561
 30
0.0
 10
563.7610701733363
 20
233.1467784753665
 30
0.0
 10
564.0252556818465
 20
233.8854048550027
 30
0.0
 10
564.1840881593834
 20
234.5195449389933
 30
0.0
 10
564.2734847494272
 20
235.0342710446038
 30
0.0
 10
564.3211419522402
 20
235.4232584086057
 30
0.0
 10
564.3511232017705
 20
235.8142349768106
 30
0.0
 10
564.3548067003331
 20
236.075433829816
 30
0.0
 10
564.3566482138484
 20
236.2060165380266
 30
0.0
  0
SPLINE
  5
22D
330
1F
100
AcDbEntity
  8
0
  6
Continuous
 62
     7
370
    35
100
AcDbSpline
210
0.0
220
0.0
230
1.0
 70
     8
 71
     3
 72
    29
 73
    25
 74
     0
 42
0.00000001
 43
0.00000001
 40
0.0
 40
0.0
 40
0.0
 40
0.0
 40
0.0216862077639609
 40
0.0432205313710411
 40
0.0646029771214822
 40
0.0858335514594269
 40
0.1069122609769965
 40
0.127839112418516
 40
0.1486141126849007
 40
0.1692372688381925
 40
0.1897085881062723
 40
0.2100280778877446
 40
0.2301957457570062
 40
0.2502115994695051
 40
0.3759257594208322
 40
0.5000167744249047
 40
0.6241043191755427
 40
0.7498219489439382
 40
0.7899994270068607
 40
0.8307843827329744
 40
0.8721768690915205
 40
0.9141769362139817
 40
0.956784631547913
 40
1.0
 40
1.0
 40
1.0
 40
1.0
 10
565.3744133707437
 20
236.2060165380266
 30
0.0
 10
565.3734074152662
 20
236.1039211014953
 30
0.0
 10
565.3714025497434
 20
235.9004452764237
 30
0.0
 10
565.3553241444534
 20
235.5966556550227
 30
0.0
 10
565.3299480774692
 20
235.2956982572566
 30
0.0
 10
565.2945825916973
 20
234.9978936010742
 30
0.0
 10
565.2497275654621
 20
234.7035468604946
 30
0.0
 10
565.1955765678304
 20
234.4129479603132
 30
0.0
 10
565.1324128797701
 20
234.1263714268877
 30
0.0
 10
565.0605038935008
 20
233.8440769716404
 30
0.0
 10
564.9801268760788
 20
233.5663076122588
 30
0.0
 10
564.8915659570129
 20
233.2932970053969
 30
0.0
 10
564.7950945648402
 20
233.0252429277159
 30
0.0
 10
564.5076258345136
 20
232.2990841627785
 30
0.0
 10
563.9037937821927
 20
231.1707156022529
 30
0.0
 10
562.7792629762894
 20
229.8025872518181
 30
0.0
 10
561.4110344666045
 20
228.6779741411581
 30
0.0
 10
560.1985845707585
 20
228.0291624243767
 30
0.0
 10
559.2879873319401
 20
227.6852585024805
 30
0.0
 10
558.7368980636486
 20
227.5162511963696
 30
0.0
 10
558.1677390716605
 20
227.3809542157633
 30
0.0
 10
557.5824702146277
 20
227.2824854186347
 30
0.0
 10
556.9833654591013
 20
227.2192949854357
 30
0.0
 10
556.5792649783177
 20
227.2113752083083
 30
0.0
 10
556.3757841143362
 20
227.2073872816191
 30
0.0
  0
LINE
  5
22E
330
1F
100
AcDbEntity
  8
0
  6
Continuous
 62
     7
370
    35
100
AcDbLine
 10
484.7564338716
 20
316.8239960371
 30
0.0
 11
504.0851950056
 21
316.8239960371
 31
0.0
  0
LINE
  5
22F
330
1F
100
AcDbEntity
  8
0
  6
Continuous
 62
     7
370
    35
100
AcDbLine
 10
504.0851950056
 20
316.8239960371
 30
0.0
 11
504.1151950056
 21
316.8239960371
 31
0.0
  0
LINE
  5
230
330
1F
100
AcDbEntity
  8
0
  6
Continuous
 62
     7
370
    35
100
AcDbLine
 10
504.1151950056
 20
316.8239960371
 30
0.0
 11
504.1270132085
 21
316.8239960371
 31
0.0
  0
LINE
  5
231
330
1F
100
AcDbEntity
  8
0
  6
Continuous
 62
     7
370
    35
100
AcDbLine
 10
504.1270132085
 20
316.8116147629
 30
0.0
 11
504.1270132085
 21
316.8239960371
 31
0.0
  0
LINE
  5
232
330
1F
100
AcDbEntity
  8
0
  6
Continuous
 62
     7
370
    35
100
AcDbLine
 10
475.7578046152
 20
288.4547874485
 30
0.0
 11
475.7578046152
 21
288.4666056468
 31
0.0
  0
LINE
  5
233
330
1F
100
AcDbEntity
  8
0
  6
Continuous
 62
     7
370
    35
100
AcDbLine
 10
475.7578046152
 20
288.4666056468
 30
0.0
 11
475.7578046152
 21
288.4966056468
 31
0.0
  0
LINE
  5
234
330
1F
100
AcDbEntity
  8
0
  6
Continuous
 62
     7
370
    35
100
AcDbLine
 10
475.7578046152
 20
288.4966056468
 30
0.0
 11
475.7578046152
 21
307.8253667807
 31
0.0
  0
LINE
  5
235
330
1F
100
AcDbEntity
  8
0
  6
Continuous
 62
     7
370
    35
100
AcDbLine
 10
475.7701858915
 20
288.4547874485
 30
0.0
 11
475.7578046152
 21
288.4547874485
 31
0.0
  0
LINE
  5
236
330
1F
100
AcDbEntity
  8
0
  6
Continuous
 62
     7
370
    35
100
AcDbLine
 10
565.3744133707
 20
307.8253667807
 30
0.0
 11
565.3744133707
 21
288.4966056468
 31
0.0
  0
LINE
  5
237
330
1F
100
AcDbEntity
  8
0
  6
Continuous
 62
     7
370
    35
100
AcDbLine
 10
565.3744133707
 20
288.4966056468
 30
0.0
 11
565.3744133707
 21
288.4666056468
 31
0.0
  0
LINE
  5
238
330
1F
100
AcDbEntity
  8
0
  6
Continuous
 62
     7
370
    35
100
AcDbLine
 10
565.3744133707
 20
288.4666056468
 30
0.0
 11
565.3744133707
 21
288.4547874438
 31
0.0
  0
LINE
  5
239
330
1F
100
AcDbEntity
  8
0
  6
Continuous
 62
     7
370
    35
100
AcDbLine
 10
565.3620320965
 20
288.4547874438
 30
0.0
 11
565.3744133707
 21
288.4547874438
 31
0.0
  0
LINE
  5
23A
330
1F
100
AcDbEntity
  8
0
  6
Continuous
 62
     7
370
    35
100
AcDbLine
 10
540.2228807205
 20
228.2251524385
 30
0.0
 11
556.3757841143
 21
228.2251524385
 31
0.0
  0
LINE
  5
23B
330
1F
100
AcDbEntity
  8
0
  6
Continuous
 62
     7
370
    35
100
AcDbLine
 10
556.3757841143
 20
227.2073872816
 30
0.0
 11
537.0470229804
 21
227.2073872816
 31
0.0
  0
LINE
  5
23C
330
1F
100
AcDbEntity
  8
0
  6
Continuous
 62
     7
370
    35
100
AcDbLine
 10
537.0470229804
 20
227.2073872816
 30
0.0
 11
537.0170229804
 21
227.2073872816
 31
0.0
  0
LINE
  5
23D
330
1F
100
AcDbEntity
  8
0
  6
Continuous
 62
     7
370
    35
100
AcDbLine
 10
537.0170229804
 20
227.2073872816
 30
0.0
 11
537.0052047774
 21
227.2073872816
 31
0.0
  0
LINE
  5
23E
330
1F
100
AcDbEntity
  8
0
  6
Continuous
 62
     7
370
    35
100
AcDbLine
 10
537.0052047774
 20
227.2197685558
 30
0.0
 11
537.0052047774
 21
227.2073872816
 31
0.0
  0
LINE
  5
23F
330
1F
100
AcDbEntity
  8
0
  6
Continuous
 62
     7
370
    35
100
AcDbLine
 10
475.7578046152
 20
236.206016538
 30
0.0
 11
475.7578046152
 21
255.5347776719
 31
0.0
  0
LINE
  5
240
330
1F
100
AcDbEntity
  8
0
  6
Continuous
 62
     7
370
    35
100
AcDbLine
 10
475.7578046152
 20
255.5347776719
 30
0.0
 11
475.7578046152
 21
255.5647776719
 31
0.0
  0
LINE
  5
241
330
1F
100
AcDbEntity
  8
0
  6
Continuous
 62
     7
370
    35
100
AcDbLine
 10
475.7578046152
 20
255.5647776719
 30
0.0
 11
475.7578046152
 21
255.5765958749
 31
0.0
  0
LINE
  5
242
330
1F
100
AcDbEntity
  8
0
  6
Continuous
 62
     7
370
    35
100
AcDbLine
 10
475.7701858895
 20
255.5765958749
 30
0.0
 11
475.7578046152
 21
255.5765958749
 31
0.0
  0
LINE
  5
243
330
1F
100
AcDbEntity
  8
0
  6
Continuous
 62
     7
370
    35
100
AcDbLine
 10
504.1270132038
 20
227.2073872816
 30
0.0
 11
504.1151950056
 21
227.2073872816
 31
0.0
  0
LINE
  5
244
330
1F
100
AcDbEntity
  8
0
  6
Continuous
 62
     7
370
    35
100
AcDbLine
 10
504.1151950056
 20
227.2073872816
 30
0.0
 11
504.0851950056
 21
227.2073872816
 31
0.0
  0
LINE
  5
245
330
1F
100
AcDbEntity
  8
0
  6
Continuous
 62
     7
370
    35
100
AcDbLine
 10
504.0851950056
 20
227.2073872816
 30
0.0
 11
484.7564338716
 21
227.2073872816
 31
0.0
  0
LINE
  5
246
330
1F
100
AcDbEntity
  8
0
  6
Continuous
 62
     7
370
    35
100
AcDbLine
 10
504.1270132038
 20
227.2197685579
 30
0.0
 11
504.1270132038
 21
227.2073872816
 31
0.0
  0
SPLINE
  5
247
330
1F
100
AcDbEntity
  8
0
  6
Continuous
 62
     7
370
    35
100
AcDbSpline
210
0.0
220
0.0
230
1.0
 70
     8
 71
     3
 72
    29
 73
    25
 74
     0
 42
0.00000001
 43
0.00000001
 40
0.0
 40
0.0
 40
0.0
 40
0.0
 40
0.0216862077635099
 40
0.0432205313702217
 40
0.0646029771203766
 40
0.0858335514581168
 40
0.1069122609755638
 40
0.127839112417044
 40
0.1486141126834708
 40
0.1692372688368871
 40
0.1897085881051733
 40
0.2100280778869342
 40
0.2301957457565665
 40
0.2502115994695181
 40
0.3759257594195705
 40
0.5000167744249288
 40
0.6241043189143601
 40
0.7498219489439373
 40
0.7899994268446043
 40
0.8307843824733656
 40
0.8721768687994643
 40
0.9141769359543783
 40
0.9567846313856625
 40
1.0
 40
1.0
 40
1.0
 40
1.0
 10
475.7578046152304
 20
307.8253667807249
 30
0.0
 10
475.7588105707077
 20
307.9274622172541
 30
0.0
 10
475.7608154362306
 20
308.1309380423218
 30
0.0
 10
475.77689384152
 20
308.4347276637176
 30
0.0
 10
475.8022699085033
 20
308.7356850614798
 30
0.0
 10
475.8376353942743
 20
309.0334897176593
 30
0.0
 10
475.8824904205086
 20
309.3278364582373
 30
0.0
 10
475.9366414181397
 20
309.6184353584182
 30
0.0
 10
475.9998051061995
 20
309.9050118918445
 30
0.0
 10
476.0717140924685
 20
310.1873063470936
 30
0.0
 10
476.1520911098908
 20
310.4650757064782
 30
0.0
 10
476.2406520289575
 20
310.738086313344
 30
0.0
 10
476.3371234211318
 20
311.00614039103
 30
0.0
 10
476.6245921514573
 20
311.7322991559656
 30
0.0
 10
477.2284242037765
 20
312.8606677164927
 30
0.0
 10
478.3529550088994
 20
314.2287960659765
 30
0.0
 10
479.7211835183085
 20
315.3534091768835
 30
0.0
 10
480.9336334133889
 20
316.0022208935786
 30
0.0
 10
481.8442306521645
 20
316.3461248155914
 30
0.0
 10
482.395319919083
 20
316.515132121481
 30
0.0
 10
482.9644789105656
 20
316.6504291022277
 30
0.0
 10
483.5497477680084
 20
316.7488978996844
 30
0.0
 10
484.1488525248856
 20
316.8120883332336
 30
0.0
 10
484.552953006892
 20
316.8200081104138
 30
0.0
 10
484.7564338716379
 20
316.8239960371325
 30
0.0
  0
SPLINE
  5
248
330
1F
100
AcDbEntity
  8
0
  6
Continuous
 62
     7
370
    35
100
AcDbSpline
210
0.0
220
0.0
230
1.0
 70
     8
 71
     3
 72
    29
 73
    25
 74
     0
 42
0.00000001
 43
0.00000001
 40
0.0
 40
0.0
 40
0.0
 40
0.0
 40
0.0216862077639552
 40
0.0432205313710306
 40
0.0646029771214683
 40
0.0858335514594115
 40
0.1069122609769797
 40
0.1278391124185002
 40
0.1486141126848868
 40
0.1692372688381814
 40
0.1897085881062663
 40
0.2100280778877439
 40
0.2301957457570119
 40
0.2502115994695193
 40
0.3759257594208383
 40
0.5000167744249306
 40
0.6241043189130959
 40
0.7498219489439389
 40
0.7899994268438192
 40
0.8307843824721092
 40
0.87217686879805
 40
0.9141769359531213
 40
0.9567846313848771
 40
1.0
 40
1.0
 40
1.0
 40
1.0
 10
556.3757841143362
 20
316.8239960371325
 30
0.0
 10
556.4778795508676
 20
316.822990081655
 30
0.0
 10
556.681355375939
 20
316.820985216132
 30
0.0
 10
556.98514499734
 20
316.8049068108421
 30
0.0
 10
557.286102395106
 20
316.779530743858
 30
0.0
 10
557.5839070512883
 20
316.7441652580862
 30
0.0
 10
557.8782537918679
 20
316.6993102318509
 30
0.0
 10
558.1688526920493
 20
316.6451592342192
 30
0.0
 10
558.4554292254749
 20
316.5819955461589
 30
0.0
 10
558.7377236807221
 20
316.5100865598897
 30
0.0
 10
559.0154930401039
 20
316.4297095424676
 30
0.0
 10
559.2885036469658
 20
316.3411486234017
 30
0.0
 10
559.5565577246468
 20
316.2446772312289
 30
0.0
 10
560.2827164895842
 20
315.9572085009023
 30
0.0
 10
561.4110850501091
 20
315.3533764485829
 30
0.0
 10
562.779213399587
 20
314.2288456434625
 30
0.0
 10
563.9038265104913
 20
312.8606171340596
 30
0.0
 10
564.5526382271861
 20
311.6481672389827
 30
0.0
 10
564.8965421491994
 20
310.7375700002073
 30
0.0
 10
565.0655494550879
 20
310.1864807332955
 30
0.0
 10
565.2008464358353
 20
309.6173217418154
 30
0.0
 10
565.2993152332936
 20
309.0320528843706
 30
0.0
 10
565.3625056668445
 20
308.4329481274868
 30
0.0
 10
565.3704254440249
 20
308.0288476454745
 30
0.0
 10
565.3744133707438
 20
307.8253667807249
 30
0.0
  0
ELLIPSE
  5
249
330
1F
100
AcDbEntity
  8
0
  6
Continuous
 62
     7
370
    35
100
AcDbEllipse
 10
484.5762074778
 20
236.0257901442
 30
0.0
 11
-6.365899702526235
 21
-6.365899702526206
 31
0.0
210
0.0
220
0.0
230
1.0
 40
0.9996954599
 41
5.497939437029734
 42
7.068431177329461
  0
ELLIPSE
  5
24A
330
1F
100
AcDbEntity
  8
0
  6
Continuous
 62
     7
370
    35
100
AcDbEllipse
 10
556.5560105081
 20
308.0055931745
 30
0.0
 11
6.365899702526235
 21
6.365899702526235
 31
0.0
210
0.0
220
0.0
230
1.0
 40
0.9996954599
 41
5.49793943702973
 42
7.068431177329456
  0
ELLIPSE
  5
24B
330
1F
100
AcDbEntity
  8
0
  6
Continuous
 62
     7
370
    35
100
AcDbEllipse
 10
556.5560105081
 20
236.0257901442
 30
0.0
 11
6.365899702526235
 21
-6.365899702526206
 31
0.0
210
0.0
220
0.0
230
1.0
 40
0.9996954599
 41
5.497939437029729
 42
7.068431177329456
  0
ELLIPSE
  5
24C
330
1F
100
AcDbEntity
  8
0
  6
Continuous
 62
     7
370
    35
100
AcDbEllipse
 10
484.5762074778
 20
308.0055931745
 30
0.0
 11
-6.365899702526235
 21
6.365899702526235
 31
0.0
210
0.0
220
0.0
230
1.0
 40
0.9996954599
 41
5.497939437029729
 42
7.068431177329452
  0
LINE
  5
24D
330
1F
100
AcDbEntity
  8
0
  6
Continuous
 62
     7
370
    35
100
AcDbLine
 10
565.5573814605
 20
236.0230484482
 30
0.0
 11
565.5573814605
 21
308.0083348705
 31
0.0
  0
LINE
  5
24E
330
1F
100
AcDbEntity
  8
0
  6
Continuous
 62
     7
370
    35
100
AcDbLine
 10
565.3744133707
 20
255.5765958702
 30
0.0
 11
565.3752940211
 21
255.5765958702
 31
0.0
  0
LINE
  5
24F
330
1F
100
AcDbEntity
  8
0
  6
Continuous
 62
     7
370
    35
100
AcDbLine
 10
565.3744133707
 20
288.4547874438
 30
0.0
 11
565.3752940211
 21
288.4547874438
 31
0.0
  0
LINE
  5
250
330
1F
100
AcDbEntity
  8
0
  6
Continuous
 62
     7
370
    35
100
AcDbLine
 10
475.5748365255
 20
308.0083348705
 30
0.0
 11
475.5748365255
 21
236.0230484482
 31
0.0
  0
LINE
  5
251
330
1F
100
AcDbEntity
  8
0
  6
Continuous
 62
     7
370
    35
100
AcDbLine
 10
475.7578046152
 20
288.4547874485
 30
0.0
 11
475.7569239649
 21
288.4547874485
 31
0.0
  0
LINE
  5
252
330
1F
100
AcDbEntity
  8
0
  6
Continuous
 62
     7
370
    35
100
AcDbLine
 10
475.7578046152
 20
255.5765958749
 30
0.0
 11
475.7569239649
 21
255.5765958749
 31
0.0
  0
LINE
  5
253
330
1F
100
AcDbEntity
  8
0
  6
Continuous
 62
     7
370
    35
100
AcDbLine
 10
484.5734657819
 20
227.0244191918
 30
0.0
 11
556.5587522041
 21
227.0244191918
 31
0.0
  0
LINE
  5
254
330
1F
100
AcDbEntity
  8
0
  6
Continuous
 62
     7
370
    35
100
AcDbLine
 10
504.1270132038
 20
227.2073872816
 30
0.0
 11
504.1270132038
 21
227.2065066313
 31
0.0
  0
LINE
  5
255
330
1F
100
AcDbEntity
  8
0
  6
Continuous
 62
     7
370
    35
100
AcDbLine
 10
537.0052047774
 20
227.2073872816
 30
0.0
 11
537.0052047774
 21
227.2065066313
 31
0.0
  0
LINE
  5
256
330
1F
100
AcDbEntity
  8
0
  6
Continuous
 62
     7
370
    35
100
AcDbLine
 10
556.5587522041
 20
317.0069641269
 30
0.0
 11
544.5569636059
 21
317.0069641269
 31
0.0
  0
LINE
  5
257
330
1F
100
AcDbEntity
  8
0
  6
Continuous
 62
     7
370
    35
100
AcDbLine
 10
496.5752543801
 20
317.0069641269
 30
0.0
 11
484.5734657819
 21
317.0069641269
 31
0.0
  0
LINE
  5
258
330
1F
100
AcDbEntity
  8
0
  6
Continuous
 62
     7
370
    35
100
AcDbLine
 10
537.0052047821
 20
316.8239960371
 30
0.0
 11
537.0052047821
 21
316.8248766875
 31
0.0
  0
LINE
  5
259
330
1F
100
AcDbEntity
  8
0
  6
Continuous
 62
     7
370
    35
100
AcDbLine
 10
504.1270132085
 20
316.8239960371
 30
0.0
 11
504.1270132085
 21
316.8248766875
 31
0.0
  0
LINE
  5
25A
330
1F
100
AcDbEntity
  8
0
  6
Continuous
 62
     7
370
    35
100
AcDbLine
 10
475.566108993
 20
236.0156916594
 30
0.0
 11
475.566108993
 21
308.0156916594
 31
0.0
  0
ARC
  5
25B
330
1F
100
AcDbEntity
  8
0
  6
Continuous
 62
     7
370
    35
100
AcDbCircle
 10
556.566108993
 20
308.0156916594
 30
0.0
 40
9.0
100
AcDbArc
 50
0.0
 51
90.0
  0
LINE
  5
25C
330
1F
100
AcDbEntity
  8
0
  6
Continuous
 62
     7
370
    35
100
AcDbLine
 10
565.566108993
 20
308.0156916594
 30
0.0
 11
565.566108993
 21
236.0156916594
 31
0.0
  0
ARC
  5
25D
330
1F
100
AcDbEntity
  8
0
  6
Continuous
 62
     7
370
    35
100
AcDbCircle
 10
484.566108993
 20
308.0156916594
 30
0.0
 40
9.0
100
AcDbArc
 50
90.0
 51
180.0
  0
ARC
  5
25E
330
1F
100
AcDbEntity
  8
0
  6
Continuous
 62
     7
370
    35
100
AcDbCircle
 10
484.566108993
 20
236.0156916594
 30
0.0
 40
9.000000000000028
100
AcDbArc
 50
180.0
 51
270.0
  0
LINE
  5
25F
330
1F
100
AcDbEntity
  8
0
  6
Continuous
 62
     7
370
    35
100
AcDbLine
 10
556.566108993
 20
227.0156916594
 30
0.0
 11
484.566108993
 21
227.0156916594
 31
0.0
  0
LINE
  5
260
330
1F
100
AcDbEntity
  8
0
  6
Continuous
 62
     7
370
    35
100
AcDbLine
 10
484.566108993
 20
317.0156916594
 30
0.0
 11
496.7936050651
 21
317.0156916594
 31
0.0
  0
LINE
  5
261
330
1F
100
AcDbEntity
  8
0
  6
Continuous
 62
     7
370
    35
100
AcDbLine
 10
544.3386129208
 20
317.0156916594
 30
0.0
 11
556.566108993
 21
317.0156916594
 31
0.0
  0
ARC
  5
262
330
1F
100
AcDbEntity
  8
0
  6
Continuous
 62
     7
370
    35
100
AcDbCircle
 10
556.566108993
 20
236.0156916594
 30
0.0
 40
9.000000000000028
100
AcDbArc
 50
270.0
 51
0.0
  0
LINE
  5
263
330
1F
100
AcDbEntity
  8
0
  6
HIDDEN
 62
     7
370
    18
100
AcDbLine
 10
530.566108993
 20
316.5156916594
 30
0.0
 11
510.566108993
 21
316.5156916594
 31
0.0
  0
LINE
  5
264
330
1F
100
AcDbEntity
  8
0
  6
HIDDEN
 62
     7
370
    18
100
AcDbLine
 10
531.0483446548
 20
314.5156916594
 30
0.0
 11
510.0838733311
 21
314.5156916594
 31
0.0
  0
LINE
  5
265
330
1F
100
AcDbEntity
  8
0
  6
HIDDEN
 62
     7
370
    18
100
AcDbLine
 10
528.916108993
 20
314.5156916594
 30
0.0
 11
512.216108993
 21
314.5156916594
 31
0.0
  0
LINE
  5
266
330
1F
100
AcDbEntity
  8
0
  6
HIDDEN
 62
     7
370
    18
100
AcDbLine
 10
512.516108993
 20
309.5156916594
 30
0.0
 11
528.616108993
 21
309.5156916594
 31
0.0
  0
LINE
  5
267
330
1F
100
AcDbEntity
  8
0
  6
HIDDEN
 62
     7
370
    18
100
AcDbLine
 10
525.561603824
 20
309.5156916594
 30
0.0
 11
515.570614162
 21
309.5156916594
 31
0.0
  0
LINE
  5
268
330
1F
100
AcDbEntity
  8
0
  6
HIDDEN
 62
     7
370
    18
100
AcDbLine
 10
501.156108993
 20
282.0156916594
 30
0.0
 11
507.9761085822
 21
282.0156916594
 31
0.0
  0
LINE
  5
269
330
1F
100
AcDbEntity
  8
0
  6
HIDDEN
 62
     7
370
    18
100
AcDbLine
 10
508.176108993
 20
278.0156916594
 30
0.0
 11
500.956108993
 21
278.0156916594
 31
0.0
  0
LINE
  5
26A
330
1F
100
AcDbEntity
  8
0
  6
HIDDEN
 62
     7
370
    18
100
AcDbLine
 10
506.766108993
 20
278.0156916594
 30
0.0
 11
502.3834566501
 21
278.0156916594
 31
0.0
  0
LINE
  5
26B
330
1F
100
AcDbEntity
  8
0
  6
HIDDEN
 62
     7
370
    18
100
AcDbLine
 10
502.945108993
 20
262.0156916594
 30
0.0
 11
506.187108993
 21
262.0156916594
 31
0.0
  0
LINE
  5
26C
330
1F
100
AcDbEntity
  8
0
  6
HIDDEN
 62
     7
370
    18
100
AcDbLine
 10
502.566108993
 20
262.3946916594
 30
0.0
 11
506.566108993
 21
262.3946916594
 31
0.0
  0
LINE
  5
26D
330
1F
100
AcDbEntity
  8
0
  6
HIDDEN
 62
     7
370
    18
100
AcDbLine
 10
503.026108993
 20
282.0156916594
 30
0.0
 11
504.566108993
 21
282.0156916594
 31
0.0
  0
LINE
  5
26E
330
1F
100
AcDbEntity
  8
0
  6
HIDDEN
 62
     7
370
    18
100
AcDbLine
 10
504.566108993
 20
282.0156916594
 30
0.0
 11
506.106108993
 21
282.0156916594
 31
0.0
  0
SPLINE
  5
26F
330
1F
100
AcDbEntity
  8
0
  6
HIDDEN
 62
     7
370
    18
100
AcDbSpline
210
0.0
220
0.0
230
1.0
 70
    11
 71
     3
 72
    45
 73
    41
 74
     0
 42
0.00000001
 43
0.00000001
 40
0.0
 40
0.0
 40
0.0
 40
0.0
 40
0.0262088175827761
 40
0.0524200900394289
 40
0.0786020780474063
 40
0.1047876995758788
 40
0.1315202109654283
 40
0.1582521751430762
 40
0.1854448930335645
 40
0.2126327205277551
 40
0.239204262489937
 40
0.2657744974535508
 40
0.2916019069120254
 40
0.3174329580901961
 40
0.3435560431080953
 40
0.3696818758751385
 40
0.3966627025820159
 40
0.4236411498099721
 40
0.4507372798176026
 40
0.4778291298907161
 40
0.5041362816951332
 40
0.5304438585387274
 40
0.5562978307078232
 40
0.5821555208836049
 40
0.6085211805097682
 40
0.6348885648474085
 40
0.662002367669554
 40
0.6891125217113576
 40
0.7160624375495792
 40
0.7430085657311402
 40
0.7690682955747989
 40
0.7951301003439952
 40
0.8209897420598457
 40
0.8468532560356141
 40
0.8734812367267233
 40
0.9001092304212914
 40
0.9273032915189294
 40
0.9544929256058241
 40
0.9772470867513955
 40
0.9999999999999999
 40
0.9999999999999999
 40
0.9999999999999999
 40
0.9999999999999999
 10
520.5661089929871
 20
302.0156916593758
 30
0.0
 10
520.1250370663718
 20
302.0098087734766
 30
0.0
 10
519.2428518997189
 20
301.9980424506522
 30
0.0
 10
517.9577979144962
 20
301.9104754451171
 30
0.0
 10
516.7491068153291
 20
301.7792370634533
 30
0.0
 10
515.6371401526804
 20
301.6145184314267
 30
0.0
 10
514.6567058096514
 20
301.4326118222169
 30
0.0
 10
513.8260606182221
 20
301.252012331237
 30
0.0
 10
513.1848228796996
 20
301.0954166165626
 30
0.0
 10
512.7517442037423
 20
300.9804985159834
 30
0.0
 10
512.5488919636858
 20
300.9250027136998
 30
0.0
 10
512.5673976721293
 20
300.9296037200668
 30
0.0
 10
512.8074458228841
 20
300.9959991182515
 30
0.0
 10
513.246558949566
 20
301.1107367377392
 30
0.0
 10
513.8841238522325
 20
301.265228475166
 30
0.0
 10
514.7064045917854
 20
301.4428207655166
 30
0.0
 10
515.7027023884564
 20
301.6251910220348
 30
0.0
 10
516.8487121731747
 20
301.793059730217
 30
0.0
 10
518.109092645781
 20
301.9237138328749
 30
0.0
 10
519.4320118009807
 20
302.0046355732866
 30
0.0
 10
520.7764142491008
 20
302.0240490873425
 30
0.0
 10
522.0939215650782
 20
301.9864836250637
 30
0.0
 10
523.3588038835611
 20
301.89326554068
 30
0.0
 10
524.5482931083891
 20
301.7578984759022
 30
0.0
 10
525.6337819072779
 20
301.5903719043433
 30
0.0
 10
526.5989565713085
 20
301.4075812059972
 30
0.0
 10
527.4017656037238
 20
301.229641883345
 30
0.0
 10
528.0197873309876
 20
301.0764433631706
 30
0.0
 10
528.4193900678601
 20
300.9703857698034
 30
0.0
 10
528.5959017107393
 20
300.9208844121279
 30
0.0
 10
528.5424066075191
 20
300.936385558279
 30
0.0
 10
528.2798430150718
 20
301.0077167237046
 30
0.0
 10
527.8095415509017
 20
301.1301333218406
 30
0.0
 10
527.1490218264793
 20
301.2879356331019
 30
0.0
 10
526.3018349111447
 20
301.4672093081014
 30
0.0
 10
525.2836694815218
 20
301.6494946237031
 30
0.0
 10
524.1193427733023
 20
301.8127018626924
 30
0.0
 10
522.9112396313853
 20
301.9317408892034
 30
0.0
 10
521.7146166013542
 20
302.0025144108523
 30
0.0
 10
520.9489378636175
 20
302.0112993235014
 30
0.0
 10
520.5661089929871
 20
302.0156916593758
 30
0.0
  0
LINE
  5
270
330
1F
100
AcDbEntity
  8
0
  6
HIDDEN
 62
     7
370
    18
100
AcDbLine
 10
528.5616415028
 20
314.5156916594
 30
0.0
 11
512.5705764831
 21
314.5156916594
 31
0.0
  0
ARC
  5
271
330
1F
100
AcDbEntity
  8
0
  6
HIDDEN
 62
     7
370
    18
100
AcDbCircle
 10
520.566108993
 20
272.0156916594
 30
0.0
 40
21.00000000000011
100
AcDbArc
 50
139.6324064558
 51
163.398450401
  0
LINE
  5
272
330
1F
100
AcDbEntity
  8
0
  6
HIDDEN
 62
     7
370
    18
100
AcDbLine
 10
504.566108993
 20
278.0156916594
 30
0.0
 11
508.566108993
 21
278.0156916594
 31
0.0
  0
SPLINE
  5
273
330
1F
100
AcDbEntity
  8
0
  6
HIDDEN
 62
     7
370
    18
100
AcDbSpline
210
0.0
220
0.0
230
1.0
 70
    11
 71
     3
 72
    21
 73
    17
 74
     0
 42
0.00000001
 43
0.00000001
 40
0.0
 40
0.0
 40
0.0
 40
0.0
 40
0.0837916135703554
 40
0.1674129902023014
 40
0.2207750720084707
 40
0.2740788236205111
 40
0.3632981725349184
 40
0.4083644283665456
 40
0.453400795731529
 40
0.5318433657736763
 40
0.605774464529956
 40
0.6818714267939513
 40
0.7659772617599148
 40
0.8287202245313795
 40
0.891551461249849
 40
1.0
 40
1.0
 40
1.0
 40
1.0
 10
504.566108992987
 20
285.6171621681112
 30
0.0
 10
504.8427618278477
 20
285.9309185335368
 30
0.0
 10
505.395505430202
 20
286.5577938148776
 30
0.0
 10
506.1678218552324
 20
287.3126975922414
 30
0.0
 10
506.8214174833249
 20
287.89786812072
 30
0.0
 10
507.4619648363065
 20
288.4336268988099
 30
0.0
 10
507.9972937320714
 20
288.8421087562367
 30
0.0
 10
508.3503901078708
 20
289.0979366744151
 30
0.0
 10
508.5662456179223
 20
289.2498027891536
 30
0.0
 10
508.5949827685793
 20
289.2694763300767
 30
0.0
 10
508.3009471926029
 20
289.064242108384
 30
0.0
 10
507.7356150936751
 20
288.6474744519568
 30
0.0
 10
507.0302071886759
 20
288.081672812798
 30
0.0
 10
506.3130027009245
 20
287.4450761040649
 30
0.0
 10
505.4953880220352
 20
286.6634141674695
 30
0.0
 10
504.926383400935
 20
286.0227861065092
 30
0.0
 10
504.566108992987
 20
285.6171621681112
 30
0.0
  0
LINE
  5
274
330
1F
100
AcDbEntity
  8
0
  6
HIDDEN
 62
     7
370
    18
100
AcDbLine
 10
500.4414971955
 20
278.0156916594
 30
0.0
 11
504.566108993
 21
278.0156916594
 31
0.0
  0
LINE
  5
275
330
1F
100
AcDbEntity
  8
0
  6
HIDDEN
 62
     7
370
    18
100
AcDbLine
 10
506.816108993
 20
271.0156916594
 30
0.0
 11
502.316108993
 21
271.0156916594
 31
0.0
  0
LINE
  5
276
330
1F
100
AcDbEntity
  8
0
  6
HIDDEN
 62
     7
370
    18
100
AcDbLine
 10
506.811669132
 20
271.5156916594
 30
0.0
 11
502.320548854
 21
271.5156916594
 31
0.0
  0
LINE
  5
277
330
1F
100
AcDbEntity
  8
0
  6
HIDDEN
 62
     7
370
    18
100
AcDbLine
 10
506.811669132
 20
278.0156916594
 30
0.0
 11
502.320548854
 21
278.0156916594
 31
0.0
  0
LINE
  5
278
330
1F
100
AcDbEntity
  8
0
  6
HIDDEN
 62
     7
370
    18
100
AcDbLine
 10
506.811669132
 20
272.5156916594
 30
0.0
 11
502.320548854
 21
272.5156916594
 31
0.0
  0
LINE
  5
279
330
1F
100
AcDbEntity
  8
0
  6
HIDDEN
 62
     7
370
    18
100
AcDbLine
 10
506.2114952583
 20
271.0156916594
 30
0.0
 11
502.9207227276
 21
271.0156916594
 31
0.0
  0
SPLINE
  5
27A
330
1F
100
AcDbEntity
  8
0
  6
HIDDEN
 62
     7
370
    18
100
AcDbSpline
210
0.0
220
0.0
230
1.0
 70
    11
 71
     3
 72
    27
 73
    23
 74
     0
 42
0.00000001
 43
0.00000001
 40
0.0
 40
0.0
 40
0.0
 40
0.0
 40
0.0882415254514849
 40
0.1403327544982513
 40
0.1816050732708276
 40
0.2150449006194849
 40
0.2486232991180175
 40
0.2791560443612395
 40
0.3108197230549559
 40
0.3575502740377031
 40
0.4228128332057922
 40
0.513620544900179
 40
0.6065342945533173
 40
0.6564912163175682
 40
0.6951042373814448
 40
0.7212115626155399
 40
0.7475110761090987
 40
0.7703607844801554
 40
0.8031266814935701
 40
0.8558348682827049
 40
0.9428451894015552
 40
1.0
 40
1.0
 40
1.0
 40
1.0
 10
504.566108992987
 20
258.4142211506403
 30
0.0
 10
504.8284020233295
 20
258.1157819235575
 30
0.0
 10
505.2455333370202
 20
257.6411663888354
 30
0.0
 10
505.7593874942075
 20
257.1215761499496
 30
0.0
 10
506.0502405658115
 20
256.8394410813942
 30
0.0
 10
506.204444638796
 20
256.6942817498218
 30
0.0
 10
506.2310610107747
 20
256.6694833667408
 30
0.0
 10
506.1435481614544
 20
256.7513641205064
 30
0.0
 10
505.945159988583
 20
256.9402691358435
 30
0.0
 10
505.5782312353539
 20
257.3013878366685
 30
0.0
 10
504.978630313175
 20
257.9303716535783
 30
0.0
 10
504.2416239306947
 20
258.7857071801545
 30
0.0
 10
503.6207173627915
 20
259.6013843306076
 30
0.0
 10
503.2187147696213
 20
260.1775698377892
 30
0.0
 10
503.0182920165466
 20
260.4790783131493
 30
0.0
 10
502.9214699540204
 20
260.6284697126976
 30
0.0
 10
502.9079507975437
 20
260.6495380762088
 30
0.0
 10
502.9675170957493
 20
260.55717930233
 30
0.0
 10
503.1272674681317
 20
260.313449590663
 30
0.0
 10
503.4872741777195
 20
259.7872575981011
 30
0.0
 10
503.9914603761027
 20
259.1052150776993
 30
0.0
 10
504.402966025227
 20
258.6103945975996
 30
0.0
 10
504.566108992987
 20
258.4142211506403
 30
0.0
  0
ARC
  5
27B
330
1F
100
AcDbEntity
  8
0
  6
HIDDEN
 62
     7
370
    18
100
AcDbCircle
 10
520.566108993
 20
272.0156916594
 30
0.0
 40
21.00000000000011
100
AcDbArc
 50
139.6324064558
 51
163.398450401
  0
LINE
  5
27C
330
1F
100
AcDbEntity
  8
0
  6
HIDDEN
 62
     7
370
    18
100
AcDbLine
 10
527.566108993
 20
275.8886750056
 30
0.0
 11
527.566108993
 21
291.8146815326
 31
0.0
  0
ARC
  5
27D
330
1F
100
AcDbEntity
  8
0
  6
HIDDEN
 62
     7
370
    18
100
AcDbCircle
 10
520.566108993
 20
272.0156916594
 30
0.0
 40
8.000000000000085
100
AcDbArc
 50
28.9550243719
 51
176.4166783015
  0
ARC
  5
27E
330
1F
100
AcDbEntity
  8
0
  6
HIDDEN
 62
     7
370
    18
100
AcDbCircle
 10
520.566108993
 20
272.0156916594
 30
0.0
 40
21.00000000000003
100
AcDbArc
 50
70.5287793655
 51
178.6356858493
  0
LINE
  5
27F
330
1F
100
AcDbEntity
  8
0
  6
HIDDEN
 62
     7
370
    18
100
AcDbLine
 10
499.5720622178
 20
272.5156916594
 30
0.0
 11
512.5817492817
 21
272.5156916594
 31
0.0
  0
ARC
  5
280
330
1F
100
AcDbEntity
  8
0
  6
HIDDEN
 62
     7
370
    18
100
AcDbCircle
 10
520.566108993
 20
272.0156916594
 30
0.0
 40
8.000000000000085
100
AcDbArc
 50
183.5833216985
 51
331.0449756281
  0
ARC
  5
281
330
1F
100
AcDbEntity
  8
0
  6
HIDDEN
 62
     7
370
    18
100
AcDbCircle
 10
520.566108993
 20
272.0156916594
 30
0.0
 40
21.00000000000003
100
AcDbArc
 50
181.3643141507
 51
289.4712206345
  0
LINE
  5
282
330
1F
100
AcDbEntity
  8
0
  6
HIDDEN
 62
     7
370
    18
100
AcDbLine
 10
499.5720622178
 20
271.5156916594
 30
0.0
 11
512.5817492817
 21
271.5156916594
 31
0.0
  0
LINE
  5
283
330
1F
100
AcDbEntity
  8
0
  6
HIDDEN
 62
     7
370
    18
100
AcDbLine
 10
527.566108993
 20
252.2167017862
 30
0.0
 11
527.566108993
 21
268.1427083132
 31
0.0
  0
ARC
  5
284
330
1F
100
AcDbEntity
  8
0
  6
HIDDEN
 62
     7
370
    18
100
AcDbCircle
 10
520.566108993
 20
272.0156916594
 30
0.0
 40
8.000000000000085
100
AcDbArc
 50
183.5833216985
 51
331.0449756281
  0
ARC
  5
285
330
1F
100
AcDbEntity
  8
0
  6
HIDDEN
 62
     7
370
    18
100
AcDbCircle
 10
520.566108993
 20
272.0156916594
 30
0.0
 40
21.00000000000003
100
AcDbArc
 50
181.3643141507
 51
289.4712206345
  0
ARC
  5
286
330
1F
100
AcDbEntity
  8
0
  6
HIDDEN
 62
     7
370
    18
100
AcDbCircle
 10
520.566108993
 20
272.0156916594
 30
0.0
 40
8.000000000000085
100
AcDbArc
 50
28.9550243719
 51
176.4166783015
  0
ARC
  5
287
330
1F
100
AcDbEntity
  8
0
  6
HIDDEN
 62
     7
370
    18
100
AcDbCircle
 10
520.566108993
 20
272.0156916594
 30
0.0
 40
21.00000000000003
100
AcDbArc
 50
70.5287793655
 51
178.6356858493
  0
LINE
  5
288
330
1F
100
AcDbEntity
  8
0
  6
HIDDEN
 62
     7
370
    18
100
AcDbLine
 10
528.916108993
 20
309.8156916594
 30
0.0
 11
528.916108993
 21
314.5156916594
 31
0.0
  0
LINE
  5
289
330
1F
100
AcDbEntity
  8
0
  6
HIDDEN
 62
     7
370
    18
100
AcDbLine
 10
512.216108993
 20
314.5156916594
 30
0.0
 11
512.216108993
 21
309.8156916594
 31
0.0
  0
ARC
  5
28A
330
1F
100
AcDbEntity
  8
0
  6
HIDDEN
 62
     7
370
    18
100
AcDbCircle
 10
512.516108993
 20
309.8156916594
 30
0.0
 40
0.3000000000000114
100
AcDbArc
 50
180.0
 51
270.0
  0
ARC
  5
28B
330
1F
100
AcDbEntity
  8
0
  6
HIDDEN
 62
     7
370
    18
100
AcDbCircle
 10
528.616108993
 20
309.8156916594
 30
0.0
 40
0.3000000000000682
100
AcDbArc
 50
270.0
 51
0.0
  0
LINE
  5
28C
330
1F
100
AcDbEntity
  8
0
  6
HIDDEN
 62
     7
370
    18
100
AcDbLine
 10
508.176108993
 20
278.0156916594
 30
0.0
 11
508.176108993
 21
281.8156916594
 31
0.0
  0
LINE
  5
28D
330
1F
100
AcDbEntity
  8
0
  6
HIDDEN
 62
     7
370
    18
100
AcDbLine
 10
500.956108993
 20
279.5288734088
 30
0.0
 11
500.956108993
 21
278.0156916594
 31
0.0
  0
LINE
  5
28E
330
1F
100
AcDbEntity
  8
0
  6
HIDDEN
 62
     7
370
    18
100
AcDbLine
 10
502.566108993
 20
262.3946916594
 30
0.0
 11
502.945108993
 21
262.0156916594
 31
0.0
  0
LINE
  5
28F
330
1F
100
AcDbEntity
  8
0
  6
HIDDEN
 62
     7
370
    18
100
AcDbLine
 10
506.187108993
 20
262.0156916594
 30
0.0
 11
506.566108993
 21
262.3946916594
 31
0.0
  0
LINE
  5
290
330
1F
100
AcDbEntity
  8
0
  6
HIDDEN
 62
     7
370
    18
100
AcDbLine
 10
506.566108993
 20
262.3946916594
 30
0.0
 11
506.566108993
 21
271.5156916594
 31
0.0
  0
LINE
  5
291
330
1F
100
AcDbEntity
  8
0
  6
HIDDEN
 62
     7
370
    18
100
AcDbLine
 10
506.566108993
 20
272.5156916594
 30
0.0
 11
506.566108993
 21
277.8156916594
 31
0.0
  0
LINE
  5
292
330
1F
100
AcDbEntity
  8
0
  6
HIDDEN
 62
     7
370
    18
100
AcDbLine
 10
502.566108993
 20
277.8156916594
 30
0.0
 11
502.566108993
 21
272.5156916594
 31
0.0
  0
LINE
  5
293
330
1F
100
AcDbEntity
  8
0
  6
HIDDEN
 62
     7
370
    18
100
AcDbLine
 10
502.566108993
 20
271.5156916594
 30
0.0
 11
502.566108993
 21
262.3946916594
 31
0.0
  0
LINE
  5
294
330
1F
100
AcDbEntity
  8
0
  6
HIDDEN
 62
     7
370
    18
100
AcDbLine
 10
512.566108993
 20
314.5156916594
 30
0.0
 11
512.566108993
 21
300.9371237157
 31
0.0
  0
LINE
  5
295
330
1F
100
AcDbEntity
  8
0
  6
HIDDEN
 62
     7
370
    18
100
AcDbLine
 10
528.566108993
 20
300.9353145135
 30
0.0
 11
528.566108993
 21
314.5156916594
 31
0.0
  0
LINE
  5
296
330
1F
100
AcDbEntity
  8
0
  6
HIDDEN
 62
     7
370
    18
100
AcDbLine
 10
508.566108993
 20
278.0156916594
 30
0.0
 11
508.566108993
 21
289.2202949241
 31
0.0
  0
LINE
  5
297
330
1F
100
AcDbEntity
  8
0
  6
HIDDEN
 62
     7
370
    18
100
AcDbLine
 10
502.316108993
 20
271.5156916594
 30
0.0
 11
502.316108993
 21
271.0156916594
 31
0.0
  0
LINE
  5
298
330
1F
100
AcDbEntity
  8
0
  6
HIDDEN
 62
     7
370
    18
100
AcDbLine
 10
506.816108993
 20
271.0156916594
 30
0.0
 11
506.816108993
 21
271.5156916594
 31
0.0
  0
LINE
  5
299
330
1F
100
AcDbEntity
  8
0
  6
HIDDEN
 62
     7
370
    18
100
AcDbLine
 10
502.316108993
 20
278.0156916594
 30
0.0
 11
502.316108993
 21
272.5156916594
 31
0.0
  0
LINE
  5
29A
330
1F
100
AcDbEntity
  8
0
  6
HIDDEN
 62
     7
370
    18
100
AcDbLine
 10
506.816108993
 20
272.5156916594
 30
0.0
 11
506.816108993
 21
278.0156916594
 31
0.0
  0
LINE
  5
29B
330
1F
100
AcDbEntity
  8
0
  6
HIDDEN
 62
     7
370
    18
100
AcDbLine
 10
502.916108993
 20
271.0156916594
 30
0.0
 11
502.916108993
 21
260.6241098825
 31
0.0
  0
LINE
  5
29C
330
1F
100
AcDbEntity
  8
0
  6
HIDDEN
 62
     7
370
    18
100
AcDbLine
 10
506.216108993
 20
256.6952169129
 30
0.0
 11
506.216108993
 21
271.0156916594
 31
0.0
  0
INSERT
  5
2A8
330
1F
100
AcDbEntity
  8
0
  6
Continuous
 62
     7
370
     0
100
AcDbBlockReference
  2
SW_CENTERMARKSYMBOL_2
 10
520.566108993
 20
272.0156916594
 30
0.0
  0
INSERT
  5
2C8
330
1F
100
AcDbEntity
  8
0
  6
Continuous
 62
     7
370
     0
100
AcDbBlockReference
  2
SW_CENTERMARKSYMBOL_3
 10
555.5678946617
 20
307.0174773281
 30
0.0
  0
INSERT
  5
2F4
330
1F
100
AcDbEntity
  8
0
  6
Continuous
 62
     7
370
     0
100
AcDbBlockReference
  2
SW_CENTERMARKSYMBOL_4
 10
556.3634834571
 20
289.8636041838
 30
0.0
  0
INSERT
  5
318
330
1F
100
AcDbEntity
  8
0
  6
Continuous
 62
     7
370
     0
100
AcDbBlockReference
  2
SW_CENTERMARKSYMBOL_5
 10
538.4140215174
 20
307.8130661235
 30
0.0
  0
INSERT
  5
338
330
1F
100
AcDbEntity
  8
0
  6
Continuous
 62
     7
370
     0
100
AcDbBlockReference
  2
SW_CENTERMARKSYMBOL_6
 10
485.5643233243
 20
307.0174773281
 30
0.0
  0
LINE
  5
339
330
1F
100
AcDbEntity
  8
0
  6
CENTER
 62
     7
370
    18
100
AcDbLine
 10
498.7716037423
 20
250.2211864087
 30
0.0
 11
472.6271526271
 21
224.0767352935
 31
0.0
  0
LINE
  5
33A
330
1F
100
AcDbEntity
  8
0
  6
Continuous
 62
     7
370
    18
100
AcDbLine
 10
486.4536993106
 20
258.2964501533
 30
0.0
 11
496.6502833987
 21
248.0998660651
 31
0.0
  0
SOLID
  5
33B
330
1F
100
AcDbEntity
  8
0
  6
Continuous
 62
     7
370
    18
100
AcDbTrace
 10
496.6502833987
 20
248.0998660651
 30
0.0
 11
492.3242379476
 21
254.073928831
 31
0.0
 12
490.6762206329
 22
252.4259115162
 32
0.0
 13
490.6762206329
 23
252.4259115162
 33
0.0
  0
LINE
  5
33C
330
1F
100
AcDbEntity
  8
0
  6
Continuous
 62
     7
370
    18
100
AcDbLine
 10
464.9305427299
 20
236.0159858778
 30
0.0
 11
474.7484729707
 21
226.1980556371
 31
0.0
  0
SOLID
  5
33D
330
1F
100
AcDbEntity
  8
0
  6
Continuous
 62
     7
370
    18
100
AcDbTrace
 10
474.7484729707
 20
226.1980556371
 30
0.0
 11
470.4224275195
 21
232.1721184029
 31
0.0
 12
468.7744102048
 22
230.5241010882
 32
0.0
 13
468.7744102048
 23
230.5241010882
 33
0.0
  0
MTEXT
  5
33E
330
1F
100
AcDbEntity
  8
0
  6
Continuous
 62
     7
100
AcDbMText
 10
484.6284598926
 20
268.8101479646
 30
0.0
 40
7.2832763672
 41
0.0
 71
     1
 72
     1
  1
X
  7
SLDTEXTSTYLE2
 73
     1
 44
1.0
  0
MTEXT
  5
33F
330
1F
100
AcDbEntity
  8
0
  6
Continuous
 62
     7
100
AcDbMText
 10
458.108044142
 20
242.4920194243
 30
0.0
 40
7.2832763672
 41
0.0
 71
     1
 72
     1
  1
X
  7
SLDTEXTSTYLE2
 73
     1
 44
1.0
  0
LINE
  5
340
330
1F
100
AcDbEntity
  8
0
  6
Continuous
 62
     7
370
    18
100
AcDbLine
 10
502.566108993
 20
261.199037833
 30
0.0
 11
502.566108993
 21
261.1851209403
 31
0.0
  0
LINE
  5
341
330
1F
100
AcDbEntity
  8
0
  6
HIDDEN
 62
     7
370
    18
100
AcDbLine
 10
506.566108993
 20
256.6834543797
 30
0.0
 11
506.566108993
 21
271.0156916594
 31
0.0
  0
LINE
  5
342
330
1F
100
AcDbEntity
  8
0
  6
HIDDEN
 62
     7
370
    18
100
AcDbLine
 10
502.566108993
 20
271.0156916594
 30
0.0
 11
502.566108993
 21
261.199037833
 31
0.0
  0
LINE
  5
343
330
1F
100
AcDbEntity
  8
0
  6
HIDDEN
 62
     7
370
    18
100
AcDbLine
 10
506.566108993
 20
256.6834543797
 30
0.0
 11
506.5436067344
 21
256.6834543797
 31
0.0
  0
LINE
  5
344
330
1F
100
AcDbEntity
  8
0
  6
HIDDEN
 62
     7
370
     0
100
AcDbLine
 10
506.5433979034
 20
256.6834543797
 30
0.0
 11
506.216108993
 21
256.6834543797
 31
0.0
  0
LINE
  5
345
330
1F
100
AcDbEntity
  8
0
  6
Continuous
 62
     7
370
    18
100
AcDbLine
 10
502.945108993
 20
272.5156916594
 30
0.0
 11
502.945108993
 21
271.5156916594
 31
0.0
  0
LINE
  5
346
330
1F
100
AcDbEntity
  8
0
  6
Continuous
 62
     7
370
    18
100
AcDbLine
 10
506.187108993
 20
271.5156916594
 30
0.0
 11
506.187108993
 21
272.5156916594
 31
0.0
  0
LINE
  5
347
330
1F
100
AcDbEntity
  8
0
  6
HIDDEN
 62
     7
370
    18
100
AcDbLine
 10
502.945108993
 20
278.0156916594
 30
0.0
 11
502.945108993
 21
272.5156916594
 31
0.0
  0
LINE
  5
348
330
1F
100
AcDbEntity
  8
0
  6
HIDDEN
 62
     7
370
    18
100
AcDbLine
 10
502.945108993
 20
271.5156916594
 30
0.0
 11
502.945108993
 21
262.0156916594
 31
0.0
  0
LINE
  5
349
330
1F
100
AcDbEntity
  8
0
  6
HIDDEN
 62
     7
370
    18
100
AcDbLine
 10
506.187108993
 20
262.0156916594
 30
0.0
 11
506.187108993
 21
271.5156916594
 31
0.0
  0
LINE
  5
34A
330
1F
100
AcDbEntity
  8
0
  6
HIDDEN
 62
     7
370
    18
100
AcDbLine
 10
506.187108993
 20
272.5156916594
 30
0.0
 11
506.187108993
 21
278.0156916594
 31
0.0
  0
CIRCLE
  5
34B
330
1F
100
AcDbEntity
  8
0
  6
Continuous
 62
     7
370
     0
100
AcDbCircle
 10
555.5678946617
 20
307.0174773281
 30
0.0
 40
3.0
  0
CIRCLE
  5
34C
330
1F
100
AcDbEntity
  8
0
  6
Continuous
 62
     7
370
     0
100
AcDbCircle
 10
485.5643233243
 20
307.0174773281
 30
0.0
 40
3.0
  0
CIRCLE
  5
34D
330
1F
100
AcDbEntity
  8
0
  6
Continuous
 62
     7
370
     0
100
AcDbCircle
 10
485.5643233243
 20
237.0139059906
 30
0.0
 40
3.0
  0
CIRCLE
  5
34E
330
1F
100
AcDbEntity
  8
0
  6
Continuous
 62
     7
370
     0
100
AcDbCircle
 10
555.5678946617
 20
237.0139059906
 30
0.0
 40
2.999999999999886
  0
LINE
  5
34F
330
1F
100
AcDbEntity
  8
0
  6
CENTERX2
 62
     7
370
    18
100
AcDbLine
 10
504.566108993
 20
259.0793746358
 30
0.0
 11
504.566108993
 21
284.3365351104
 31
0.0
  0
ARC
  5
350
330
1F
100
AcDbEntity
  8
0
  6
Continuous
 62
     7
370
    18
100
AcDbCircle
 10
377.6510379586
 20
160.9095668317
 30
0.0
 40
17.56139799188036
100
AcDbArc
 50
175.4472311435
 51
181.8795072111
  0
ARC
  5
351
330
1F
100
AcDbEntity
  8
0
  6
Continuous
 62
     7
370
    18
100
AcDbCircle
 10
378.8383692999
 20
160.6032543672
 30
0.0
 40
18.77048419861772
100
AcDbArc
 50
132.1863948376
 51
174.802850838
  0
LINE
  5
352
330
1F
100
AcDbEntity
  8
0
  6
Continuous
 62
     7
370
    35
100
AcDbLine
 10
380.9783713616
 20
158.3335947934
 30
0.0
 11
397.9783685602
 21
158.3335947934
 31
0.0
  0
LINE
  5
353
330
1F
100
AcDbEntity
  8
0
  6
Continuous
 62
     7
370
    35
100
AcDbLine
 10
379.4762188293
 20
155.8335934523
 30
0.0
 11
380.9783713616
 21
158.3335947934
 31
0.0
  0
LINE
  5
354
330
1F
100
AcDbEntity
  8
0
  6
Continuous
 62
     7
370
    35
100
AcDbLine
 10
380.9783713616
 20
153.3335939738
 30
0.0
 11
379.4762188293
 21
155.8335934523
 31
0.0
  0
LINE
  5
355
330
1F
100
AcDbEntity
  8
0
  6
Continuous
 62
     7
370
    35
100
AcDbLine
 10
397.9783685602
 20
153.3335939738
 30
0.0
 11
380.9783713616
 21
153.3335939738
 31
0.0
  0
LINE
  5
356
330
1F
100
AcDbEntity
  8
0
  6
Continuous
 62
     7
370
    35
100
AcDbLine
 10
397.9783685602
 20
153.3335939738
 30
0.0
 11
397.9783685602
 21
148.8335941676
 31
0.0
  0
LINE
  5
357
330
1F
100
AcDbEntity
  8
0
  6
Continuous
 62
     7
370
    35
100
AcDbLine
 10
397.9783685602
 20
148.8335941676
 30
0.0
 11
397.4783712722
 21
148.3335931543
 31
0.0
  0
LINE
  5
358
330
1F
100
AcDbEntity
  8
0
  6
Continuous
 62
     7
370
    35
100
AcDbLine
 10
373.9783702142
 20
148.3335931543
 30
0.0
 11
397.4783712722
 21
148.3335931543
 31
0.0
  0
LINE
  5
359
330
1F
100
AcDbEntity
  8
0
  6
Continuous
 62
     7
370
    35
100
AcDbLine
 10
361.9783701099
 20
160.3335932586
 30
0.0
 11
373.9783702142
 21
148.3335931543
 31
0.0
  0
LINE
  5
35A
330
1F
100
AcDbEntity
  8
0
  6
Continuous
 62
     7
370
    35
100
AcDbLine
 10
360.0990878142
 20
160.3335932586
 30
0.0
 11
361.9783701099
 21
160.3335932586
 31
0.0
  0
LINE
  5
35B
330
1F
100
AcDbEntity
  8
0
  6
Continuous
 62
     7
370
    35
100
AcDbLine
 10
397.9783685602
 20
174.5115088988
 30
0.0
 11
397.9783685602
 21
158.3335947934
 31
0.0
  0
LINE
  5
35C
330
1F
100
AcDbEntity
  8
0
  6
Continuous
 62
     7
370
    35
100
AcDbLine
 10
380.9783713616
 20
153.3335939738
 30
0.0
 11
380.9783713616
 21
158.3335947934
 31
0.0
  0
LINE
  5
35D
330
1F
100
AcDbEntity
  8
0
  6
Continuous
 62
     7
370
    35
100
AcDbLine
 10
397.9783685602
 20
153.3335939738
 30
0.0
 11
397.9783685602
 21
158.3335947934
 31
0.0
  0
INSERT
  5
372
330
1F
100
AcDbEntity
  8
0
  6
Continuous
 62
     7
370
    18
100
AcDbBlockReference
  2
SW_HATCH_0
 10
397.9783685602
 20
151.488982955
 30
0.0
  0
MTEXT
  5
373
330
1F
100
AcDbEntity
  8
0
  6
Continuous
 62
     7
370
     0
100
AcDbMText
 10
383.0021554097
 20
139.7524915967
 30
0.0
 40
3.96875
 41
0.0
 71
     2
 72
     1
  1
SECTION  X-X
  7
SLDTEXTSTYLE2
 73
     1
 44
1.0
  0
LINE
  5
374
330
1F
100
AcDbEntity
  8
0
  6
Continuous
 62
     7
370
    18
100
AcDbLine
 10
397.9783685602
 20
152.8335948232
 30
0.0
 11
385.9783703185
 21
152.8335948232
 31
0.0
  0
LINE
  5
375
330
1F
100
AcDbEntity
  8
0
  6
Continuous
 62
     7
370
    18
100
AcDbLine
 10
385.9783703185
 20
158.833593944
 30
0.0
 11
397.9783685602
 21
158.833593944
 31
0.0
  0
LINE
  5
376
330
1F
100
AcDbEntity
  8
0
  6
Continuous
 62
     7
370
    25
100
AcDbLine
 10
385.9783703185
 20
158.3335947934
 30
0.0
 11
385.9783703185
 21
158.833593944
 31
0.0
  0
LINE
  5
377
330
1F
100
AcDbEntity
  8
0
  6
Continuous
 62
     7
370
    25
100
AcDbLine
 10
385.9783703185
 20
152.8335948232
 30
0.0
 11
385.9783703185
 21
153.3335939738
 31
0.0
  0
LWPOLYLINE
  5
378
330
1F
100
AcDbEntity
  8
0
  6
Continuous
 62
     7
370
     0
100
AcDbPolyline
 90
       19
 70
   128
 43
0.0
 10
385.978102684
 20
158.3335947934
 10
385.9783703185
 20
158.2956135962
 10
385.9783703185
 20
158.1828248445
 10
385.9783703185
 20
157.998657668
 10
385.9783703185
 20
157.7487055901
 10
385.9783703185
 20
157.4405626151
 10
385.9783703185
 20
157.0835941229
 10
385.9783703185
 20
156.6886444334
 10
385.9783703185
 20
156.2677145693
 10
385.9783703185
 20
155.8335934523
 10
385.9783703185
 20
155.399474198
 10
385.9783703185
 20
154.9785443339
 10
385.9783703185
 20
154.5835946444
 10
385.9783703185
 20
154.2266242895
 10
385.9783703185
 20
153.9184831772
 10
385.9783703185
 20
153.6685310993
 10
385.9783703185
 20
153.4843620602
 10
385.9783703185
 20
153.3715751711
 10
385.9783703185
 20
153.3335939738
  0
LINE
  5
379
330
1F
100
AcDbEntity
  8
0
  6
CENTERX2
 62
     7
370
    18
100
AcDbLine
 10
376.1738775022
 20
155.8335934523
 30
0.0
 11
401.3532766796
 21
155.8335934523
 31
0.0
  0
LINE
  5
37A
330
1F
100
AcDbEntity
  8
0
  6
Continuous
 62
     7
370
    35
100
AcDbLine
 10
279.1783700086
 20
284.4656916594
 30
0.0
 11
278.1783700086
 21
283.8883413902
 31
0.0
  0
LINE
  5
37B
330
1F
100
AcDbEntity
  8
0
  6
Continuous
 62
     7
370
    35
100
AcDbLine
 10
278.1783700086
 20
260.1430419286
 30
0.0
 11
279.1783700086
 21
259.5656916594
 31
0.0
  0
ARC
  5
37C
330
1F
100
AcDbEntity
  8
0
  6
Continuous
 62
     7
370
    35
100
AcDbCircle
 10
277.7783700086
 20
260.7156916594
 30
0.0
 40
0.3999999999999863
100
AcDbArc
 50
0.0
 51
107.5
  0
ARC
  5
37D
330
1F
100
AcDbEntity
  8
0
  6
Continuous
 62
     7
370
    35
100
AcDbCircle
 10
277.7783700086
 20
283.3156916594
 30
0.0
 40
0.4000000000000404
100
AcDbArc
 50
252.5
 51
0.0
  0
LINE
  5
37E
330
1F
100
AcDbEntity
  8
0
  6
Continuous
 62
     7
370
    35
100
AcDbLine
 10
242.6783700086
 20
261.0156916594
 30
0.0
 11
277.3996446399
 21
261.0156916594
 31
0.0
  0
LINE
  5
37F
330
1F
100
AcDbEntity
  8
0
  6
Continuous
 62
     7
370
    35
100
AcDbLine
 10
277.3996446399
 20
283.0156916594
 30
0.0
 11
274.3021904868
 21
283.0156916594
 31
0.0
  0
LINE
  5
380
330
1F
100
AcDbEntity
  8
0
  6
Continuous
 62
     7
370
    35
100
AcDbLine
 10
277.3996446399
 20
261.0156916594
 30
0.0
 11
277.6580876888
 21
261.0971784397
 31
0.0
  0
LINE
  5
381
330
1F
100
AcDbEntity
  8
0
  6
Continuous
 62
     7
370
    35
100
AcDbLine
 10
277.6580876888
 20
282.9342048791
 30
0.0
 11
277.3996446399
 21
283.0156916594
 31
0.0
  0
LINE
  5
382
330
1F
100
AcDbEntity
  8
0
  6
Continuous
 62
     7
370
    35
100
AcDbLine
 10
242.1783700086
 20
261.5156916594
 30
0.0
 11
242.6783700086
 21
261.0156916594
 31
0.0
  0
SPLINE
  5
383
330
1F
100
AcDbEntity
  8
0
  6
Continuous
 62
     7
370
    35
100
AcDbSpline
210
0.0
220
0.0
230
1.0
 70
     8
 71
     3
 72
    15
 73
    11
 74
     0
 42
0.00000001
 43
0.00000001
 40
0.0
 40
0.0
 40
0.0
 40
0.0
 40
0.0768285542552829
 40
0.1489753119573411
 40
0.1790509348477953
 40
0.2003854210653843
 40
0.2291588081371724
 40
0.2826811801467278
 40
0.4239553830491521
 40
1.0
 40
1.0
 40
1.0
 40
1.0
 10
274.2549337537885
 20
282.9918781317971
 30
0.0
 10
274.2592332069028
 20
282.9945018452373
 30
0.0
 10
274.2675701120439
 20
282.9995893876494
 30
0.0
 10
274.2787002067377
 20
283.0042031896865
 30
0.0
 10
274.2849227174003
 20
283.0064738827504
 30
0.0
 10
274.2874605609487
 20
283.007335531784
 30
0.0
 10
274.2893738565908
 20
283.0079605832967
 30
0.0
 10
274.291154699474
 20
283.0085158448201
 30
0.0
 10
274.292202223165
 20
283.0088241817315
 30
0.0
 10
274.2901293865588
 20
283.0082152730389
 30
0.0
 10
274.288464790098
 20
283.0077262874374
 30
0.0
  0
LINE
  5
384
330
1F
100
AcDbEntity
  8
0
  6
Continuous
 62
     7
370
    35
100
AcDbLine
 10
271.1783700086
 20
282.5448767768
 30
0.0
 11
242.671038666
 21
282.5448767768
 31
0.0
  0
LINE
  5
385
330
1F
100
AcDbEntity
  8
0
  6
Continuous
 62
     7
370
    35
100
AcDbLine
 10
370.084891774
 20
256.167779135
 30
0.0
 11
370.0812505878
 21
256.167779135
 31
0.0
  0
LINE
  5
386
330
1F
100
AcDbEntity
  8
0
  6
Continuous
 62
     7
370
    35
100
AcDbLine
 10
375.1577971466
 20
238.2183171953
 30
0.0
 11
375.1553844606
 21
238.2183171953
 31
0.0
  0
LINE
  5
387
330
1F
100
AcDbEntity
  8
0
  6
Continuous
 62
     7
370
    35
100
AcDbLine
 10
365.8980271403
 20
291.8636041838
 30
0.0
 11
365.8976962216
 21
291.8636041838
 31
0.0
  0
LINE
  5
388
330
1F
100
AcDbEntity
  8
0
  6
Continuous
 62
     7
370
    35
100
AcDbLine
 10
390.4783700086
 20
314.5156916594
 30
0.0
 11
390.4783700086
 21
316.0156916594
 31
0.0
  0
LINE
  5
389
330
1F
100
AcDbEntity
  8
0
  6
Continuous
 62
     7
370
    35
100
AcDbLine
 10
369.4783700086
 20
316.0156916594
 30
0.0
 11
369.4783700086
 21
314.5156916594
 31
0.0
  0
ARC
  5
38A
330
1F
100
AcDbEntity
  8
0
  6
Continuous
 62
     7
370
    35
100
AcDbCircle
 10
389.9783700086
 20
316.0156916594
 30
0.0
 40
0.5
100
AcDbArc
 50
0.0
 51
90.0
  0
ARC
  5
38B
330
1F
100
AcDbEntity
  8
0
  6
Continuous
 62
     7
370
    35
100
AcDbCircle
 10
369.9783700086
 20
316.0156916594
 30
0.0
 40
0.5
100
AcDbArc
 50
90.0
 51
180.0
  0
ARC
  5
38C
330
1F
100
AcDbEntity
  8
0
  6
Continuous
 62
     7
370
    35
100
AcDbCircle
 10
371.9283700086
 20
309.8156916594
 30
0.0
 40
0.3000000000000114
100
AcDbArc
 50
180.0
 51
270.0
  0
ARC
  5
38D
330
1F
100
AcDbEntity
  8
0
  6
Continuous
 62
     7
370
    35
100
AcDbCircle
 10
388.0283700086
 20
309.8156916594
 30
0.0
 40
0.3000000000000682
100
AcDbArc
 50
270.0
 51
0.0
  0
LINE
  5
38E
330
1F
100
AcDbEntity
  8
0
  6
Continuous
 62
     7
370
    35
100
AcDbLine
 10
388.3283700086
 20
309.8156916594
 30
0.0
 11
388.3283700086
 21
314.5156916594
 31
0.0
  0
LINE
  5
38F
330
1F
100
AcDbEntity
  8
0
  6
Continuous
 62
     7
370
    35
100
AcDbLine
 10
371.6283700086
 20
314.5156916594
 30
0.0
 11
371.6283700086
 21
309.8156916594
 31
0.0
  0
LINE
  5
390
330
1F
100
AcDbEntity
  8
0
  6
Continuous
 62
     7
370
    35
100
AcDbLine
 10
384.7883700086
 20
278.0156916594
 30
0.0
 11
384.7883700086
 21
281.8156916594
 31
0.0
  0
LINE
  5
391
330
1F
100
AcDbEntity
  8
0
  6
Continuous
 62
     7
370
    35
100
AcDbLine
 10
377.5683700086
 20
281.8156916594
 30
0.0
 11
377.5683700086
 21
278.0156916594
 31
0.0
  0
ARC
  5
392
330
1F
100
AcDbEntity
  8
0
  6
Continuous
 62
     7
370
    35
100
AcDbCircle
 10
377.7683700086
 20
281.8156916594
 30
0.0
 40
0.1999999999999886
100
AcDbArc
 50
90.0
 51
180.0
  0
ARC
  5
393
330
1F
100
AcDbEntity
  8
0
  6
Continuous
 62
     7
370
    35
100
AcDbCircle
 10
384.5883700086
 20
281.8156916594
 30
0.0
 40
0.2000000000001023
100
AcDbArc
 50
0.0
 51
90.0
  0
LINE
  5
394
330
1F
100
AcDbEntity
  8
0
  6
Continuous
 62
     7
370
    35
100
AcDbLine
 10
383.1783700086
 20
271.5156916594
 30
0.0
 11
383.1783700086
 21
272.5156916594
 31
0.0
  0
LINE
  5
395
330
1F
100
AcDbEntity
  8
0
  6
Continuous
 62
     7
370
    35
100
AcDbLine
 10
379.1783700086
 20
272.5156916594
 30
0.0
 11
379.1783700086
 21
271.5156916594
 31
0.0
  0
LINE
  5
396
330
1F
100
AcDbEntity
  8
0
  6
Continuous
 62
     7
370
    35
100
AcDbLine
 10
367.3783700086
 20
294.5156916594
 30
0.0
 11
365.8878149302
 21
294.5156916594
 31
0.0
  0
LINE
  5
397
330
1F
100
AcDbEntity
  8
0
  6
Continuous
 62
     7
370
    35
100
AcDbLine
 10
367.6783700086
 20
294.2156916594
 30
0.0
 11
367.3783700086
 21
294.5156916594
 31
0.0
  0
LINE
  5
398
330
1F
100
AcDbEntity
  8
0
  6
Continuous
 62
     7
370
    35
100
AcDbLine
 10
375.1783700086
 20
293.0156916594
 30
0.0
 11
367.6783700086
 21
293.0156916594
 31
0.0
  0
LINE
  5
399
330
1F
100
AcDbEntity
  8
0
  6
Continuous
 62
     7
370
    35
100
AcDbLine
 10
385.6783700086
 20
293.0156916594
 30
0.0
 11
376.1783700086
 21
293.0156916594
 31
0.0
  0
LINE
  5
39A
330
1F
100
AcDbEntity
  8
0
  6
Continuous
 62
     7
370
    35
100
AcDbLine
 10
376.1783700086
 20
251.0156916594
 30
0.0
 11
385.6783700086
 21
251.0156916594
 31
0.0
  0
LINE
  5
39B
330
1F
100
AcDbEntity
  8
0
  6
Continuous
 62
     7
370
    35
100
AcDbLine
 10
371.3026381409
 20
251.0156916594
 30
0.0
 11
375.1783700086
 21
251.0156916594
 31
0.0
  0
LINE
  5
39C
330
1F
100
AcDbEntity
  8
0
  6
Continuous
 62
     7
370
    35
100
AcDbLine
 10
385.6783700086
 20
251.0156916594
 30
0.0
 11
386.1783700086
 21
251.5156916594
 31
0.0
  0
LINE
  5
39D
330
1F
100
AcDbEntity
  8
0
  6
Continuous
 62
     7
370
    35
100
AcDbLine
 10
386.1783700086
 20
292.5156916594
 30
0.0
 11
385.6783700086
 21
293.0156916594
 31
0.0
  0
LINE
  5
39E
330
1F
100
AcDbEntity
  8
0
  6
Continuous
 62
     7
370
    35
100
AcDbLine
 10
274.1783700086
 20
285.2656916594
 30
0.0
 11
273.9283700086
 21
285.5156916594
 31
0.0
  0
LINE
  5
39F
330
1F
100
AcDbEntity
  8
0
  6
Continuous
 62
     7
370
    35
100
AcDbLine
 10
274.1783700086
 20
282.9701839709
 30
0.0
 11
274.1783700086
 21
285.2656916594
 31
0.0
  0
LINE
  5
3A0
330
1F
100
AcDbEntity
  8
0
  6
Continuous
 62
     7
370
    35
100
AcDbLine
 10
285.1783700086
 20
232.0156916594
 30
0.0
 11
290.1783700086
 21
232.0156916594
 31
0.0
  0
LINE
  5
3A1
330
1F
100
AcDbEntity
  8
0
  6
Continuous
 62
     7
370
    35
100
AcDbLine
 10
290.1783700086
 20
312.0156916594
 30
0.0
 11
285.1783700086
 21
312.0156916594
 31
0.0
  0
LINE
  5
3A2
330
1F
100
AcDbEntity
  8
0
  6
Continuous
 62
     7
370
    35
100
AcDbLine
 10
285.1783700086
 20
312.0156916594
 30
0.0
 11
284.6783700086
 21
311.0156916594
 31
0.0
  0
LINE
  5
3A3
330
1F
100
AcDbEntity
  8
0
  6
Continuous
 62
     7
370
    35
100
AcDbLine
 10
284.6783700086
 20
233.0156916594
 30
0.0
 11
285.1783700086
 21
232.0156916594
 31
0.0
  0
LINE
  5
3A4
330
1F
100
AcDbEntity
  8
0
  6
Continuous
 62
     7
370
    35
100
AcDbLine
 10
354.1783700086
 20
300.9750706611
 30
0.0
 11
302.1783700086
 21
300.9750706611
 31
0.0
  0
LINE
  5
3A5
330
1F
100
AcDbEntity
  8
0
  6
Continuous
 62
     7
370
    35
100
AcDbLine
 10
302.1783700086
 20
243.0563126577
 30
0.0
 11
354.1783700086
 21
243.0563126577
 31
0.0
  0
LINE
  5
3A6
330
1F
100
AcDbEntity
  8
0
  6
Continuous
 62
     7
370
    35
100
AcDbLine
 10
280.1783700086
 20
233.0156916594
 30
0.0
 11
284.6783700086
 21
233.0156916594
 31
0.0
  0
LINE
  5
3A7
330
1F
100
AcDbEntity
  8
0
  6
Continuous
 62
     7
370
    35
100
AcDbLine
 10
284.6783700086
 20
311.0156916594
 30
0.0
 11
280.1783700086
 21
311.0156916594
 31
0.0
  0
LINE
  5
3A8
330
1F
100
AcDbEntity
  8
0
  6
Continuous
 62
     7
370
    35
100
AcDbLine
 10
280.1783700086
 20
311.0156916594
 30
0.0
 11
279.1783700086
 21
310.0156916594
 31
0.0
  0
LINE
  5
3A9
330
1F
100
AcDbEntity
  8
0
  6
Continuous
 62
     7
370
    35
100
AcDbLine
 10
279.1783700086
 20
234.0156916594
 30
0.0
 11
280.1783700086
 21
233.0156916594
 31
0.0
  0
LINE
  5
3AA
330
1F
100
AcDbEntity
  8
0
  6
Continuous
 62
     7
370
    35
100
AcDbLine
 10
304.3204549752
 20
227.2627698755
 30
0.0
 11
305.7741742955
 21
227.2880967576
 31
0.0
  0
LINE
  5
3AB
330
1F
100
AcDbEntity
  8
0
  6
Continuous
 62
     7
370
    35
100
AcDbLine
 10
278.1783700086
 20
272.0156916594
 30
0.0
 11
278.1783700086
 21
283.8883413902
 31
0.0
  0
LINE
  5
3AC
330
1F
100
AcDbEntity
  8
0
  6
Continuous
 62
     7
370
    35
100
AcDbLine
 10
278.1783700086
 20
260.1430419286
 30
0.0
 11
278.1783700086
 21
272.0156916594
 31
0.0
  0
LINE
  5
3AD
330
1F
100
AcDbEntity
  8
0
  6
Continuous
 62
     7
370
    35
100
AcDbLine
 10
277.3996446399
 20
272.0156916594
 30
0.0
 11
277.3996446399
 21
283.0156916594
 31
0.0
  0
LINE
  5
3AE
330
1F
100
AcDbEntity
  8
0
  6
Continuous
 62
     7
370
    35
100
AcDbLine
 10
277.3996446399
 20
261.0156916594
 30
0.0
 11
277.3996446399
 21
272.0156916594
 31
0.0
  0
SPLINE
  5
3AF
330
1F
100
AcDbEntity
  8
0
  6
Continuous
 62
     7
370
    35
100
AcDbSpline
210
0.0
220
0.0
230
1.0
 70
     8
 71
     3
 72
    13
 73
     9
 74
     0
 42
0.00000001
 43
0.00000001
 40
0.0
 40
0.0
 40
0.0
 40
0.0
 40
0.0614424164142518
 40
0.2682935844273954
 40
0.4768273208943025
 40
0.6919587001592279
 40
0.9079474359941523
 40
1.0
 40
1.0
 40
1.0
 40
1.0
 10
274.3021904868472
 20
283.0050951606356
 30
0.0
 10
274.312790687012
 20
283.0081960368798
 30
0.0
 10
274.3590773707692
 20
283.0217362791259
 30
0.0
 10
274.0975232941392
 20
282.9443502226751
 30
0.0
 10
273.5401627731263
 20
282.7999321753832
 30
0.0
 10
272.6890881163487
 20
282.6349366545558
 30
0.0
 10
271.8466710385964
 20
282.5471231522378
 30
0.0
 10
271.3321309854471
 20
282.54004319629
 30
0.0
 10
271.1783700085891
 20
282.537927479669
 30
0.0
  0
LINE
  5
3B0
330
1F
100
AcDbEntity
  8
0
  6
Continuous
 62
     7
370
    35
100
AcDbLine
 10
242.6783700086
 20
266.502742273
 30
0.0
 11
242.6783700086
 21
261.0156916594
 31
0.0
  0
SPLINE
  5
3B1
330
1F
100
AcDbEntity
  8
0
  6
Continuous
 62
     7
370
    18
100
AcDbSpline
210
0.0
220
0.0
230
1.0
 70
     8
 71
     3
 72
    62
 73
    58
 74
     0
 42
0.00000001
 43
0.00000001
 40
0.0
 40
0.0
 40
0.0
 40
0.0
 40
0.0625000000000002
 40
0.0625000000000002
 40
0.1250000000000005
 40
0.1250000000000005
 40
0.1875000000000007
 40
0.1875000000000007
 40
0.250000000000001
 40
0.250000000000001
 40
0.3125000000000014
 40
0.3125000000000014
 40
0.3750000000000018
 40
0.3750000000000018
 40
0.4062500000000021
 40
0.4062500000000021
 40
0.4375000000000024
 40
0.4375000000000024
 40
0.4531250000000025
 40
0.4531250000000025
 40
0.4687500000000026
 40
0.4687500000000026
 40
0.4765625000000025
 40
0.4765625000000025
 40
0.4843750000000025
 40
0.4843750000000025
 40
0.4921875000000024
 40
0.4921875000000024
 40
0.5000000000000024
 40
0.5000000000000024
 40
0.5078125000000024
 40
0.5078125000000024
 40
0.5156250000000026
 40
0.5156250000000026
 40
0.5234375000000026
 40
0.5234375000000026
 40
0.5312500000000026
 40
0.5312500000000026
 40
0.5468750000000024
 40
0.5468750000000024
 40
0.5625000000000022
 40
0.5625000000000022
 40
0.593750000000002
 40
0.593750000000002
 40
0.6250000000000018
 40
0.6250000000000018
 40
0.6875000000000016
 40
0.6875000000000016
 40
0.7500000000000012
 40
0.7500000000000012
 40
0.8125000000000009
 40
0.8125000000000009
 40
0.8750000000000006
 40
0.8750000000000006
 40
0.9375000000000003
 40
0.9375000000000003
 40
1.0
 40
1.0
 40
1.0
 40
1.0
 10
242.6783700085892
 20
277.6653052442709
 30
0.0
 10
244.0453834734245
 20
277.8541406579847
 30
0.0
 10
245.420020088221
 20
277.9919088015037
 30
0.0
 10
248.178867347512
 20
278.1841319056478
 30
0.0
 10
249.5621504458094
 20
278.2382323799415
 30
0.0
 10
252.3299615017318
 20
278.2690859016047
 30
0.0
 10
253.7147762325061
 20
278.2457803833967
 30
0.0
 10
256.4784746835661
 20
278.1206400075368
 30
0.0
 10
257.858322828477
 20
278.0188483634753
 30
0.0
 10
260.6044943992547
 20
277.7274692072949
 30
0.0
 10
261.972141824202
 20
277.5381214568006
 30
0.0
 10
264.6827015729297
 20
277.0481711043812
 30
0.0
 10
266.0270902013976
 20
276.7489239102956
 30
0.0
 10
268.00511620904
 20
276.1715598068953
 30
0.0
 10
268.6589290194739
 20
275.9570054209928
 30
0.0
 10
269.9384262592043
 20
275.4674652501939
 30
0.0
 10
270.565678659942
 20
275.1933842130447
 30
0.0
 10
271.4735346420581
 20
274.7029529262387
 30
0.0
 10
271.7696587047554
 20
274.5263644226719
 30
0.0
 10
272.3370078662557
 20
274.1376785578702
 30
0.0
 10
272.6106993964562
 20
273.9239684556658
 30
0.0
 10
272.9813183307156
 20
273.5677422828399
 30
0.0
 10
273.0984036610797
 20
273.4428536027027
 30
0.0
 10
273.3151413438121
 20
273.1764519555966
 30
0.0
 10
273.4156950401198
 20
273.0335183047227
 30
0.0
 10
273.5871525862518
 20
272.7309833344777
 30
0.0
 10
273.6576443200938
 20
272.5726882736528
 30
0.0
 10
273.7580212082714
 20
272.237361980536
 30
0.0
 10
273.785851437413
 20
272.0653707598991
 30
0.0
 10
273.7914662614023
 20
271.7193578993536
 30
0.0
 10
273.7684152342777
 20
271.543017250373
 30
0.0
 10
273.6779130256568
 20
271.2084444398141
 30
0.0
 10
273.6098023288396
 20
271.0456171475357
 30
0.0
 10
273.4444018875906
 20
270.7419213958129
 30
0.0
 10
273.3472712446135
 20
270.5998671269396
 30
0.0
 10
273.131859912483
 20
270.3300936974688
 30
0.0
 10
273.0133093407138
 20
270.202442151636
 30
0.0
 10
272.6424859309974
 20
269.8446421089515
 30
0.0
 10
272.3723676272691
 20
269.6349815061183
 30
0.0
 10
271.8049075129034
 20
269.2497824445884
 30
0.0
 10
271.5073584473739
 20
269.0750051451594
 30
0.0
 10
270.59961811387
 20
268.5937072888947
 30
0.0
 10
269.9686320495297
 20
268.3252962070624
 30
0.0
 10
268.680008169683
 20
267.8486200886735
 30
0.0
 10
268.0250867686742
 20
267.642520133511
 30
0.0
 10
266.0380579399234
 20
267.0895134239352
 30
0.0
 10
264.690639848569
 20
266.8086158470761
 30
0.0
 10
261.9735840589137
 20
266.3558328998123
 30
0.0
 10
260.6017742446234
 20
266.1854599961431
 30
0.0
 10
257.8512056423731
 20
265.9329200714089
 30
0.0
 10
256.4688791948208
 20
265.8507842763127
 30
0.0
 10
253.7031990331955
 20
265.7652649503924
 30
0.0
 10
252.3185924377487
 20
265.7618723679062
 30
0.0
 10
249.5508814172805
 20
265.8324843742878
 30
0.0
 10
248.1693231015981
 20
265.9063823751716
 30
0.0
 10
245.4137495188552
 20
266.1378645732525
 30
0.0
 10
244.0424149478987
 20
266.2949315185812
 30
0.0
 10
242.6783700085892
 20
266.5027422729776
 30
0.0
  0
LINE
  5
3B2
330
1F
100
AcDbEntity
  8
0
  6
Continuous
 62
     7
370
    35
100
AcDbLine
 10
242.6783700086
 20
282.5379274797
 30
0.0
 11
242.6783700086
 21
277.6653052443
 31
0.0
  0
LINE
  5
3B3
330
1F
100
AcDbEntity
  8
0
  6
Continuous
 62
     7
370
    35
100
AcDbLine
 10
242.1783700086
 20
261.5156916594
 30
0.0
 11
242.1783700086
 21
266.5813088029
 31
0.0
  0
SPLINE
  5
3B4
330
1F
100
AcDbEntity
  8
0
  6
Continuous
 62
     7
370
    18
100
AcDbSpline
210
0.0
220
0.0
230
1.0
 70
     8
 71
     3
 72
     8
 73
     4
 74
     0
 42
0.00000001
 43
0.00000001
 40
0.0
 40
0.0
 40
0.0
 40
0.0
 40
0.0007361137465214
 40
0.0007361137465214
 40
0.0007361137465214
 40
0.0007361137465214
 10
242.1783700085892
 20
266.5813088028823
 30
0.0
 10
242.3448355175392
 20
266.5543443219699
 30
0.0
 10
242.5115124357711
 20
266.5281628416736
 30
0.0
 10
242.6783700085892
 20
266.5027422729776
 30
0.0
  0
LINE
  5
3B5
330
1F
100
AcDbEntity
  8
0
  6
Continuous
 62
     7
370
    35
100
AcDbLine
 10
242.1783700086
 20
277.5938445669
 30
0.0
 11
242.1783700086
 21
282.0779975581
 31
0.0
  0
SPLINE
  5
3B6
330
1F
100
AcDbEntity
  8
0
  6
Continuous
 62
     7
370
    35
100
AcDbSpline
210
0.0
220
0.0
230
1.0
 70
     8
 71
     3
 72
     8
 73
     4
 74
     0
 42
0.00000001
 43
0.00000001
 40
0.0
 40
0.0
 40
0.0
 40
0.0
 40
1.0
 40
1.0
 40
1.0
 40
1.0
 10
242.1783700085892
 20
282.0779975581248
 30
0.0
 10
242.2764561828479
 20
282.1803503229959
 30
0.0
 10
242.3746056007147
 20
282.282641700899
 30
0.0
 10
242.4728130234001
 20
282.3848767768283
 30
0.0
  0
SPLINE
  5
3B7
330
1F
100
AcDbEntity
  8
0
  6
Continuous
 62
     7
370
    35
100
AcDbSpline
210
0.0
220
0.0
230
1.0
 70
     8
 71
     3
 72
    12
 73
     8
 74
     0
 42
0.00000001
 43
0.00000001
 40
0.0
 40
0.0
 40
0.0
 40
0.0
 40
0.2499999999999995
 40
0.2499999999999995
 40
0.499999999999999
 40
0.499999999999999
 40
1.0
 40
1.0
 40
1.0
 40
1.0
 10
242.6783700085892
 20
282.537927479669
 30
0.0
 10
242.6783700085892
 20
282.5470840164869
 30
0.0
 10
242.6688786147088
 20
282.5465626027484
 30
0.0
 10
242.6400757091272
 20
282.5323038919717
 30
0.0
 10
242.6213114492664
 20
282.5191914174705
 30
0.0
 10
242.5614487845706
 20
282.4720070032087
 30
0.0
 10
242.5159342863334
 20
282.4297665160113
 30
0.0
 10
242.4728130234
 20
282.3848767768284
 30
0.0
  0
SPLINE
  5
3B8
330
1F
100
AcDbEntity
  8
0
  6
Continuous
 62
     7
370
    18
100
AcDbSpline
210
0.0
220
0.0
230
1.0
 70
     8
 71
     3
 72
     8
 73
     4
 74
     0
 42
0.00000001
 43
0.00000001
 40
0.0
 40
0.0
 40
0.0
 40
0.0
 40
0.000741280935945
 40
0.000741280935945
 40
0.000741280935945
 40
0.000741280935945
 10
242.6783700085892
 20
277.6653052442709
 30
0.0
 10
242.5114561437561
 20
277.6422482301805
 30
0.0
 10
242.3447759699752
 20
277.6184344897387
 30
0.0
 10
242.1783700085893
 20
277.5938445669415
 30
0.0
  0
LINE
  5
3B9
330
1F
100
AcDbEntity
  8
0
  6
Continuous
 62
     7
370
    35
100
AcDbLine
 10
271.1783700086
 20
282.5379274797
 30
0.0
 11
271.1783700086
 21
282.5448767768
 31
0.0
  0
LINE
  5
3BA
330
1F
100
AcDbEntity
  8
0
  6
Continuous
 62
     7
370
    35
100
AcDbLine
 10
243.3042030335
 20
277.1156916594
 30
0.0
 11
243.3042030335
 21
266.9156916594
 31
0.0
  0
LINE
  5
3BB
330
1F
100
AcDbEntity
  8
0
  6
Continuous
 62
     7
370
    35
100
AcDbLine
 10
243.3042030335
 20
266.9156916594
 30
0.0
 11
242.6076870972
 21
266.5135579961
 31
0.0
  0
LINE
  5
3BC
330
1F
100
AcDbEntity
  8
0
  6
Continuous
 62
     7
370
    35
100
AcDbLine
 10
242.4161224065
 20
277.6284252485
 30
0.0
 11
243.3042030335
 21
277.1156916594
 31
0.0
  0
LINE
  5
3BD
330
1F
100
AcDbEntity
  8
0
  6
Continuous
 62
     7
370
    35
100
AcDbLine
 10
242.1783700086
 20
277.5938445669
 30
0.0
 11
242.1783700086
 21
266.5813088029
 31
0.0
  0
LINE
  5
3BE
330
1F
100
AcDbEntity
  8
0
  6
Continuous
 62
     7
370
    35
100
AcDbLine
 10
267.1783700086
 20
275.5156916594
 30
0.0
 11
267.1783700086
 21
268.5156916594
 31
0.0
  0
LINE
  5
3BF
330
1F
100
AcDbEntity
  8
0
  6
Continuous
 62
     7
370
    35
100
AcDbLine
 10
267.1783700086
 20
268.5156916594
 30
0.0
 11
247.6021304393
 21
268.5156916594
 31
0.0
  0
LINE
  5
3C0
330
1F
100
AcDbEntity
  8
0
  6
Continuous
 62
     7
370
    35
100
AcDbLine
 10
247.6021304393
 20
268.5156916594
 30
0.0
 11
247.6021304393
 21
275.5156916594
 31
0.0
  0
LINE
  5
3C1
330
1F
100
AcDbEntity
  8
0
  6
Continuous
 62
     7
370
    35
100
AcDbLine
 10
247.6021304393
 20
275.5156916594
 30
0.0
 11
267.1783700086
 21
275.5156916594
 31
0.0
  0
LINE
  5
3C2
330
1F
100
AcDbEntity
  8
0
  6
Continuous
 62
     7
370
    35
100
AcDbLine
 10
269.2813821752
 20
272.0156916594
 30
0.0
 11
267.1783700086
 21
268.5156916594
 31
0.0
  0
LINE
  5
3C3
330
1F
100
AcDbEntity
  8
0
  6
Continuous
 62
     7
370
    35
100
AcDbLine
 10
267.1783700086
 20
275.5156916594
 30
0.0
 11
269.2813821752
 21
272.0156916594
 31
0.0
  0
LINE
  5
3C4
330
1F
100
AcDbEntity
  8
0
  6
Continuous
 62
     7
370
    35
100
AcDbLine
 10
246.6783700086
 20
277.1156916594
 30
0.0
 11
246.6783700086
 21
266.9156916594
 31
0.0
  0
LINE
  5
3C5
330
1F
100
AcDbEntity
  8
0
  6
Continuous
 62
     7
370
    35
100
AcDbLine
 10
246.6783700086
 20
266.9156916594
 30
0.0
 11
243.3042030335
 21
266.9156916594
 31
0.0
  0
LINE
  5
3C6
330
1F
100
AcDbEntity
  8
0
  6
Continuous
 62
     7
370
    35
100
AcDbLine
 10
243.3042030335
 20
277.1156916594
 30
0.0
 11
246.6783700086
 21
277.1156916594
 31
0.0
  0
LINE
  5
3C7
330
1F
100
AcDbEntity
  8
0
  6
Continuous
 62
     7
370
    35
100
AcDbLine
 10
247.6021304393
 20
268.5156916594
 30
0.0
 11
246.6783700086
 21
266.9156916594
 31
0.0
  0
LINE
  5
3C8
330
1F
100
AcDbEntity
  8
0
  6
Continuous
 62
     7
370
    35
100
AcDbLine
 10
246.6783700086
 20
277.1156916594
 30
0.0
 11
247.6021304393
 21
275.5156916594
 31
0.0
  0
SPLINE
  5
3C9
330
1F
100
AcDbEntity
  8
0
  6
Continuous
 62
     7
370
    35
100
AcDbSpline
210
0.0
220
0.0
230
1.0
 70
     8
 71
     3
 72
    12
 73
     8
 74
     0
 42
0.00000001
 43
0.00000001
 40
0.0
 40
0.0
 40
0.0
 40
0.0
 40
0.1287943200727002
 40
0.3451353368235119
 40
0.5615549605196719
 40
0.7807623399695397
 40
0.9999999999999999
 40
0.9999999999999999
 40
0.9999999999999999
 40
0.9999999999999999
 10
361.9783700085891
 20
257.2254922016268
 30
0.0
 10
362.3478486296268
 20
256.1633660709974
 30
0.0
 10
363.3379554002431
 20
253.3171438180525
 30
0.0
 10
365.3264999727461
 20
248.8286672359143
 30
0.0
 10
367.950313960281
 20
243.7762820179053
 30
0.0
 10
370.8380924970521
 20
238.8391470877905
 30
0.0
 10
372.9315626439013
 20
235.6345511953822
 30
0.0
 10
373.9783700085891
 20
234.0321425887583
 30
0.0
  0
LINE
  5
3CA
330
1F
100
AcDbEntity
  8
0
  6
Continuous
 62
     7
370
    35
100
AcDbLine
 10
354.1783700086
 20
257.2254922016
 30
0.0
 11
361.9783700086
 21
257.2254922016
 31
0.0
  0
LINE
  5
3CB
330
1F
100
AcDbEntity
  8
0
  6
Continuous
 62
     7
370
    35
100
AcDbLine
 10
361.9783700086
 20
286.8058911171
 30
0.0
 11
354.1783700086
 21
286.8058911171
 31
0.0
  0
SPLINE
  5
3CC
330
1F
100
AcDbEntity
  8
0
  6
Continuous
 62
     7
370
    35
100
AcDbSpline
210
0.0
220
0.0
230
1.0
 70
     8
 71
     3
 72
     9
 73
     5
 74
     0
 42
0.00000001
 43
0.00000001
 40
0.0
 40
0.0
 40
0.0
 40
0.0
 40
0.498823769536372
 40
1.0
 40
1.0
 40
1.0
 40
1.0
 10
365.9070090045317
 20
296.2594890928489
 30
0.0
 10
365.1699150022557
 20
294.7224544382045
 30
0.0
 10
363.6922508505231
 20
291.6411364487408
 30
0.0
 10
362.5505588844808
 20
288.4201652972574
 30
0.0
 10
361.9783700085891
 20
286.8058911171248
 30
0.0
  0
LINE
  5
3CD
330
1F
100
AcDbEntity
  8
0
  6
Continuous
 62
     7
370
    35
100
AcDbLine
 10
373.9783700086
 20
234.0321425888
 30
0.0
 11
376.7220236556
 21
234.0321425888
 31
0.0
  0
ELLIPSE
  5
3CE
330
1F
100
AcDbEntity
  8
0
  6
Continuous
 62
     7
370
    18
100
AcDbEllipse
 10
390.3484819009
 20
272.6682949131
 30
0.0
 11
-9.190550930640086
 21
64.14629425059024
 31
0.0
210
0.0
220
0.0
230
1.0
 40
0.3534187821
 41
1.144097821943888
 42
2.165634016935836
  0
LINE
  5
3CF
330
1F
100
AcDbEntity
  8
0
  6
Continuous
 62
     7
370
    35
100
AcDbLine
 10
354.1783700086
 20
306.4969759178
 30
0.0
 11
354.1783700086
 21
300.9422159424
 31
0.0
  0
LINE
  5
3D0
330
1F
100
AcDbEntity
  8
0
  6
Continuous
 62
     7
370
    35
100
AcDbLine
 10
354.1783700086
 20
314.5156916594
 30
0.0
 11
361.9783700086
 21
314.5156916594
 31
0.0
  0
LINE
  5
3D1
330
1F
100
AcDbEntity
  8
0
  6
Continuous
 62
     7
370
    35
100
AcDbLine
 10
361.9783700086
 20
314.5156916594
 30
0.0
 11
361.9783700086
 21
286.8058911171
 31
0.0
  0
LINE
  5
3D2
330
1F
100
AcDbEntity
  8
0
  6
Continuous
 62
     7
370
    35
100
AcDbLine
 10
361.9783700086
 20
257.2254922016
 30
0.0
 11
361.9783700086
 21
229.5156916594
 31
0.0
  0
LINE
  5
3D3
330
1F
100
AcDbEntity
  8
0
  6
Continuous
 62
     7
370
    35
100
AcDbLine
 10
361.9783700086
 20
229.5156916594
 30
0.0
 11
354.1783700086
 21
229.5156916594
 31
0.0
  0
LINE
  5
3D4
330
1F
100
AcDbEntity
  8
0
  6
Continuous
 62
     7
370
    35
100
AcDbLine
 10
354.1783700086
 20
243.0891673763
 30
0.0
 11
354.1783700086
 21
237.534407401
 31
0.0
  0
SPLINE
  5
3D5
330
1F
100
AcDbEntity
  8
0
  6
Continuous
 62
     7
370
    18
100
AcDbSpline
210
0.0
220
0.0
230
1.0
 70
     8
 71
     3
 72
    12
 73
     8
 74
     0
 42
0.00000001
 43
0.00000001
 40
0.0
 40
0.0
 40
0.0
 40
0.0
 40
0.1966862583434051
 40
0.41085588358558
 40
0.626510007334921
 40
0.8127541191944953
 40
1.0
 40
1.0
 40
1.0
 40
1.0
 10
365.9070090045317
 20
296.2594890928489
 30
0.0
 10
365.9414400338883
 20
297.6131771474587
 30
0.0
 10
366.0133626537407
 20
300.4408820743829
 30
0.0
 10
366.2766466852864
 20
304.4998166701919
 30
0.0
 10
366.6430002369621
 20
308.2547124626167
 30
0.0
 10
367.0831712795585
 20
311.6177612899155
 30
0.0
 10
367.4183255312391
 20
313.5479891273724
 30
0.0
 10
367.5863521297936
 20
314.5156916593758
 30
0.0
  0
LINE
  5
3D6
330
1F
100
AcDbEntity
  8
0
  6
Continuous
 62
     7
370
    35
100
AcDbLine
 10
373.9783700086
 20
234.0321425888
 30
0.0
 11
373.9783700086
 21
229.5156916594
 31
0.0
  0
SPLINE
  5
3D7
330
1F
100
AcDbEntity
  8
0
  6
Continuous
 62
     7
370
    35
100
AcDbSpline
210
0.0
220
0.0
230
1.0
 70
    24
 71
     3
 72
    13
 73
     9
 74
     0
 42
0.00000001
 43
0.00000001
 40
0.0
 40
0.0
 40
0.0
 40
0.0
 40
0.2062671620994733
 40
0.4128139402810116
 40
0.5589943239031369
 40
0.7051615007416091
 40
0.8525931356662967
 40
1.0
 40
1.0
 40
1.0
 40
1.0
 10
373.9783700085891
 20
229.5156916593757
 30
0.0
 10
372.9927851221572
 20
229.5156916593757
 30
0.0
 10
371.020279288906
 20
229.5156916593758
 30
0.0
 10
368.5395829099252
 20
229.5156916593757
 30
0.0
 10
366.4708380886669
 20
229.5156916593758
 30
0.0
 10
364.7904545412917
 20
229.5156916593757
 30
0.0
 10
363.2533709091608
 20
229.5156916593758
 30
0.0
 10
362.4033465041014
 20
229.5156916593757
 30
0.0
 10
361.9783700085891
 20
229.5156916593757
 30
0.0
  0
LINE
  5
3D8
330
1F
100
AcDbEntity
  8
0
  6
Continuous
 62
     7
370
    35
100
AcDbLine
 10
378.6307868287
 20
229.5156916594
 30
0.0
 11
373.9783700086
 21
229.5156916594
 31
0.0
  0
SPLINE
  5
3D9
330
1F
100
AcDbEntity
  8
0
  6
Continuous
 62
     7
370
    18
100
AcDbSpline
210
0.0
220
0.0
230
1.0
 70
     8
 71
     3
 72
     9
 73
     5
 74
     0
 42
0.00000001
 43
0.00000001
 40
0.0
 40
0.0
 40
0.0
 40
0.0
 40
0.4992774228446766
 40
1.0
 40
1.0
 40
1.0
 40
1.0
 10
378.6307868286594
 20
229.5156916593758
 30
0.0
 10
378.3110701135247
 20
230.2352858984215
 30
0.0
 10
377.6707112659063
 20
231.6765572359992
 30
0.0
 10
377.0385573789856
 20
233.2461913500033
 30
0.0
 10
376.7220236555678
 20
234.0321425887583
 30
0.0
  0
LINE
  5
3DA
330
1F
100
AcDbEntity
  8
0
  6
Continuous
 62
     7
370
    35
100
AcDbLine
 10
370.1783700086
 20
302.0156916594
 30
0.0
 11
371.9783700086
 21
302.0156916594
 31
0.0
  0
SPLINE
  5
3DB
330
1F
100
AcDbEntity
  8
0
  6
Continuous
 62
     7
370
    35
100
AcDbSpline
210
0.0
220
0.0
230
1.0
 70
     8
 71
     3
 72
    26
 73
    22
 74
     0
 42
0.00000001
 43
0.00000001
 40
0.0
 40
0.0
 40
0.0
 40
0.0
 40
0.0608816662520357
 40
0.1118806241451362
 40
0.1643056824707228
 40
0.2163249384134921
 40
0.2697717509461009
 40
0.3232140006248815
 40
0.3782203753635935
 40
0.4312961398638052
 40
0.4860146630810729
 40
0.5373791128573048
 40
0.5902594369466254
 40
0.6412830804472789
 40
0.6937060443968037
 40
0.7462322705487529
 40
0.8002180148156933
 40
0.8537983046825228
 40
0.9089866579937904
 40
0.9539953132866027
 40
1.0
 40
1.0
 40
1.0
 40
1.0
 10
387.9783700085892
 20
302.0156916593758
 30
0.0
 10
387.9501371376859
 20
302.0080944076284
 30
0.0
 10
387.8982543392588
 20
301.9941331394896
 30
0.0
 10
387.5119209858262
 20
301.8936116281347
 30
0.0
 10
386.9648936893392
 20
301.7592898909111
 30
0.0
 10
386.2184184455971
 20
301.5913273356863
 30
0.0
 10
385.2990799293118
 20
301.4093158365349
 30
0.0
 10
384.2118829297885
 20
301.2301638497058
 30
0.0
 10
383.0028606934046
 20
301.07803113411
 30
0.0
 10
381.6934183648294
 20
300.9699796710773
 30
0.0
 10
380.3605336710925
 20
300.9214515659628
 30
0.0
 10
379.0190575058897
 20
300.9353482342868
 30
0.0
 10
377.7357961139132
 20
301.0071134347003
 30
0.0
 10
376.5082161366936
 20
301.1290416033258
 30
0.0
 10
375.3782580540738
 20
301.2865178660755
 30
0.0
 10
374.3539115355787
 20
301.4663551363628
 30
0.0
 10
373.4779025709828
 20
301.6477163180415
 30
0.0
 10
372.7700958271567
 20
301.8124326807956
 30
0.0
 10
372.3005499277829
 20
301.9307447378008
 30
0.0
 10
372.0267828352454
 20
302.0027161900352
 30
0.0
 10
371.9946249273326
 20
302.0113350618714
 30
0.0
 10
371.9783700085891
 20
302.0156916593758
 30
0.0
  0
LINE
  5
3DC
330
1F
100
AcDbEntity
  8
0
  6
Continuous
 62
     7
370
    35
100
AcDbLine
 10
387.9783700086
 20
302.0156916594
 30
0.0
 11
397.4783700086
 21
302.0156916594
 31
0.0
  0
LINE
  5
3DD
330
1F
100
AcDbEntity
  8
0
  6
Continuous
 62
     7
370
    35
100
AcDbLine
 10
397.4783700086
 20
242.0156916594
 30
0.0
 11
373.8767195188
 21
242.0156916594
 31
0.0
  0
LINE
  5
3DE
330
1F
100
AcDbEntity
  8
0
  6
Continuous
 62
     7
370
    35
100
AcDbLine
 10
365.9218715264
 20
297.0156916594
 30
0.0
 11
370.1783700086
 21
297.0156916594
 31
0.0
  0
LINE
  5
3DF
330
1F
100
AcDbEntity
  8
0
  6
Continuous
 62
     7
370
    35
100
AcDbLine
 10
370.1783700086
 20
293.0156916594
 30
0.0
 11
370.1783700086
 21
297.0156916594
 31
0.0
  0
LINE
  5
3E0
330
1F
100
AcDbEntity
  8
0
  6
Continuous
 62
     7
370
    35
100
AcDbLine
 10
371.9783700086
 20
302.0156916594
 30
0.0
 11
371.9783700086
 21
309.5156916594
 31
0.0
  0
LINE
  5
3E1
330
1F
100
AcDbEntity
  8
0
  6
Continuous
 62
     7
370
    35
100
AcDbLine
 10
387.9783700086
 20
309.5156916594
 30
0.0
 11
387.9783700086
 21
302.0156916594
 31
0.0
  0
LINE
  5
3E2
330
1F
100
AcDbEntity
  8
0
  6
Continuous
 62
     7
370
    35
100
AcDbLine
 10
397.9783700086
 20
302.5156916594
 30
0.0
 11
397.4783700086
 21
302.0156916594
 31
0.0
  0
LINE
  5
3E3
330
1F
100
AcDbEntity
  8
0
  6
Continuous
 62
     7
370
    35
100
AcDbLine
 10
397.9783700086
 20
302.5156916594
 30
0.0
 11
397.9783700086
 21
241.5156916594
 31
0.0
  0
LINE
  5
3E4
330
1F
100
AcDbEntity
  8
0
  6
Continuous
 62
     7
370
    35
100
AcDbLine
 10
397.4783700086
 20
242.0156916594
 30
0.0
 11
397.9783700086
 21
241.5156916594
 31
0.0
  0
LINE
  5
3E5
330
1F
100
AcDbEntity
  8
0
  6
Continuous
 62
     7
370
    35
100
AcDbLine
 10
397.9783700086
 20
241.5156916594
 30
0.0
 11
397.9783700086
 21
229.5156916594
 31
0.0
  0
LINE
  5
3E6
330
1F
100
AcDbEntity
  8
0
  6
Continuous
 62
     7
370
    35
100
AcDbLine
 10
378.6307868287
 20
229.5156916594
 30
0.0
 11
397.9783700086
 21
229.5156916594
 31
0.0
  0
LINE
  5
3E7
330
1F
100
AcDbEntity
  8
0
  6
Continuous
 62
     7
370
    35
100
AcDbLine
 10
397.9783700086
 20
314.5156916594
 30
0.0
 11
397.9783700086
 21
302.5156916594
 31
0.0
  0
LINE
  5
3E8
330
1F
100
AcDbEntity
  8
0
  6
Continuous
 62
     7
370
    35
100
AcDbLine
 10
397.9783700086
 20
314.5156916594
 30
0.0
 11
390.4783700086
 21
314.5156916594
 31
0.0
  0
LINE
  5
3E9
330
1F
100
AcDbEntity
  8
0
  6
Continuous
 62
     7
370
    35
100
AcDbLine
 10
370.1783700086
 20
297.0156916594
 30
0.0
 11
370.1783700086
 21
302.0156916594
 31
0.0
  0
LINE
  5
3EA
330
1F
100
AcDbEntity
  8
0
  6
Continuous
 62
     7
370
    35
100
AcDbLine
 10
369.4783700086
 20
314.5156916594
 30
0.0
 11
367.5863521298
 21
314.5156916594
 31
0.0
  0
LINE
  5
3EB
330
1F
100
AcDbEntity
  8
0
  6
Continuous
 62
     7
370
    35
100
AcDbLine
 10
292.6783700086
 20
317.0220616135
 30
0.0
 11
292.6774973883
 21
316.9720692287
 31
0.0
  0
LINE
  5
3EC
330
1F
100
AcDbEntity
  8
0
  6
Continuous
 62
     7
370
    35
100
AcDbLine
 10
292.6783700086
 20
317.0220616135
 30
0.0
 11
293.6782177037
 21
317.004609207
 31
0.0
  0
LINE
  5
3ED
330
1F
100
AcDbEntity
  8
0
  6
Continuous
 62
     7
370
    35
100
AcDbLine
 10
299.0773952576
 20
316.9103662123
 30
0.0
 11
299.0765226373
 21
316.8603738275
 31
0.0
  0
LINE
  5
3EE
330
1F
100
AcDbEntity
  8
0
  6
Continuous
 62
     7
370
    35
100
AcDbLine
 10
298.0775475624
 20
316.9278186187
 30
0.0
 11
299.0773952576
 21
316.9103662123
 31
0.0
  0
LINE
  5
3EF
330
1F
100
AcDbEntity
  8
0
  6
Continuous
 62
     7
370
    35
100
AcDbLine
 10
293.6782177037
 20
317.004609207
 30
0.0
 11
298.0775475624
 21
316.9278186187
 31
0.0
  0
LINE
  5
3F0
330
1F
100
AcDbEntity
  8
0
  6
Continuous
 62
     7
370
    35
100
AcDbLine
 10
390.4783700086
 20
314.5156916594
 30
0.0
 11
369.4783700086
 21
314.5156916594
 31
0.0
  0
LINE
  5
3F1
330
1F
100
AcDbEntity
  8
0
  6
Continuous
 62
     7
370
    35
100
AcDbLine
 10
369.9783700244
 20
316.5156916594
 30
0.0
 11
389.9783700086
 21
316.5156916594
 31
0.0
  0
LINE
  5
3F2
330
1F
100
AcDbEntity
  8
0
  6
Continuous
 62
     7
370
    35
100
AcDbLine
 10
371.9283700086
 20
309.5156916594
 30
0.0
 11
388.0283700086
 21
309.5156916594
 31
0.0
  0
LINE
  5
3F3
330
1F
100
AcDbEntity
  8
0
  6
Continuous
 62
     7
370
    35
100
AcDbLine
 10
381.1783700086
 20
282.0156916594
 30
0.0
 11
384.5883700086
 21
282.0156916594
 31
0.0
  0
LINE
  5
3F4
330
1F
100
AcDbEntity
  8
0
  6
Continuous
 62
     7
370
    35
100
AcDbLine
 10
377.7683700086
 20
282.0156916594
 30
0.0
 11
381.1783700086
 21
282.0156916594
 31
0.0
  0
LINE
  5
3F5
330
1F
100
AcDbEntity
  8
0
  6
Continuous
 62
     7
370
    35
100
AcDbLine
 10
367.3783700086
 20
271.604829523
 30
0.0
 11
367.3783700086
 21
294.5156916594
 31
0.0
  0
LINE
  5
3F6
330
1F
100
AcDbEntity
  8
0
  6
Continuous
 62
     7
370
    35
100
AcDbLine
 10
367.6783700086
 20
294.2156916594
 30
0.0
 11
367.6783700086
 21
269.4174366717
 31
0.0
  0
LINE
  5
3F7
330
1F
100
AcDbEntity
  8
0
  6
Continuous
 62
     7
370
    35
100
AcDbLine
 10
374.0924861832
 20
272.5156916594
 30
0.0
 11
374.0924861832
 21
271.5156916594
 31
0.0
  0
LINE
  5
3F8
330
1F
100
AcDbEntity
  8
0
  6
Continuous
 62
     7
370
    35
100
AcDbLine
 10
372.178454174
 20
272.5156916594
 30
0.0
 11
372.178454174
 21
271.5156916594
 31
0.0
  0
LINE
  5
3F9
330
1F
100
AcDbEntity
  8
0
  6
Continuous
 62
     7
370
    35
100
AcDbLine
 10
377.1783700086
 20
278.0156916594
 30
0.0
 11
377.1783700086
 21
285.6171621681
 31
0.0
  0
LINE
  5
3FA
330
1F
100
AcDbEntity
  8
0
  6
Continuous
 62
     7
370
    35
100
AcDbLine
 10
385.1783700086
 20
278.0156916594
 30
0.0
 11
377.1783700086
 21
278.0156916594
 31
0.0
  0
LINE
  5
3FB
330
1F
100
AcDbEntity
  8
0
  6
Continuous
 62
     7
370
    35
100
AcDbLine
 10
385.1783700086
 20
285.6171621681
 30
0.0
 11
385.1783700086
 21
278.0156916594
 31
0.0
  0
SPLINE
  5
3FC
330
1F
100
AcDbEntity
  8
0
  6
Continuous
 62
     7
370
    35
100
AcDbSpline
210
0.0
220
0.0
230
1.0
 70
     8
 71
     3
 72
    21
 73
    17
 74
     0
 42
0.00000001
 43
0.00000001
 40
0.0
 40
0.0
 40
0.0
 40
0.0
 40
0.0837916135703554
 40
0.1674129902023014
 40
0.2207750720084707
 40
0.2740788236205111
 40
0.3632981725349184
 40
0.4083644283665456
 40
0.453400795731529
 40
0.5318433657736763
 40
0.605774464529956
 40
0.6818714267939513
 40
0.7659772617599148
 40
0.8287202245313795
 40
0.891551461249849
 40
1.0
 40
1.0
 40
1.0
 40
1.0
 10
377.1783700085891
 20
285.6171621681112
 30
0.0
 10
377.1942601686334
 20
285.9309185335368
 30
0.0
 10
377.2260082051545
 20
286.5577938148776
 30
0.0
 10
377.4850752483712
 20
287.3126975922414
 30
0.0
 10
377.8539314367146
 20
287.89786812072
 30
0.0
 10
378.3670139353611
 20
288.4336268988099
 30
0.0
 10
379.045303588593
 20
288.8421087562367
 30
0.0
 10
379.8314229492807
 20
289.0979366744151
 30
0.0
 10
380.6344262665475
 20
289.2498027891536
 30
0.0
 10
381.6416203869625
 20
289.2694763300767
 30
0.0
 10
382.7442928994163
 20
289.064242108384
 30
0.0
 10
383.6993788378259
 20
288.6474744519568
 30
0.0
 10
384.3733822528743
 20
288.081672812798
 30
0.0
 10
384.7993384901408
 20
287.4450761040649
 30
0.0
 10
385.1128393707564
 20
286.6634141674696
 30
0.0
 10
385.1529642789755
 20
286.0227861065092
 30
0.0
 10
385.1783700085891
 20
285.6171621681112
 30
0.0
  0
LINE
  5
3FD
330
1F
100
AcDbEntity
  8
0
  6
Continuous
 62
     7
370
    35
100
AcDbLine
 10
376.1783700086
 20
293.0156916594
 30
0.0
 11
376.1783700086
 21
272.5156916594
 31
0.0
  0
LINE
  5
3FE
330
1F
100
AcDbEntity
  8
0
  6
Continuous
 62
     7
370
    35
100
AcDbLine
 10
376.1783700086
 20
291.8146815326
 30
0.0
 11
375.1783700086
 21
291.8146815326
 31
0.0
  0
LINE
  5
3FF
330
1F
100
AcDbEntity
  8
0
  6
Continuous
 62
     7
370
    35
100
AcDbLine
 10
375.1783700086
 20
293.0156916594
 30
0.0
 11
375.1783700086
 21
272.5156916594
 31
0.0
  0
LINE
  5
400
330
1F
100
AcDbEntity
  8
0
  6
Continuous
 62
     7
370
    35
100
AcDbLine
 10
375.1783700086
 20
272.5156916594
 30
0.0
 11
372.178454174
 21
272.5156916594
 31
0.0
  0
LINE
  5
401
330
1F
100
AcDbEntity
  8
0
  6
Continuous
 62
     7
370
    35
100
AcDbLine
 10
375.1783700086
 20
271.5156916594
 30
0.0
 11
372.178454174
 21
271.5156916594
 31
0.0
  0
LINE
  5
402
330
1F
100
AcDbEntity
  8
0
  6
Continuous
 62
     7
370
    35
100
AcDbLine
 10
375.1783700086
 20
271.5156916594
 30
0.0
 11
375.1783700086
 21
251.0156916594
 31
0.0
  0
LINE
  5
403
330
1F
100
AcDbEntity
  8
0
  6
Continuous
 62
     7
370
    35
100
AcDbLine
 10
376.1783700086
 20
252.2167017862
 30
0.0
 11
375.1783700086
 21
252.2167017862
 31
0.0
  0
LINE
  5
404
330
1F
100
AcDbEntity
  8
0
  6
Continuous
 62
     7
370
    35
100
AcDbLine
 10
376.1783700086
 20
271.5156916594
 30
0.0
 11
376.1783700086
 21
251.0156916594
 31
0.0
  0
LINE
  5
405
330
1F
100
AcDbEntity
  8
0
  6
Continuous
 62
     7
370
    35
100
AcDbLine
 10
385.6783700086
 20
271.5156916594
 30
0.0
 11
376.1783700086
 21
271.5156916594
 31
0.0
  0
LINE
  5
406
330
1F
100
AcDbEntity
  8
0
  6
Continuous
 62
     7
370
    35
100
AcDbLine
 10
385.6783700086
 20
272.5156916594
 30
0.0
 11
385.6783700086
 21
293.0156916594
 31
0.0
  0
LINE
  5
407
330
1F
100
AcDbEntity
  8
0
  6
Continuous
 62
     7
370
    35
100
AcDbLine
 10
385.6783700086
 20
251.0156916594
 30
0.0
 11
385.6783700086
 21
271.5156916594
 31
0.0
  0
LINE
  5
408
330
1F
100
AcDbEntity
  8
0
  6
Continuous
 62
     7
370
    35
100
AcDbLine
 10
385.6783700086
 20
272.5156916594
 30
0.0
 11
376.1783700086
 21
272.5156916594
 31
0.0
  0
SPLINE
  5
409
330
1F
100
AcDbEntity
  8
0
  6
Continuous
 62
     7
370
    35
100
AcDbSpline
210
0.0
220
0.0
230
1.0
 70
    11
 71
     3
 72
    27
 73
    23
 74
     0
 42
0.00000001
 43
0.00000001
 40
0.0
 40
0.0
 40
0.0
 40
0.0
 40
0.0882415254514849
 40
0.1403327544982513
 40
0.1816050732708276
 40
0.2150449006194849
 40
0.2486232991180175
 40
0.2791560443612395
 40
0.3108197230549559
 40
0.3575502740377031
 40
0.4228128332057922
 40
0.513620544900179
 40
0.6065342945533173
 40
0.6564912163175682
 40
0.6951042373814448
 40
0.7212115626155399
 40
0.7475110761090987
 40
0.7703607844801554
 40
0.8031266814935701
 40
0.8558348682827049
 40
0.9428451894015552
 40
1.0
 40
1.0
 40
1.0
 40
1.0
 10
379.5283700085891
 20
258.4142211506403
 30
0.0
 10
379.560815575725
 20
258.1157819235575
 30
0.0
 10
379.6124145908615
 20
257.6411663888354
 30
0.0
 10
380.0002835399985
 20
257.1215761499496
 30
0.0
 10
380.4080378727158
 20
256.8394410813942
 30
0.0
 10
380.8527378537058
 20
256.6942817498218
 30
0.0
 10
381.2972630859219
 20
256.6694833667409
 30
0.0
 10
381.7155589121396
 20
256.7513641205064
 30
0.0
 10
382.1251545613886
 20
256.9402691358435
 30
0.0
 10
382.5270198370642
 20
257.3013878366685
 30
0.0
 10
382.830715134832
 20
257.9303716535783
 30
0.0
 10
382.8578531647797
 20
258.7857071801545
 30
0.0
 10
382.5833185041316
 20
259.6013843306076
 30
0.0
 10
382.1667349730439
 20
260.1775698377892
 30
0.0
 10
381.7932398299612
 20
260.4790783131493
 30
0.0
 10
381.4205242170725
 20
260.6284697126976
 30
0.0
 10
381.0761553352807
 20
260.6495380762088
 30
0.0
 10
380.7212083169071
 20
260.55717930233
 30
0.0
 10
380.3243730498093
 20
260.313449590663
 30
0.0
 10
379.8751589901387
 20
259.7872575981011
 30
0.0
 10
379.5801211128797
 20
259.1052150776993
 30
0.0
 10
379.5430621673984
 20
258.6103945975997
 30
0.0
 10
379.5283700085892
 20
258.4142211506403
 30
0.0
  0
LINE
  5
40A
330
1F
100
AcDbEntity
  8
0
  6
Continuous
 62
     7
370
    35
100
AcDbLine
 10
386.1783700086
 20
271.5156916594
 30
0.0
 11
386.1783700086
 21
251.5156916594
 31
0.0
  0
LINE
  5
40B
330
1F
100
AcDbEntity
  8
0
  6
Continuous
 62
     7
370
    35
100
AcDbLine
 10
386.1783700086
 20
292.5156916594
 30
0.0
 11
386.1783700086
 21
272.5156916594
 31
0.0
  0
LINE
  5
40C
330
1F
100
AcDbEntity
  8
0
  6
Continuous
 62
     7
370
    35
100
AcDbLine
 10
386.1783700086
 20
272.5156916594
 30
0.0
 11
385.6783700086
 21
272.5156916594
 31
0.0
  0
LINE
  5
40D
330
1F
100
AcDbEntity
  8
0
  6
Continuous
 62
     7
370
    35
100
AcDbLine
 10
385.6783700086
 20
271.5156916594
 30
0.0
 11
386.1783700086
 21
271.5156916594
 31
0.0
  0
LINE
  5
40E
330
1F
100
AcDbEntity
  8
0
  6
Continuous
 62
     7
370
    35
100
AcDbLine
 10
375.1783700086
 20
275.8886750056
 30
0.0
 11
376.1783700086
 21
275.8886750056
 31
0.0
  0
LINE
  5
40F
330
1F
100
AcDbEntity
  8
0
  6
Continuous
 62
     7
370
    35
100
AcDbLine
 10
376.1783700086
 20
268.1427083132
 30
0.0
 11
375.1783700086
 21
268.1427083132
 31
0.0
  0
LINE
  5
410
330
1F
100
AcDbEntity
  8
0
  6
Continuous
 62
     7
370
    35
100
AcDbLine
 10
386.1783700086
 20
271.5156916594
 30
0.0
 11
386.1783700086
 21
272.5156916594
 31
0.0
  0
LINE
  5
411
330
1F
100
AcDbEntity
  8
0
  6
Continuous
 62
     7
370
    35
100
AcDbLine
 10
271.1783700086
 20
285.2656916594
 30
0.0
 11
242.1783700086
 21
285.2656916594
 31
0.0
  0
LINE
  5
412
330
1F
100
AcDbEntity
  8
0
  6
Continuous
 62
     7
370
    35
100
AcDbLine
 10
242.1783700086
 20
285.2656916594
 30
0.0
 11
242.1783700086
 21
282.0779975581
 31
0.0
  0
LINE
  5
413
330
1F
100
AcDbEntity
  8
0
  6
Continuous
 62
     7
370
    35
100
AcDbLine
 10
242.4283700086
 20
285.5156916594
 30
0.0
 11
242.1783700086
 21
285.2656916594
 31
0.0
  0
LINE
  5
414
330
1F
100
AcDbEntity
  8
0
  6
Continuous
 62
     7
370
    35
100
AcDbLine
 10
242.4283700086
 20
285.5156916594
 30
0.0
 11
271.1783700086
 21
285.5156916594
 31
0.0
  0
LINE
  5
415
330
1F
100
AcDbEntity
  8
0
  6
Continuous
 62
     7
370
    35
100
AcDbLine
 10
274.1783700086
 20
285.2656916594
 30
0.0
 11
271.1783700086
 21
285.2656916594
 31
0.0
  0
LINE
  5
416
330
1F
100
AcDbEntity
  8
0
  6
Continuous
 62
     7
370
    35
100
AcDbLine
 10
271.1783700086
 20
285.5156916594
 30
0.0
 11
273.9283700086
 21
285.5156916594
 31
0.0
  0
SPLINE
  5
417
330
1F
100
AcDbEntity
  8
0
  6
Continuous
 62
     7
370
    35
100
AcDbSpline
210
0.0
220
0.0
230
1.0
 70
     8
 71
     3
 72
    10
 73
     6
 74
     0
 42
0.00000001
 43
0.00000001
 40
0.0
 40
0.0
 40
0.0
 40
0.0
 40
0.5
 40
0.5
 40
1.0
 40
1.0
 40
1.0
 40
1.0
 10
301.4570689396206
 20
289.9794349778681
 30
0.0
 10
301.3666984028919
 20
289.7555084372548
 30
0.0
 10
301.2949263601381
 20
289.5219654377221
 30
0.0
 10
301.1935193737795
 20
289.0330922077393
 30
0.0
 10
301.1642802500948
 20
288.7756891718347
 30
0.0
 10
301.1609359118985
 20
288.5176753598039
 30
0.0
  0
SPLINE
  5
418
330
1F
100
AcDbEntity
  8
0
  6
Continuous
 62
     7
370
    35
100
AcDbSpline
210
0.0
220
0.0
230
1.0
 70
    24
 71
     3
 72
    10
 73
     6
 74
     0
 42
0.00000001
 43
0.00000001
 40
0.0
 40
0.0
 40
0.0
 40
0.0
 40
0.5
 40
0.5
 40
1.0
 40
1.0
 40
1.0
 40
1.0
 10
354.1783700085891
 20
292.2903131644686
 30
0.0
 10
354.1783700085891
 20
292.0320251335143
 30
0.0
 10
354.1783700085891
 20
291.761041118086
 30
0.0
 10
354.1783700085891
 20
291.2126974208319
 30
0.0
 10
354.1783700085891
 20
290.9335327682274
 30
0.0
 10
354.1783700085891
 20
290.6492026671439
 30
0.0
  0
LINE
  5
419
330
1F
100
AcDbEntity
  8
0
  6
Continuous
 62
     7
370
    35
100
AcDbLine
 10
301.1606048517
 20
288.4547874485
 30
0.0
 11
301.1606048517
 21
288.4666056468
 31
0.0
  0
LINE
  5
41A
330
1F
100
AcDbEntity
  8
0
  6
Continuous
 62
     7
370
    35
100
AcDbLine
 10
301.1606048517
 20
288.4666056468
 30
0.0
 11
301.1606048517
 21
288.4966056468
 31
0.0
  0
LINE
  5
41B
330
1F
100
AcDbEntity
  8
0
  6
Continuous
 62
     7
370
    35
100
AcDbLine
 10
301.1606048517
 20
288.4966056468
 30
0.0
 11
301.1606048517
 21
307.8253667807
 31
0.0
  0
LINE
  5
41C
330
1F
100
AcDbEntity
  8
0
  6
Continuous
 62
     7
370
    35
100
AcDbLine
 10
302.1783700086
 20
307.8253667807
 30
0.0
 11
302.1783700086
 21
291.6724633869
 31
0.0
  0
ARC
  5
41D
330
1F
100
AcDbEntity
  8
0
  6
Continuous
 62
     7
370
    35
100
AcDbCircle
 10
345.9689092294
 20
272.0156916594
 30
0.0
 40
47.99999999999946
100
AcDbArc
 50
155.8255608171
 51
158.0223645548
  0
SPLINE
  5
41E
330
1F
100
AcDbEntity
  8
0
  6
Continuous
 62
     7
370
    35
100
AcDbSpline
210
0.0
220
0.0
230
1.0
 70
     8
 71
     3
 72
    14
 73
    10
 74
     0
 42
0.00000001
 43
0.00000001
 40
0.0
 40
0.0
 40
0.0
 40
0.0
 40
0.000016567511187
 40
0.000016567511187
 40
0.000016567511187
 40
0.000029994084789
 40
0.000029994084789
 40
0.000029994084789
 40
0.0000428602625668
 40
0.0000428602625668
 40
0.0000428602625668
 40
0.0000428602625668
 10
301.175852855809
 20
288.4822496248803
 30
0.0
 10
301.1726023133446
 20
288.4853100161642
 30
0.0
 10
301.1695891130375
 20
288.4890252833936
 30
0.0
 10
301.1671447397688
 20
288.4933320369369
 30
0.0
 10
301.1651627090296
 20
288.4968241868543
 30
0.0
 10
301.163518882658
 20
288.5007927553883
 30
0.0
 10
301.1624409614539
 20
288.5050032392681
 30
0.0
 10
301.1614099167397
 20
288.5090306182001
 30
0.0
 10
301.1608804028679
 20
288.5133928692947
 30
0.0
 10
301.1609359118985
 20
288.5176753598039
 30
0.0
  0
LINE
  5
41F
330
1F
100
AcDbEntity
  8
0
  6
Continuous
 62
     7
370
    35
100
AcDbLine
 10
301.1758528558
 20
288.4822496249
 30
0.0
 11
301.1911424574
 21
288.4678544388
 31
0.0
  0
LINE
  5
420
330
1F
100
AcDbEntity
  8
0
  6
Continuous
 62
     7
370
    35
100
AcDbLine
 10
301.1911424574
 20
288.4678544388
 30
0.0
 11
301.1783728567
 21
288.4547874485
 31
0.0
  0
LINE
  5
421
330
1F
100
AcDbEntity
  8
0
  6
Continuous
 62
     7
370
    35
100
AcDbLine
 10
301.1783728567
 20
288.4547874485
 30
0.0
 11
301.1606048517
 21
288.4547874485
 31
0.0
  0
LINE
  5
422
330
1F
100
AcDbEntity
  8
0
  6
Continuous
 62
     7
370
    35
100
AcDbLine
 10
290.1783700086
 20
308.0156916594
 30
0.0
 11
290.1783700086
 21
316.5156916594
 31
0.0
  0
LINE
  5
423
330
1F
100
AcDbEntity
  8
0
  6
Continuous
 62
     7
370
    35
100
AcDbLine
 10
290.1783700086
 20
316.5156916594
 30
0.0
 11
290.6783700086
 21
317.0156916594
 31
0.0
  0
LINE
  5
424
330
1F
100
AcDbEntity
  8
0
  6
Continuous
 62
     7
370
    35
100
AcDbLine
 10
290.6783700086
 20
317.0156916594
 30
0.0
 11
290.6783700086
 21
308.0156916594
 31
0.0
  0
LINE
  5
425
330
1F
100
AcDbEntity
  8
0
  6
Continuous
 62
     7
370
    35
100
AcDbLine
 10
290.1783700086
 20
236.0156916594
 30
0.0
 11
290.1783700086
 21
308.0156916594
 31
0.0
  0
LINE
  5
426
330
1F
100
AcDbEntity
  8
0
  6
Continuous
 62
     7
370
    35
100
AcDbLine
 10
290.6783700086
 20
236.0156916594
 30
0.0
 11
290.6783700086
 21
308.0156916594
 31
0.0
  0
LINE
  5
427
330
1F
100
AcDbEntity
  8
0
  6
Continuous
 62
     7
370
    35
100
AcDbLine
 10
290.1783700086
 20
227.5156916594
 30
0.0
 11
290.1783700086
 21
236.0156916594
 31
0.0
  0
LINE
  5
428
330
1F
100
AcDbEntity
  8
0
  6
Continuous
 62
     7
370
    35
100
AcDbLine
 10
290.6783700086
 20
227.0156916594
 30
0.0
 11
290.1783700086
 21
227.5156916594
 31
0.0
  0
LINE
  5
429
330
1F
100
AcDbEntity
  8
0
  6
Continuous
 62
     7
370
    35
100
AcDbLine
 10
290.6783700086
 20
236.0156916594
 30
0.0
 11
290.6783700086
 21
227.0156916594
 31
0.0
  0
LINE
  5
42A
330
1F
100
AcDbEntity
  8
0
  6
Continuous
 62
     7
370
    35
100
AcDbLine
 10
290.6783700086
 20
317.0069641269
 30
0.0
 11
301.1606048517
 21
316.8239960371
 31
0.0
  0
SPLINE
  5
42B
330
1F
100
AcDbEntity
  8
0
  6
Continuous
 62
     7
370
    35
100
AcDbSpline
210
0.0
220
0.0
230
1.0
 70
     8
 71
     3
 72
    29
 73
    25
 74
     0
 42
0.00000001
 43
0.00000001
 40
0.0
 40
0.0
 40
0.0
 40
0.0
 40
0.0216862077635099
 40
0.0432205313702217
 40
0.0646029771203766
 40
0.0858335514581168
 40
0.1069122609755638
 40
0.127839112417044
 40
0.1486141126834708
 40
0.1692372688368871
 40
0.1897085881051733
 40
0.2100280778869342
 40
0.2301957457565665
 40
0.2502115994695181
 40
0.3759257594195705
 40
0.5000167744249288
 40
0.6241043189143601
 40
0.7498219489439373
 40
0.7899994268446043
 40
0.8307843824733656
 40
0.8721768687994643
 40
0.9141769359543783
 40
0.9567846313856625
 40
1.0
 40
1.0
 40
1.0
 40
1.0
 10
301.1606048516938
 20
307.8253667807249
 30
0.0
 10
301.1608046078254
 20
307.9274622172541
 30
0.0
 10
301.1612027210521
 20
308.1309380423218
 30
0.0
 10
301.1617746291935
 20
308.4347276637176
 30
0.0
 10
301.1623229718586
 20
308.7356850614798
 30
0.0
 10
301.1628449348377
 20
309.0334897176593
 30
0.0
 10
301.1633399781408
 20
309.3278364582373
 30
0.0
 10
301.1638074639974
 20
309.6184353584182
 30
0.0
 10
301.1642472671542
 20
309.9050118918445
 30
0.0
 10
301.1646595990147
 20
310.1873063470936
 30
0.0
 10
301.1650450223028
 20
310.4650757064782
 30
0.0
 10
301.1654044800029
 20
310.738086313344
 30
0.0
 10
301.1657390805408
 20
311.00614039103
 30
0.0
 10
301.1666003798164
 20
311.7322991559656
 30
0.0
 10
301.1676643861025
 20
312.8606677164927
 30
0.0
 10
301.1681061941372
 20
314.2287960659765
 30
0.0
 10
301.1676645658909
 20
315.3534091768835
 30
0.0
 10
301.1665203840444
 20
316.0022208935786
 30
0.0
 10
301.1654127127018
 20
316.3461248155914
 30
0.0
 10
301.1646686089747
 20
316.515132121481
 30
0.0
 10
301.1638165400047
 20
316.6504291022277
 30
0.0
 10
301.1628522657801
 20
316.7488978996844
 30
0.0
 10
301.1617841922488
 20
316.8120883332336
 30
0.0
 10
301.1609998164788
 20
316.8200081104138
 30
0.0
 10
301.1606048516938
 20
316.8239960371325
 30
0.0
  0
SPLINE
  5
42C
330
1F
100
AcDbEntity
  8
0
  6
Continuous
 62
     7
370
    35
100
AcDbSpline
210
0.0
220
0.0
230
1.0
 70
     8
 71
     3
 72
    29
 73
    25
 74
     0
 42
0.00000001
 43
0.00000001
 40
0.0
 40
0.0
 40
0.0
 40
0.0
 40
0.0216862077630959
 40
0.0432205313694686
 40
0.0646029771193601
 40
0.0858335514569123
 40
0.106912260974246
 40
0.127839112415688
 40
0.1486141126821533
 40
0.1692372688356813
 40
0.1897085881041564
 40
0.2100280778861809
 40
0.2301957457561521
 40
0.2502115994695186
 40
0.3759257594183194
 40
0.5000167744249303
 40
0.6241043189130948
 40
0.7498219489439376
 40
0.7899994268437981
 40
0.8307843824720756
 40
0.8721768687980131
 40
0.9141769359530877
 40
0.9567846313848563
 40
0.9999999999999999
 40
0.9999999999999999
 40
0.9999999999999999
 40
0.9999999999999999
 10
301.1606048516938
 20
227.2073872816191
 30
0.0
 10
301.1608046078254
 20
227.2083932370965
 30
0.0
 10
301.1612027210521
 20
227.2103981026193
 30
0.0
 10
301.1617746291935
 20
227.226476507908
 30
0.0
 10
301.1623229718586
 20
227.2518525748906
 30
0.0
 10
301.1628449348377
 20
227.2872180606607
 30
0.0
 10
301.1633399781409
 20
227.3320730868943
 30
0.0
 10
301.1638074639974
 20
227.3862240845246
 30
0.0
 10
301.1642472671542
 20
227.4493877725839
 30
0.0
 10
301.1646595990148
 20
227.5212967588527
 30
0.0
 10
301.1650450223029
 20
227.6016737762753
 30
0.0
 10
301.165404480003
 20
227.6902346953428
 30
0.0
 10
301.1657390805408
 20
227.7867060875184
 30
0.0
 10
301.1666003798164
 20
228.0741748178429
 30
0.0
 10
301.1676643861024
 20
228.6780068701618
 30
0.0
 10
301.1681061941371
 20
229.8025376752798
 30
0.0
 10
301.167664565891
 20
231.170766184692
 30
0.0
 10
301.1665203840445
 20
232.3832160797687
 30
0.0
 10
301.1654127127018
 20
233.293813318544
 30
0.0
 10
301.1646686089746
 20
233.8449025854556
 30
0.0
 10
301.1638165400047
 20
234.4140615769357
 30
0.0
 10
301.1628522657801
 20
234.9993304343806
 30
0.0
 10
301.1617841922489
 20
235.5984351912645
 30
0.0
 10
301.1609998164788
 20
236.002535673277
 30
0.0
 10
301.1606048516938
 20
236.2060165380266
 30
0.0
  0
LINE
  5
42D
330
1F
100
AcDbEntity
  8
0
  6
Continuous
 62
     7
370
    35
100
AcDbLine
 10
301.1606048517
 20
227.2073872816
 30
0.0
 11
290.6783700086
 21
227.0244191918
 31
0.0
  0
LINE
  5
42E
330
1F
100
AcDbEntity
  8
0
  6
Continuous
 62
     7
370
    35
100
AcDbLine
 10
301.1606048517
 20
255.5765958749
 30
0.0
 11
301.1101524271
 21
255.5765958749
 31
0.0
  0
LINE
  5
42F
330
1F
100
AcDbEntity
  8
0
  6
Continuous
 62
     7
370
    35
100
AcDbLine
 10
301.1606048517
 20
255.5647776719
 30
0.0
 11
301.1606048517
 21
255.5765958749
 31
0.0
  0
LINE
  5
430
330
1F
100
AcDbEntity
  8
0
  6
Continuous
 62
     7
370
    35
100
AcDbLine
 10
301.1606048517
 20
255.5347776719
 30
0.0
 11
301.1606048517
 21
255.5647776719
 31
0.0
  0
LINE
  5
431
330
1F
100
AcDbEntity
  8
0
  6
Continuous
 62
     7
370
    35
100
AcDbLine
 10
301.1606048517
 20
236.206016538
 30
0.0
 11
301.1606048517
 21
255.5347776719
 31
0.0
  0
LINE
  5
432
330
1F
100
AcDbEntity
  8
0
  6
Continuous
 62
     7
370
    35
100
AcDbLine
 10
301.1606048517
 20
288.4547874485
 30
0.0
 11
301.1101524271
 21
288.4547874485
 31
0.0
  0
SPLINE
  5
433
330
1F
100
AcDbEntity
  8
0
  6
Continuous
 62
     7
370
    35
100
AcDbSpline
210
0.0
220
0.0
230
1.0
 70
     8
 71
     3
 72
    10
 73
     6
 74
     0
 42
0.00000001
 43
0.00000001
 40
0.0
 40
0.0
 40
0.0
 40
0.0
 40
0.5
 40
0.5
 40
1.0
 40
1.0
 40
1.0
 40
1.0
 10
301.1609359118985
 20
255.5137079589471
 30
0.0
 10
301.1642712329955
 20
255.2563898110618
 30
0.0
 10
301.1924601886057
 20
255.0050940214037
 30
0.0
 10
301.2937586725619
 20
254.5133872799023
 30
0.0
 10
301.3667283527321
 20
254.2758006696535
 30
0.0
 10
301.4570689396206
 20
254.0519483408834
 30
0.0
  0
SPLINE
  5
434
330
1F
100
AcDbEntity
  8
0
  6
Continuous
 62
     7
370
    35
100
AcDbSpline
210
0.0
220
0.0
230
1.0
 70
    24
 71
     3
 72
    10
 73
     6
 74
     0
 42
0.00000001
 43
0.00000001
 40
0.0
 40
0.0
 40
0.0
 40
0.0
 40
0.5
 40
0.5
 40
1.0
 40
1.0
 40
1.0
 40
1.0
 10
354.1783700085891
 20
253.3821806516071
 30
0.0
 10
354.1783700085891
 20
253.0974023415345
 30
0.0
 10
354.1783700085891
 20
252.8135251671382
 30
0.0
 10
354.1783700085891
 20
252.2656295284438
 30
0.0
 10
354.1783700085891
 20
251.9993522991199
 30
0.0
 10
354.1783700085891
 20
251.7410701542829
 30
0.0
  0
LINE
  5
435
330
1F
100
AcDbEntity
  8
0
  6
Continuous
 62
     7
370
    35
100
AcDbLine
 10
301.1911424574
 20
255.5635288799
 30
0.0
 11
301.1758528558
 21
255.5491336939
 31
0.0
  0
SPLINE
  5
436
330
1F
100
AcDbEntity
  8
0
  6
Continuous
 62
     7
370
    35
100
AcDbSpline
210
0.0
220
0.0
230
1.0
 70
     8
 71
     3
 72
    14
 73
    10
 74
     0
 42
0.00000001
 43
0.00000001
 40
0.0
 40
0.0
 40
0.0
 40
0.0
 40
0.000012797974209
 40
0.000012797974209
 40
0.000012797974209
 40
0.0000255093113908
 40
0.0000255093113908
 40
0.0000255093113908
 40
0.0000428115197143
 40
0.0000428115197143
 40
0.0000428115197143
 40
0.0000428115197143
 10
301.1609359118985
 20
255.5137079589471
 30
0.0
 10
301.1608806260148
 20
255.5179732338026
 30
0.0
 10
301.1614054673604
 20
255.5223174501978
 30
0.0
 10
301.1624283461483
 20
255.5263306933527
 30
0.0
 10
301.1634474070606
 20
255.5303289571537
 30
0.0
 10
301.1649756090263
 20
255.5341100221236
 30
0.0
 10
301.1668186087897
 20
255.537467072533
 30
0.0
 10
301.169319497082
 20
255.5420224763002
 30
0.0
 10
301.1724582856636
 20
255.5459377002789
 30
0.0
 10
301.175852855809
 20
255.5491336938708
 30
0.0
  0
ARC
  5
437
330
1F
100
AcDbEntity
  8
0
  6
Continuous
 62
     7
370
    35
100
AcDbCircle
 10
345.9689092294
 20
272.0156916594
 30
0.0
 40
47.99999999999949
100
AcDbArc
 50
201.9776354452
 51
204.1744391829
  0
LINE
  5
438
330
1F
100
AcDbEntity
  8
0
  6
Continuous
 62
     7
370
    35
100
AcDbLine
 10
302.1783700086
 20
252.3589199319
 30
0.0
 11
302.1783700086
 21
236.206016538
 31
0.0
  0
LINE
  5
439
330
1F
100
AcDbEntity
  8
0
  6
Continuous
 62
     7
370
    35
100
AcDbLine
 10
301.1783728521
 20
255.5765958749
 30
0.0
 11
301.1606048517
 21
255.5765958749
 31
0.0
  0
LINE
  5
43A
330
1F
100
AcDbEntity
  8
0
  6
Continuous
 62
     7
370
    35
100
AcDbLine
 10
301.1783728521
 20
255.5765958749
 30
0.0
 11
301.1911424574
 21
255.5635288799
 31
0.0
  0
SPLINE
  5
43B
330
1F
100
AcDbEntity
  8
0
  6
Continuous
 62
     7
370
    35
100
AcDbSpline
210
0.0
220
0.0
230
1.0
 70
    24
 71
     3
 72
    28
 73
    24
 74
     0
 42
0.00000001
 43
0.00000001
 40
0.0
 40
0.0
 40
0.0
 40
0.0
 40
0.0208215902914081
 40
0.0416549694093914
 40
0.0625224778241894
 40
0.0937693216860817
 40
0.1250398336316511
 40
0.1875364692332533
 40
0.2500315549498794
 40
0.3125253205067973
 40
0.3750180504656819
 40
0.4375100659583384
 40
0.5000017177965379
 40
0.5624933696347414
 40
0.6249853851274006
 40
0.6874781150862829
 40
0.7499718806431986
 40
0.8124669663598275
 40
0.8749636019614326
 40
0.9061903568398448
 40
0.9374809578695404
 40
0.9687444805300661
 40
1.0
 40
1.0
 40
1.0
 40
1.0
 10
302.1783700085891
 20
236.2060165380266
 30
0.0
 10
302.1783700085891
 20
236.1190310379478
 30
0.0
 10
302.1783700085891
 20
235.9450107880952
 30
0.0
 10
302.1783700085891
 20
235.6840919722239
 30
0.0
 10
302.1783700085891
 20
235.3803260126358
 30
0.0
 10
302.1783700085891
 20
235.0344503645771
 30
0.0
 10
302.1783700085891
 20
234.5197235382801
 30
0.0
 10
302.1783700085891
 20
233.8854045236131
 30
0.0
 10
302.1783700085891
 20
233.1467785642569
 30
0.0
 10
302.1783700085891
 20
232.4376569529734
 30
0.0
 10
302.1783700085891
 20
231.7647606942154
 30
0.0
 10
302.1783700085891
 20
231.1347414284324
 30
0.0
 10
302.1783700085891
 20
230.5534512602351
 30
0.0
 10
302.1783700085891
 20
230.0267295012904
 30
0.0
 10
302.1783700085891
 20
229.5593780292633
 30
0.0
 10
302.1783700085891
 20
229.1561864620165
 30
0.0
 10
302.1783700085891
 20
228.8207304790265
 30
0.0
 10
302.1783700085891
 20
228.5565449705161
 30
0.0
 10
302.1783700085891
 20
228.397712492977
 30
0.0
 10
302.1783700085891
 20
228.3083159029331
 30
0.0
 10
302.1783700085891
 20
228.2606587001205
 30
0.0
 10
302.1783700085891
 20
228.2306774505937
 30
0.0
 10
302.1783700085891
 20
228.2269939520301
 30
0.0
 10
302.1783700085891
 20
228.2251524385144
 30
0.0
  0
LINE
  5
43C
330
1F
100
AcDbEntity
  8
0
  6
Continuous
 62
     7
370
    35
100
AcDbLine
 10
302.1783700086
 20
228.2251524385
 30
0.0
 11
301.1606048517
 21
227.2073872816
 31
0.0
  0
SPLINE
  5
43D
330
1F
100
AcDbEntity
  8
0
  6
Continuous
 62
     7
370
    35
100
AcDbSpline
210
0.0
220
0.0
230
1.0
 70
    24
 71
     3
 72
    28
 73
    24
 74
     0
 42
0.00000001
 43
0.00000001
 40
0.0
 40
0.0
 40
0.0
 40
0.0
 40
0.0208215902932882
 40
0.0416549694112709
 40
0.0625224778241961
 40
0.093769321687804
 40
0.1250398336316513
 40
0.1875364692332534
 40
0.2500315549498806
 40
0.3125253205067996
 40
0.3750180504656834
 40
0.4375100659583409
 40
0.5000017177965401
 40
0.5624933696347422
 40
0.6249853851274018
 40
0.6874781150862835
 40
0.7499718806432002
 40
0.8124669663598295
 40
0.8749636019614336
 40
0.9061903568369408
 40
0.9374809578695377
 40
0.9687444805277635
 40
1.0
 40
1.0
 40
1.0
 40
1.0
 10
302.1783700085891
 20
315.8062308802371
 30
0.0
 10
302.1783700085891
 20
315.805413383566
 30
0.0
 10
302.1783700085891
 20
315.8037779273711
 30
0.0
 10
302.1783700085891
 20
315.7904658705663
 30
0.0
 10
302.1783700085891
 20
315.7657047981701
 30
0.0
 10
302.1783700085891
 20
315.7230187486115
 30
0.0
 10
302.1783700085891
 20
315.6337589133967
 30
0.0
 10
302.1783700085891
 20
315.4748235390705
 30
0.0
 10
302.1783700085891
 20
315.2106568076984
 30
0.0
 10
302.1783700085891
 20
314.8751957935403
 30
0.0
 10
302.1783700085891
 20
314.4720055743953
 30
0.0
 10
302.1783700085891
 20
314.0046537410075
 30
0.0
 10
302.1783700085891
 20
313.4779320794268
 30
0.0
 10
302.1783700085891
 20
312.8966418831309
 30
0.0
 10
302.1783700085891
 20
312.2666226323788
 30
0.0
 10
302.1783700085891
 20
311.5937263415954
 30
0.0
 10
302.1783700085891
 20
310.8846048433851
 30
0.0
 10
302.1783700085891
 20
310.1459784637488
 30
0.0
 10
302.1783700085891
 20
309.5118383797584
 30
0.0
 10
302.1783700085891
 20
308.9971122741476
 30
0.0
 10
302.1783700085891
 20
308.6081249101475
 30
0.0
 10
302.1783700085891
 20
308.2171483419426
 30
0.0
 10
302.1783700085891
 20
307.9559494889372
 30
0.0
 10
302.1783700085891
 20
307.8253667807249
 30
0.0
  0
LINE
  5
43E
330
1F
100
AcDbEntity
  8
0
  6
Continuous
 62
     7
370
    35
100
AcDbLine
 10
302.1783700086
 20
315.8062308802
 30
0.0
 11
301.1606048517
 21
316.8239960371
 31
0.0
  0
LINE
  5
43F
330
1F
100
AcDbEntity
  8
0
  6
Continuous
 62
     7
370
    35
100
AcDbLine
 10
354.1783700086
 20
290.582815485
 30
0.0
 11
354.1783700086
 21
290.547407027
 31
0.0
  0
LINE
  5
440
330
1F
100
AcDbEntity
  8
0
  6
Continuous
 62
     7
370
    35
100
AcDbLine
 10
354.1783700086
 20
253.4839762918
 30
0.0
 11
354.1783700086
 21
253.4485678337
 31
0.0
  0
LINE
  5
441
330
1F
100
AcDbEntity
  8
0
  6
Continuous
 62
     7
370
    35
100
AcDbLine
 10
354.1783700086
 20
253.4839762918
 30
0.0
 11
354.1783700086
 21
290.547407027
 31
0.0
  0
LINE
  5
442
330
1F
100
AcDbEntity
  8
0
  6
Continuous
 62
     7
370
    35
100
AcDbLine
 10
301.1630910511
 20
255.5765958749
 30
0.0
 11
301.1606048517
 21
255.5990168291
 31
0.0
  0
LINE
  5
443
330
1F
100
AcDbEntity
  8
0
  6
Continuous
 62
     7
370
    35
100
AcDbLine
 10
301.1606048517
 20
288.4323664897
 30
0.0
 11
301.1630910522
 21
288.4547874485
 31
0.0
  0
LINE
  5
444
330
1F
100
AcDbEntity
  8
0
  6
Continuous
 62
     7
370
    35
100
AcDbLine
 10
301.1606048517
 20
255.6335139464
 30
0.0
 11
301.1606048517
 21
288.3978693724
 31
0.0
  0
LINE
  5
445
330
1F
100
AcDbEntity
  8
0
  6
Continuous
 62
     7
370
    35
100
AcDbLine
 10
301.1911424574
 20
255.5635288799
 30
0.0
 11
354.1783700086
 21
253.4332160044
 31
0.0
  0
LINE
  5
446
330
1F
100
AcDbEntity
  8
0
  6
Continuous
 62
     7
370
    35
100
AcDbLine
 10
354.1783700086
 20
253.4182067681
 30
0.0
 11
354.1783700086
 21
253.4332160044
 31
0.0
  0
LINE
  5
447
330
1F
100
AcDbEntity
  8
0
  6
Continuous
 62
     7
370
    35
100
AcDbLine
 10
301.1911424574
 20
288.4678544388
 30
0.0
 11
354.1783700086
 21
290.5981673144
 31
0.0
  0
LINE
  5
448
330
1F
100
AcDbEntity
  8
0
  6
Continuous
 62
     7
370
    35
100
AcDbLine
 10
354.1783700086
 20
290.5981673144
 30
0.0
 11
354.1783700086
 21
290.6131765507
 31
0.0
  0
LINE
  5
449
330
1F
100
AcDbEntity
  8
0
  6
Continuous
 62
     7
370
    35
100
AcDbLine
 10
354.1783700086
 20
253.4332160044
 30
0.0
 11
354.1783700086
 21
253.4485678337
 31
0.0
  0
LINE
  5
44A
330
1F
100
AcDbEntity
  8
0
  6
Continuous
 62
     7
370
    35
100
AcDbLine
 10
301.2082981521
 20
255.5765958749
 30
0.0
 11
301.1783728521
 21
255.5765958749
 31
0.0
  0
LINE
  5
44B
330
1F
100
AcDbEntity
  8
0
  6
Continuous
 62
     7
370
    35
100
AcDbLine
 10
354.1783700086
 20
290.582815485
 30
0.0
 11
354.1783700086
 21
290.5981673144
 31
0.0
  0
LINE
  5
44C
330
1F
100
AcDbEntity
  8
0
  6
Continuous
 62
     7
370
    35
100
AcDbLine
 10
301.1783728567
 20
288.4547874485
 30
0.0
 11
301.2082981472
 21
288.4547874485
 31
0.0
  0
LINE
  5
44D
330
1F
100
AcDbEntity
  8
0
  6
Continuous
 62
     7
370
    35
100
AcDbLine
 10
354.1783700086
 20
292.2903131645
 30
0.0
 11
354.1783700086
 21
299.7056959278
 31
0.0
  0
LINE
  5
44E
330
1F
100
AcDbEntity
  8
0
  6
Continuous
 62
     7
370
    35
100
AcDbLine
 10
354.1783700086
 20
244.3256873909
 30
0.0
 11
354.1783700086
 21
251.7410701543
 31
0.0
  0
SPLINE
  5
44F
330
1F
100
AcDbEntity
  8
0
  6
Continuous
 62
     7
370
    35
100
AcDbSpline
210
0.0
220
0.0
230
1.0
 70
    24
 71
     3
 72
    14
 73
    10
 74
     0
 42
0.00000001
 43
0.00000001
 40
0.0
 40
0.0
 40
0.0
 40
0.0
 40
0.0000196093510308
 40
0.0000196093510308
 40
0.0000196093510308
 40
0.0000363063740058
 40
0.0000363063740058
 40
0.0000363063740058
 40
0.0000395860233713
 40
0.0000395860233713
 40
0.0000395860233713
 40
0.0000395860233713
 10
354.1783700085891
 20
253.4182067680988
 30
0.0
 10
354.1783700085891
 20
253.4135867742554
 30
0.0
 10
354.1783700085891
 20
253.4079381488296
 30
0.0
 10
354.1783700085891
 20
253.4018951133103
 30
0.0
 10
354.1783700085891
 20
253.3967220559672
 30
0.0
 10
354.1783700085891
 20
253.3911098968233
 30
0.0
 10
354.1783700085891
 20
253.3855226217005
 30
0.0
 10
354.1783700085891
 20
253.3844100199659
 30
0.0
 10
354.1783700085891
 20
253.3832947883472
 30
0.0
 10
354.1783700085891
 20
253.3821806516071
 30
0.0
  0
SPLINE
  5
450
330
1F
100
AcDbEntity
  8
0
  6
Continuous
 62
     7
370
    35
100
AcDbSpline
210
0.0
220
0.0
230
1.0
 70
    24
 71
     3
 72
    14
 73
    10
 74
     0
 42
0.00000001
 43
0.00000001
 40
0.0
 40
0.0
 40
0.0
 40
0.0
 40
0.0000196141847359
 40
0.0000196141847359
 40
0.0000196141847359
 40
0.0000363318994045
 40
0.0000363318994045
 40
0.0000363318994045
 40
0.0000395873546621
 40
0.0000395873546621
 40
0.0000395873546621
 40
0.0000395873546621
 10
354.1783700085891
 20
290.6492026671439
 30
0.0
 10
354.1783700085891
 20
290.642665136842
 30
0.0
 10
354.1783700085891
 20
290.6359887003294
 30
0.0
 10
354.1783700085891
 20
290.6299211544583
 30
0.0
 10
354.1783700085891
 20
290.6247223351548
 30
0.0
 10
354.1783700085891
 20
290.6198121193886
 30
0.0
 10
354.1783700085891
 20
290.6155983812263
 30
0.0
 10
354.1783700085891
 20
290.6147664522292
 30
0.0
 10
354.1783700085891
 20
290.6139582843051
 30
0.0
 10
354.1783700085891
 20
290.6131765506523
 30
0.0
  0
LINE
  5
451
330
1F
100
AcDbEntity
  8
0
  6
Continuous
 62
     7
370
    35
100
AcDbLine
 10
285.1783700086
 20
272.0156916594
 30
0.0
 11
285.1783700086
 21
312.0156916594
 31
0.0
  0
LINE
  5
452
330
1F
100
AcDbEntity
  8
0
  6
Continuous
 62
     7
370
    35
100
AcDbLine
 10
285.1783700086
 20
232.0156916594
 30
0.0
 11
285.1783700086
 21
272.0156916594
 31
0.0
  0
LINE
  5
453
330
1F
100
AcDbEntity
  8
0
  6
Continuous
 62
     7
370
    35
100
AcDbLine
 10
284.6783700086
 20
272.0156916594
 30
0.0
 11
284.6783700086
 21
311.0156916594
 31
0.0
  0
LINE
  5
454
330
1F
100
AcDbEntity
  8
0
  6
Continuous
 62
     7
370
    35
100
AcDbLine
 10
284.6783700086
 20
233.0156916594
 30
0.0
 11
284.6783700086
 21
272.0156916594
 31
0.0
  0
LINE
  5
455
330
1F
100
AcDbEntity
  8
0
  6
Continuous
 62
     7
370
    35
100
AcDbLine
 10
354.1783700086
 20
300.9750706611
 30
0.0
 11
354.1783700086
 21
299.7056959278
 31
0.0
  0
LINE
  5
456
330
1F
100
AcDbEntity
  8
0
  6
Continuous
 62
     7
370
    35
100
AcDbLine
 10
354.1783700086
 20
244.3256873909
 30
0.0
 11
354.1783700086
 21
243.0563126577
 31
0.0
  0
LINE
  5
457
330
1F
100
AcDbEntity
  8
0
  6
Continuous
 62
     7
370
    35
100
AcDbLine
 10
280.1783700086
 20
272.0156916594
 30
0.0
 11
280.1783700086
 21
311.0156916594
 31
0.0
  0
LINE
  5
458
330
1F
100
AcDbEntity
  8
0
  6
Continuous
 62
     7
370
    35
100
AcDbLine
 10
280.1783700086
 20
233.0156916594
 30
0.0
 11
280.1783700086
 21
272.0156916594
 31
0.0
  0
LINE
  5
459
330
1F
100
AcDbEntity
  8
0
  6
Continuous
 62
     7
370
    35
100
AcDbLine
 10
279.1783700086
 20
272.0156916594
 30
0.0
 11
279.1783700086
 21
310.0156916594
 31
0.0
  0
LINE
  5
45A
330
1F
100
AcDbEntity
  8
0
  6
Continuous
 62
     7
370
    35
100
AcDbLine
 10
279.1783700086
 20
234.0156916594
 30
0.0
 11
279.1783700086
 21
272.0156916594
 31
0.0
  0
LINE
  5
45B
330
1F
100
AcDbEntity
  8
0
  6
Continuous
 62
     7
370
    35
100
AcDbLine
 10
354.1783700086
 20
308.3303745425
 30
0.0
 11
354.1783700086
 21
306.4969759178
 31
0.0
  0
LINE
  5
45C
330
1F
100
AcDbEntity
  8
0
  6
Continuous
 62
     7
370
    35
100
AcDbLine
 10
354.1783700086
 20
237.534407401
 30
0.0
 11
354.1783700086
 21
235.7010087762
 31
0.0
  0
LINE
  5
45D
330
1F
100
AcDbEntity
  8
0
  6
Continuous
 62
     7
370
    35
100
AcDbLine
 10
354.1783700086
 20
311.2236457454
 30
0.0
 11
354.1783700086
 21
308.3303745425
 31
0.0
  0
LINE
  5
45E
330
1F
100
AcDbEntity
  8
0
  6
Continuous
 62
     7
370
    35
100
AcDbLine
 10
354.1783700086
 20
235.7010087762
 30
0.0
 11
354.1783700086
 21
232.8077375733
 31
0.0
  0
LINE
  5
45F
330
1F
100
AcDbEntity
  8
0
  6
Continuous
 62
     7
370
    35
100
AcDbLine
 10
354.1783700086
 20
311.2236457454
 30
0.0
 11
354.1783700086
 21
315.5236187857
 31
0.0
  0
LINE
  5
460
330
1F
100
AcDbEntity
  8
0
  6
Continuous
 62
     7
370
    35
100
AcDbLine
 10
354.1783700086
 20
228.5077645331
 30
0.0
 11
354.1783700086
 21
232.8077375733
 31
0.0
  0
LWPOLYLINE
  5
461
330
1F
100
AcDbEntity
  8
0
  6
Continuous
 62
     7
370
    35
100
AcDbPolyline
 90
        7
 70
   128
 43
0.0
 10
301.1609359119
 20
227.2077183418
 10
301.2608400647
 20
227.2094582553
 10
301.6604566782
 20
227.2164183073
 10
303.2589231626
 20
227.2442645465
 10
309.6527891819
 20
227.355726674
 10
310.9276393334
 20
227.3779619016
 10
314.568713366
 20
227.4414814535
  0
LWPOLYLINE
  5
462
330
1F
100
AcDbEntity
  8
0
  6
Continuous
 62
     7
370
    35
100
AcDbPolyline
 90
        6
 70
   128
 43
0.0
 10
339.51289039
 20
227.8768836831
 10
339.6127944233
 20
227.878628219
 10
340.0124105535
 20
227.8856064622
 10
341.610875032
 20
227.9135211381
 10
348.0047324729
 20
228.0252153258
 10
354.1783700086
 20
228.1331412629
  0
LWPOLYLINE
  5
463
330
1F
100
AcDbEntity
  8
0
  6
Continuous
 62
     7
370
    35
100
AcDbPolyline
 90
        6
 70
   128
 43
0.0
 10
314.568713366
 20
227.4414814535
 10
314.6686175055
 20
227.4432245516
 10
315.0682340599
 20
227.4501970538
 10
316.6667002179
 20
227.4780886862
 10
323.060563767
 20
227.5896740853
 10
339.51289039
 20
227.8768836831
  0
SPLINE
  5
464
330
1F
100
AcDbEntity
  8
0
  6
Continuous
 62
     7
370
    35
100
AcDbSpline
210
0.0
220
0.0
230
1.0
 70
    24
 71
     3
 72
     8
 73
     4
 74
     0
 42
0.00000001
 43
0.00000001
 40
0.0
 40
0.0
 40
0.0
 40
0.0
 40
1.0
 40
1.0
 40
1.0
 40
1.0
 10
354.1783700085891
 20
228.5077645331011
 30
0.0
 10
354.1783700085891
 20
228.2682844001405
 30
0.0
 10
354.1783700085891
 20
228.1403618381348
 30
0.0
 10
354.1783700085891
 20
228.1331412628519
 30
0.0
  0
LWPOLYLINE
  5
465
330
1F
100
AcDbEntity
  8
0
  6
Continuous
 62
     7
370
    35
100
AcDbPolyline
 90
        6
 70
   128
 43
0.0
 10
314.5687131212
 20
316.5899018695
 10
314.4688089813
 20
316.5916449563
 10
314.0691924185
 20
316.5986171881
 10
312.470726115
 20
316.6265041142
 10
306.0768603005
 20
316.7380079554
 10
301.1609359119
 20
316.8236649769
  0
LWPOLYLINE
  5
466
330
1F
100
AcDbEntity
  8
0
  6
Continuous
 62
     7
370
    35
100
AcDbPolyline
 90
        6
 70
   128
 43
0.0
 10
339.51289039
 20
316.1544996357
 10
339.4129863564
 20
316.1562441619
 10
339.0133702192
 20
316.1632221712
 10
337.4149056203
 20
316.191132785
 10
331.0210462752
 20
316.3027580293
 10
314.5687131212
 20
316.5899018695
  0
LWPOLYLINE
  5
467
330
1F
100
AcDbEntity
  8
0
  6
Continuous
 62
     7
370
    35
100
AcDbPolyline
 90
        6
 70
   128
 43
0.0
 10
354.1783700086
 20
315.8982420559
 10
354.0784659837
 20
315.8999893626
 10
353.6788498861
 20
315.9069782908
 10
352.0803855246
 20
315.9349294228
 10
345.686528253
 20
316.046672335
 10
339.51289039
 20
316.1544996357
  0
SPLINE
  5
468
330
1F
100
AcDbEntity
  8
0
  6
Continuous
 62
     7
370
    35
100
AcDbSpline
210
0.0
220
0.0
230
1.0
 70
    24
 71
     3
 72
     8
 73
     4
 74
     0
 42
0.00000001
 43
0.00000001
 40
0.0
 40
0.0
 40
0.0
 40
0.0
 40
1.0
 40
1.0
 40
1.0
 40
1.0
 10
354.1783700085891
 20
315.8982420558996
 30
0.0
 10
354.1783700085891
 20
315.8910163522443
 30
0.0
 10
354.1783700085891
 20
315.7630908305981
 30
0.0
 10
354.1783700085891
 20
315.5236187856504
 30
0.0
  0
LINE
  5
469
330
1F
100
AcDbEntity
  8
0
  6
Continuous
 62
     7
370
    35
100
AcDbLine
 10
354.1783700086
 20
228.1328158148
 30
0.0
 11
301.2115683984
 21
227.2082768536
 31
0.0
  0
LINE
  5
46A
330
1F
100
AcDbEntity
  8
0
  6
Continuous
 62
     7
370
    35
100
AcDbLine
 10
301.2115683984
 20
316.8231064651
 30
0.0
 11
354.1783700086
 21
315.898567504
 31
0.0
  0
LINE
  5
46B
330
1F
100
AcDbEntity
  8
0
  6
HIDDEN
 62
     7
370
    18
100
AcDbLine
 10
385.6783700086
 20
271.5156916594
 30
0.0
 11
385.6783700086
 21
264.0156916594
 31
0.0
  0
LINE
  5
46C
330
1F
100
AcDbEntity
  8
0
  6
HIDDEN
 62
     7
370
    18
100
AcDbLine
 10
385.6783700086
 20
272.5156916594
 30
0.0
 11
385.6783700086
 21
280.0156916594
 31
0.0
  0
LINE
  5
46D
330
1F
100
AcDbEntity
  8
0
  6
HIDDEN
 62
     7
370
    18
100
AcDbLine
 10
381.9414551966
 20
272.5156916594
 30
0.0
 11
385.6783700086
 21
272.5156916594
 31
0.0
  0
LINE
  5
46E
330
1F
100
AcDbEntity
  8
0
  6
HIDDEN
 62
     7
370
    18
100
AcDbLine
 10
381.9414551966
 20
271.5156916594
 30
0.0
 11
381.9414551966
 21
272.5156916594
 31
0.0
  0
LINE
  5
46F
330
1F
100
AcDbEntity
  8
0
  6
HIDDEN
 62
     7
370
    18
100
AcDbLine
 10
381.9414551966
 20
271.5156916594
 30
0.0
 11
385.6783700086
 21
271.5156916594
 31
0.0
  0
LINE
  5
470
330
1F
100
AcDbEntity
  8
0
  6
HIDDEN
 62
     7
370
    18
100
AcDbLine
 10
351.9783700086
 20
264.0156916594
 30
0.0
 11
351.9783700086
 21
280.0156916594
 31
0.0
  0
LINE
  5
471
330
1F
100
AcDbEntity
  8
0
  6
HIDDEN
 62
     7
370
    18
100
AcDbLine
 10
375.1783700086
 20
272.5156916594
 30
0.0
 11
375.1783700086
 21
280.0143632813
 31
0.0
  0
LINE
  5
472
330
1F
100
AcDbEntity
  8
0
  6
HIDDEN
 62
     7
370
    18
100
AcDbLine
 10
375.1783700086
 20
272.5156916594
 30
0.0
 11
374.0924861832
 21
272.5156916594
 31
0.0
  0
LINE
  5
473
330
1F
100
AcDbEntity
  8
0
  6
HIDDEN
 62
     7
370
    18
100
AcDbLine
 10
375.1783700086
 20
271.5156916594
 30
0.0
 11
374.0924861832
 21
271.5156916594
 31
0.0
  0
LINE
  5
474
330
1F
100
AcDbEntity
  8
0
  6
HIDDEN
 62
     7
370
    18
100
AcDbLine
 10
385.6783700086
 20
272.5156916594
 30
0.0
 11
376.1783700086
 21
272.5156916594
 31
0.0
  0
LINE
  5
475
330
1F
100
AcDbEntity
  8
0
  6
HIDDEN
 62
     7
370
    18
100
AcDbLine
 10
376.1783700086
 20
271.5156916594
 30
0.0
 11
376.1783700086
 21
264.0170200374
 31
0.0
  0
LINE
  5
476
330
1F
100
AcDbEntity
  8
0
  6
HIDDEN
 62
     7
370
    18
100
AcDbLine
 10
375.1783700086
 20
271.5156916594
 30
0.0
 11
375.1783700086
 21
264.0170200374
 31
0.0
  0
LINE
  5
477
330
1F
100
AcDbEntity
  8
0
  6
HIDDEN
 62
     7
370
    18
100
AcDbLine
 10
385.6783700086
 20
271.5156916594
 30
0.0
 11
376.1783700086
 21
271.5156916594
 31
0.0
  0
LINE
  5
478
330
1F
100
AcDbEntity
  8
0
  6
HIDDEN
 62
     7
370
    18
100
AcDbLine
 10
376.1783700086
 20
272.5156916594
 30
0.0
 11
376.1783700086
 21
280.0143632813
 31
0.0
  0
LINE
  5
479
330
1F
100
AcDbEntity
  8
0
  6
HIDDEN
 62
     7
370
    18
100
AcDbLine
 10
351.9783700086
 20
265.783167927
 30
0.0
 11
351.9783700086
 21
278.2482153918
 31
0.0
  0
LINE
  5
47A
330
1F
100
AcDbEntity
  8
0
  6
HIDDEN
 62
     7
370
    18
100
AcDbLine
 10
290.6783700086
 20
233.3784303453
 30
0.0
 11
290.6783700086
 21
239.9422748548
 31
0.0
  0
LINE
  5
47B
330
1F
100
AcDbEntity
  8
0
  6
HIDDEN
 62
     7
370
    18
100
AcDbLine
 10
290.1783700086
 20
232.8603526
 30
0.0
 11
290.1783700086
 21
240.4603526
 31
0.0
  0
LINE
  5
47C
330
1F
100
AcDbEntity
  8
0
  6
HIDDEN
 62
     7
370
    18
100
AcDbLine
 10
301.6783700086
 20
233.3603526
 30
0.0
 11
301.6783700086
 21
239.9603526
 31
0.0
  0
LINE
  5
47D
330
1F
100
AcDbEntity
  8
0
  6
HIDDEN
 62
     7
370
    18
100
AcDbLine
 10
302.1783700086
 20
232.8603526
 30
0.0
 11
302.1783700086
 21
240.4603526
 31
0.0
  0
LINE
  5
47E
330
1F
100
AcDbEntity
  8
0
  6
HIDDEN
 62
     7
370
    18
100
AcDbLine
 10
290.6783700086
 20
304.089108464
 30
0.0
 11
290.6783700086
 21
310.6529529734
 31
0.0
  0
LINE
  5
47F
330
1F
100
AcDbEntity
  8
0
  6
HIDDEN
 62
     7
370
    18
100
AcDbLine
 10
290.1783700086
 20
303.5710307187
 30
0.0
 11
290.1783700086
 21
311.1710307187
 31
0.0
  0
LINE
  5
480
330
1F
100
AcDbEntity
  8
0
  6
HIDDEN
 62
     7
370
    18
100
AcDbLine
 10
301.6783700086
 20
304.0710307187
 30
0.0
 11
301.6783700086
 21
310.6710307187
 31
0.0
  0
LINE
  5
481
330
1F
100
AcDbEntity
  8
0
  6
HIDDEN
 62
     7
370
    18
100
AcDbLine
 10
302.1783700086
 20
303.5710307187
 30
0.0
 11
302.1783700086
 21
311.1710307187
 31
0.0
  0
LINE
  5
482
330
1F
100
AcDbEntity
  8
0
  6
HIDDEN
 62
     7
370
    18
100
AcDbLine
 10
301.6783700086
 20
233.3784303453
 30
0.0
 11
301.6783700086
 21
239.9422748548
 31
0.0
  0
LINE
  5
483
330
1F
100
AcDbEntity
  8
0
  6
HIDDEN
 62
     7
370
    18
100
AcDbLine
 10
302.1783700086
 20
232.8603526
 30
0.0
 11
302.1783700086
 21
240.4603526
 31
0.0
  0
LINE
  5
484
330
1F
100
AcDbEntity
  8
0
  6
HIDDEN
 62
     7
370
    18
100
AcDbLine
 10
290.6783700086
 20
233.3784303453
 30
0.0
 11
290.6783700086
 21
239.9422748548
 31
0.0
  0
LINE
  5
485
330
1F
100
AcDbEntity
  8
0
  6
HIDDEN
 62
     7
370
    18
100
AcDbLine
 10
290.1783700086
 20
232.8603526
 30
0.0
 11
290.1783700086
 21
240.4603526
 31
0.0
  0
LINE
  5
486
330
1F
100
AcDbEntity
  8
0
  6
HIDDEN
 62
     7
370
    18
100
AcDbLine
 10
290.6783700086
 20
304.089108464
 30
0.0
 11
290.6783700086
 21
310.6529529734
 31
0.0
  0
LINE
  5
487
330
1F
100
AcDbEntity
  8
0
  6
HIDDEN
 62
     7
370
    18
100
AcDbLine
 10
290.1783700086
 20
303.5710307187
 30
0.0
 11
290.1783700086
 21
311.1710307187
 31
0.0
  0
LINE
  5
488
330
1F
100
AcDbEntity
  8
0
  6
HIDDEN
 62
     7
370
    18
100
AcDbLine
 10
301.6783700086
 20
304.089108464
 30
0.0
 11
301.6783700086
 21
310.6529529734
 31
0.0
  0
LINE
  5
489
330
1F
100
AcDbEntity
  8
0
  6
HIDDEN
 62
     7
370
    18
100
AcDbLine
 10
302.1783700086
 20
303.5710307187
 30
0.0
 11
302.1783700086
 21
311.1710307187
 31
0.0
  0
LINE
  5
48A
330
1F
100
AcDbEntity
  8
0
  6
HIDDEN
 62
     7
370
    18
100
AcDbLine
 10
375.1783700086
 20
280.0156916594
 30
0.0
 11
351.9783700086
 21
280.0156916594
 31
0.0
  0
LINE
  5
48B
330
1F
100
AcDbEntity
  8
0
  6
HIDDEN
 62
     7
370
    18
100
AcDbLine
 10
385.6783700086
 20
280.0156916594
 30
0.0
 11
382.9566088377
 21
280.0156916594
 31
0.0
  0
LINE
  5
48C
330
1F
100
AcDbEntity
  8
0
  6
HIDDEN
 62
     7
370
    18
100
AcDbLine
 10
379.4001311795
 20
280.0156916594
 30
0.0
 11
376.1783700086
 21
280.0156916594
 31
0.0
  0
LINE
  5
48D
330
1F
100
AcDbEntity
  8
0
  6
HIDDEN
 62
     7
370
    18
100
AcDbLine
 10
376.1783700086
 20
264.0156916594
 30
0.0
 11
385.6783700086
 21
264.0156916594
 31
0.0
  0
LINE
  5
48E
330
1F
100
AcDbEntity
  8
0
  6
HIDDEN
 62
     7
370
    18
100
AcDbLine
 10
351.9783700086
 20
264.0156916594
 30
0.0
 11
375.1783700086
 21
264.0156916594
 31
0.0
  0
LINE
  5
48F
330
1F
100
AcDbEntity
  8
0
  6
HIDDEN
 62
     7
370
    18
100
AcDbLine
 10
290.1783700086
 20
232.8603526
 30
0.0
 11
290.6783700086
 21
233.3603526
 31
0.0
  0
LINE
  5
490
330
1F
100
AcDbEntity
  8
0
  6
HIDDEN
 62
     7
370
    18
100
AcDbLine
 10
290.6783700086
 20
239.9603526
 30
0.0
 11
290.1783700086
 21
240.4603526
 31
0.0
  0
LINE
  5
491
330
1F
100
AcDbEntity
  8
0
  6
HIDDEN
 62
     7
370
    18
100
AcDbLine
 10
302.1783700086
 20
240.4603526
 30
0.0
 11
301.6783700086
 21
239.9603526
 31
0.0
  0
LINE
  5
492
330
1F
100
AcDbEntity
  8
0
  6
HIDDEN
 62
     7
370
    18
100
AcDbLine
 10
301.6783700086
 20
233.3603526
 30
0.0
 11
302.1783700086
 21
232.8603526
 31
0.0
  0
LINE
  5
493
330
1F
100
AcDbEntity
  8
0
  6
HIDDEN
 62
     7
370
    18
100
AcDbLine
 10
290.1783700086
 20
303.5710307187
 30
0.0
 11
290.6783700086
 21
304.0710307187
 31
0.0
  0
LINE
  5
494
330
1F
100
AcDbEntity
  8
0
  6
HIDDEN
 62
     7
370
    18
100
AcDbLine
 10
290.6783700086
 20
310.6710307187
 30
0.0
 11
290.1783700086
 21
311.1710307187
 31
0.0
  0
LINE
  5
495
330
1F
100
AcDbEntity
  8
0
  6
HIDDEN
 62
     7
370
    18
100
AcDbLine
 10
302.1783700086
 20
311.1710307187
 30
0.0
 11
301.6783700086
 21
310.6710307187
 31
0.0
  0
LINE
  5
496
330
1F
100
AcDbEntity
  8
0
  6
HIDDEN
 62
     7
370
    18
100
AcDbLine
 10
301.6783700086
 20
304.0710307187
 30
0.0
 11
302.1783700086
 21
303.5710307187
 31
0.0
  0
LINE
  5
497
330
1F
100
AcDbEntity
  8
0
  6
HIDDEN
 62
     7
370
    18
100
AcDbLine
 10
290.6783700086
 20
233.3603526
 30
0.0
 11
301.6783700086
 21
233.3603526
 31
0.0
  0
LINE
  5
498
330
1F
100
AcDbEntity
  8
0
  6
HIDDEN
 62
     7
370
    18
100
AcDbLine
 10
301.6783700086
 20
239.9603526
 30
0.0
 11
290.6783700086
 21
239.9603526
 31
0.0
  0
LINE
  5
499
330
1F
100
AcDbEntity
  8
0
  6
HIDDEN
 62
     7
370
    18
100
AcDbLine
 10
290.6783700086
 20
304.0710307187
 30
0.0
 11
301.6783700086
 21
304.0710307187
 31
0.0
  0
LINE
  5
49A
330
1F
100
AcDbEntity
  8
0
  6
HIDDEN
 62
     7
370
    18
100
AcDbLine
 10
301.6783700086
 20
310.6710307187
 30
0.0
 11
290.6783700086
 21
310.6710307187
 31
0.0
  0
LINE
  5
49B
330
1F
100
AcDbEntity
  8
0
  6
HIDDEN
 62
     7
370
    18
100
AcDbLine
 10
302.1783700086
 20
240.4603526
 30
0.0
 11
301.6783700086
 21
239.9603526
 31
0.0
  0
LINE
  5
49C
330
1F
100
AcDbEntity
  8
0
  6
HIDDEN
 62
     7
370
    18
100
AcDbLine
 10
301.6783700086
 20
233.3603526
 30
0.0
 11
302.1783700086
 21
232.8603526
 31
0.0
  0
LINE
  5
49D
330
1F
100
AcDbEntity
  8
0
  6
HIDDEN
 62
     7
370
    18
100
AcDbLine
 10
290.1783700086
 20
232.8603526
 30
0.0
 11
290.6783700086
 21
233.3603526
 31
0.0
  0
LINE
  5
49E
330
1F
100
AcDbEntity
  8
0
  6
HIDDEN
 62
     7
370
    18
100
AcDbLine
 10
290.6783700086
 20
239.9603526
 30
0.0
 11
290.1783700086
 21
240.4603526
 31
0.0
  0
LINE
  5
49F
330
1F
100
AcDbEntity
  8
0
  6
HIDDEN
 62
     7
370
    18
100
AcDbLine
 10
290.1783700086
 20
303.5710307187
 30
0.0
 11
290.6783700086
 21
304.0710307187
 31
0.0
  0
LINE
  5
4A0
330
1F
100
AcDbEntity
  8
0
  6
HIDDEN
 62
     7
370
    18
100
AcDbLine
 10
290.6783700086
 20
310.6710307187
 30
0.0
 11
290.1783700086
 21
311.1710307187
 31
0.0
  0
LINE
  5
4A1
330
1F
100
AcDbEntity
  8
0
  6
HIDDEN
 62
     7
370
    18
100
AcDbLine
 10
302.1783700086
 20
311.1710307187
 30
0.0
 11
301.6783700086
 21
310.6710307187
 31
0.0
  0
LINE
  5
4A2
330
1F
100
AcDbEntity
  8
0
  6
HIDDEN
 62
     7
370
    18
100
AcDbLine
 10
301.6783700086
 20
304.0710307187
 30
0.0
 11
302.1783700086
 21
303.5710307187
 31
0.0
  0
LINE
  5
4A3
330
1F
100
AcDbEntity
  8
0
  6
HIDDEN
 62
     7
370
    18
100
AcDbLine
 10
290.6783700086
 20
233.3603526
 30
0.0
 11
301.6783700086
 21
233.3603526
 31
0.0
  0
LINE
  5
4A4
330
1F
100
AcDbEntity
  8
0
  6
HIDDEN
 62
     7
370
    18
100
AcDbLine
 10
301.6783700086
 20
239.9603526
 30
0.0
 11
290.6783700086
 21
239.9603526
 31
0.0
  0
LINE
  5
4A5
330
1F
100
AcDbEntity
  8
0
  6
HIDDEN
 62
     7
370
    18
100
AcDbLine
 10
290.6783700086
 20
304.0710307187
 30
0.0
 11
301.6783700086
 21
304.0710307187
 31
0.0
  0
LINE
  5
4A6
330
1F
100
AcDbEntity
  8
0
  6
HIDDEN
 62
     7
370
    18
100
AcDbLine
 10
301.6783700086
 20
310.6710307187
 30
0.0
 11
290.6783700086
 21
310.6710307187
 31
0.0
  0
LINE
  5
4A7
330
1F
100
AcDbEntity
  8
0
  6
Continuous
 62
     1
370
    35
100
AcDbLine
 10
361.9783700086
 20
314.5156916594
 30
0.0
 11
367.5863521298
 21
314.5156916594
 31
0.0
  0
HATCH
  5
4A8
330
1F
100
AcDbEntity
  8
0
  6
Continuous
 62
     7
370
    18
100
AcDbHatch
 10
0.0
 20
0.0
 30
0.0
210
0.0
220
0.0
230
1.0
  2
ANSI31
 70
     0
 71
     0
 91
        1
 92
        0
 93
        5
 72
     1
 10
397.9783700085891
 20
314.5156916593758
 11
387.9783700085891
 21
314.5156916593758
 72
     1
 10
387.9783700085891
 20
314.5156916593758
 11
387.9783700085891
 21
302.0156916593758
 72
     1
 10
387.9783700085891
 20
302.0156916593758
 11
397.4783700085891
 21
302.0156916593758
 72
     1
 10
397.4783700085891
 20
302.0156916593758
 11
397.9783700085891
 21
302.5156916593758
 72
     1
 10
397.9783700085891
 20
302.5156916593758
 11
397.9783700085891
 21
314.5156916593758
 97
        0
 75
     0
 76
     1
 52
0.0
 41
1.0
 77
     0
 78
     1
 53
45.0
 43
0.0
 44
0.0
 45
-2.245064030267288
 46
2.245064030267288
 79
     0
 98
        1
 10
0.0
 20
0.0
  0
HATCH
  5
4A9
330
1F
100
AcDbEntity
  8
0
  6
Continuous
 62
     7
370
    18
100
AcDbHatch
 10
0.0
 20
0.0
 30
0.0
210
0.0
220
0.0
230
1.0
  2
ANSI31
 70
     0
 71
     0
 91
        5
 92
        0
 93
        7
 72
     4
 94
        3
 73
     1
 74
     0
 95
       14
 96
       10
 40
0.0127084896799055
 40
0.0127084896799055
 40
0.0127084896799055
 40
0.0127084896799055
 40
0.0215561812090974
 40
0.0215561812090974
 40
0.0215561812090974
 40
0.0316632449381996
 40
0.0316632449381996
 40
0.0316632449381996
 40
0.0362875107313001
 40
0.0362875107313001
 40
0.0362875107313001
 40
0.0362875107313001
 10
367.5863521297936
 20
314.5156916593758
 42
1.0
 10
367.2407907490604
 20
312.6367778768019
 42
1.0
 10
366.931776126508
 20
310.5817570860291
 42
1.0
 10
366.6781330344572
 20
308.3892311449512
 42
1.0
 10
366.3862885649373
 20
305.8664872176122
 42
1.0
 10
366.1657663065075
 20
303.1445381331688
 42
1.0
 10
366.0333881550472
 20
300.2825292139595
 42
1.0
 10
365.9727598974058
 20
298.9717493593395
 42
1.0
 10
365.9302981683115
 20
297.6287330382332
 42
1.0
 10
365.9070090045317
 20
296.2594890928489
 42
1.0
 72
     3
 10
390.3484819009249
 20
272.6682949130608
 11
-9.190550930640141
 21
64.14629425059027
 40
0.3534187821293034
 50
37.86059387220483
 51
152.4193746200244
 73
     1
 72
     4
 94
        3
 73
     1
 74
     0
 95
        8
 96
        4
 40
0.0
 40
0.0
 40
0.0
 40
0.0
 40
0.0066663359385792
 40
0.0066663359385792
 40
0.0066663359385792
 40
0.0066663359385792
 10
376.7220236555678
 20
234.0321425887583
 42
1.0
 10
377.3512140164507
 20
232.4431096018575
 42
1.0
 10
377.9907193360192
 20
230.9336989473014
 42
1.0
 10
378.6307868286594
 20
229.5156916593758
 42
1.0
 72
     3
 10
390.3484819009249
 20
272.6682949130608
 11
-9.190550930640141
 21
64.14629425059027
 40
0.3534187821293034
 50
203.3453847723939
 51
216.405766601092
 73
     0
 72
     4
 94
        3
 73
     1
 74
     0
 95
       14
 96
       10
 40
0.0
 40
0.0
 40
0.0
 40
0.0
 40
0.0094196917208678
 40
0.0094196917208678
 40
0.0094196917208678
 40
0.0197552113146262
 40
0.0197552113146262
 40
0.0197552113146262
 40
0.0300749424811374
 40
0.0300749424811374
 40
0.0300749424811374
 40
0.0300749424811374
 10
373.8767195188231
 20
242.0156916593757
 42
1.0
 10
373.8767195188231
 20
242.0156916593757
 42
1.0
 10
373.7115240349501
 20
242.522839978349
 42
1.0
 10
373.412857390334
 20
243.4909487267414
 42
1.0
 10
373.0857665541579
 20
244.5511926666969
 42
1.0
 10
372.5916842314618
 20
246.1944285088052
 42
1.0
 10
372.0262858369648
 20
248.2669132852823
 42
1.0
 10
371.4613624939857
 20
250.3376567461693
 42
1.0
 10
370.8119733339096
 20
252.8943597049867
 42
1.0
 10
370.1783700085891
 20
255.7304008672816
 42
1.0
 72
     4
 94
        3
 73
     1
 74
     0
 95
       26
 96
       22
 40
0.0
 40
0.0
 40
0.0
 40
0.0
 40
0.0067400306393859
 40
0.0067400306393859
 40
0.0067400306393859
 40
0.0152089107355119
 40
0.0152089107355119
 40
0.0152089107355119
 40
0.0235941686045556
 40
0.0235941686045556
 40
0.0235941686045556
 40
0.0319928781634094
 40
0.0319928781634094
 40
0.0319928781634094
 40
0.0404272633980998
 40
0.0404272633980998
 40
0.0404272633980998
 40
0.0488665790875668
 40
0.0488665790875668
 40
0.0488665790875668
 40
0.0573057434976462
 40
0.0573057434976462
 40
0.0573057434976462
 40
0.0573057434976462
 10
370.1783700085891
 20
255.7304008672816
 42
1.0
 10
369.8028973184523
 20
257.4110359933787
 42
1.0
 10
369.4084973124361
 20
259.2986775560499
 42
1.0
 10
369.0288626276595
 20
261.299289417259
 42
1.0
 10
368.5542644491916
 20
263.8003431492431
 42
1.0
 10
368.0923936385813
 20
266.5405336634311
 42
1.0
 10
367.6945897541226
 20
269.3044919669333
 42
1.0
 10
367.3007354103727
 20
272.0410086936603
 42
1.0
 10
366.959463950949
 20
274.874052754353
 42
1.0
 10
366.6962923343563
 20
277.5730914909495
 42
1.0
 10
366.4327615808627
 20
280.2758134682376
 42
1.0
 10
366.240143377115
 20
282.9174339478469
 42
1.0
 10
366.1150575068702
 20
285.2756729374926
 42
1.0
 10
365.9894520614457
 20
287.6437074575555
 42
1.0
 10
365.9273763902265
 20
289.7914246082672
 42
1.0
 10
365.9020727846249
 20
291.5380084202667
 42
1.0
 10
365.8767527137423
 20
293.285728749877
 42
1.0
 10
365.8858119167732
 20
294.6804907839567
 42
1.0
 10
365.8973811543778
 20
295.6065734862603
 42
1.0
 10
365.9089503096303
 20
296.532649596519
 42
1.0
 10
365.9218715263649
 20
297.0156916593758
 42
1.0
 10
365.9218715263649
 20
297.0156916593758
 42
1.0
 72
     3
 10
390.3484819009249
 20
272.6682949130608
 11
-9.190550930640141
 21
64.14629425059027
 40
0.3534187821293034
 50
323.060501678378
 51
339.6103800703098
 73
     0
 97
        0
 92
        0
 93
        1
 72
     4
 94
        3
 73
     1
 74
     0
 95
       62
 96
       58
 40
0.0
 40
0.0
 40
0.0
 40
0.0
 40
0.0004757546444992
 40
0.0004757546444992
 40
0.0004757546444992
 40
0.0012396188824205
 40
0.0012396188824205
 40
0.0012396188824205
 40
0.0020004742786234
 40
0.0020004742786234
 40
0.0020004742786234
 40
0.0027597358974412
 40
0.0027597358974412
 40
0.0027597358974412
 40
0.003519002418077
 40
0.003519002418077
 40
0.003519002418077
 40
0.0042798802353746
 40
0.0042798802353746
 40
0.0042798802353746
 40
0.0050438005854365
 40
0.0050438005854365
 40
0.0050438005854365
 40
0.0058115373174056
 40
0.0058115373174056
 40
0.0058115373174056
 40
0.0065824314731154
 40
0.0065824314731154
 40
0.0065824314731154
 40
0.0073539205843455
 40
0.0073539205843455
 40
0.0073539205843455
 40
0.0081223030543662
 40
0.0081223030543662
 40
0.0081223030543662
 40
0.0088848813624781
 40
0.0088848813624781
 40
0.0088848813624781
 40
0.0096420896347806
 40
0.0096420896347806
 40
0.0096420896347806
 40
0.0103977136636915
 40
0.0103977136636915
 40
0.0103977136636915
 40
0.0111566385356605
 40
0.0111566385356605
 40
0.0111566385356605
 40
0.0119216249279438
 40
0.0119216249279438
 40
0.0119216249279438
 40
0.0126917004648307
 40
0.0126917004648307
 40
0.0126917004648307
 40
0.0134630733731005
 40
0.0134630733731005
 40
0.0134630733731005
 40
0.0142343771166825
 40
0.0142343771166825
 40
0.0142343771166825
 40
0.0142343771166825
 10
366.6130872577158
 20
307.8130661234566
 42
1.0
 10
366.5957283296037
 20
307.6554341715716
 42
1.0
 10
366.578634318169
 20
307.4969059502274
 42
1.0
 10
366.5623341232877
 20
307.3426472305027
 42
1.0
 10
366.5363875499968
 20
307.0970989283964
 42
1.0
 10
366.511909195589
 20
306.857031326232
 42
1.0
 10
366.4906077939637
 20
306.6422357433728
 42
1.0
 10
366.4693899130499
 20
306.4282823529775
 42
1.0
 10
366.4507281586266
 20
306.2335758173054
 42
1.0
 10
366.4357516785807
 20
306.0742780936529
 42
1.0
 10
366.4208068100373
 20
305.915316606579
 42
1.0
 10
366.4091049385283
 20
305.7872766952258
 42
1.0
 10
366.4012687133053
 20
305.7008598247709
 42
1.0
 10
366.3934327600167
 20
305.6144459531732
 42
1.0
 10
366.3892353663702
 20
305.5672860798218
 42
1.0
 10
366.3888826920176
 20
305.5633438648428
 42
1.0
 10
366.3885292910466
 20
305.5593935276805
 42
1.0
 10
366.3920265065902
 20
305.5987353999819
 42
1.0
 10
366.3992025284762
 20
305.6780487366191
 42
1.0
 10
366.4064067034962
 20
305.7576732371616
 42
1.0
 10
366.4175301832739
 20
305.8797948173307
 42
1.0
 10
366.4319796754501
 20
306.0340798611725
 42
1.0
 10
366.4465003703496
 20
306.1891251750042
 42
1.0
 10
366.4648035300581
 20
306.3809667126878
 42
1.0
 10
366.4857744836583
 20
306.5933882170123
 42
1.0
 10
366.5068312095283
 20
306.8066785361239
 42
1.0
 10
366.5311831798571
 20
307.0466549190733
 42
1.0
 10
366.5571168777058
 20
307.2931645007787
 42
1.0
 10
366.5830720902216
 20
307.5398785875119
 42
1.0
 10
366.6113421913449
 20
307.7999795698387
 42
1.0
 10
366.6396585054738
 20
308.051872343118
 42
1.0
 10
366.6678645181386
 20
308.3027839102422
 42
1.0
 10
366.6968894576526
 20
308.5524555687762
 42
1.0
 10
366.7241331334029
 20
308.7803780665166
 42
1.0
 10
366.7511748139208
 20
309.0066106580074
 42
1.0
 10
366.7771828123816
 20
309.217579257792
 42
1.0
 10
366.7996076892378
 20
309.3959782636442
 42
1.0
 10
366.8218759224185
 20
309.5731311054195
 42
1.0
 10
366.8411915383258
 20
309.7229582330389
 42
1.0
 10
366.8555183193348
 20
309.8330175171467
 42
1.0
 10
366.8698140369597
 20
309.9428381702723
 42
1.0
 10
366.8795098588165
 20
310.0160274625509
 42
1.0
 10
366.8835281099864
 20
310.0463800590352
 42
1.0
 10
366.8875632348118
 20
310.076860113768
 42
1.0
 10
366.8859749960071
 20
310.0649609477883
 42
1.0
 10
366.8789443028426
 20
310.0117081682943
 42
1.0
 10
366.8718585101345
 20
309.9580380467577
 42
1.0
 10
366.8590575781004
 20
309.8608678397064
 42
1.0
 10
366.8419797880572
 20
309.7285817071654
 42
1.0
 10
366.8247890501772
 20
309.5954206702918
 42
1.0
 10
366.8028073257761
 20
309.4229642282633
 42
1.0
 10
366.7783724852424
 20
309.2258786447285
 42
1.0
 10
366.7538945018024
 20
309.0284450808246
 42
1.0
 10
366.7262959381207
 20
308.8008062468695
 42
1.0
 10
366.6982585232422
 20
308.5619379816735
 42
1.0
 10
366.6702223398329
 20
308.3230802081334
 42
1.0
 10
366.6409830871326
 20
308.0663809601797
 42
1.0
 10
366.6130872577158
 20
307.8130661234566
 42
1.0
 97
        0
 92
        0
 93
        1
 72
     4
 94
        3
 73
     1
 74
     0
 95
       62
 96
       58
 40
0.0
 40
0.0
 40
0.0
 40
0.0
 40
0.0004986860142279
 40
0.0004986860142279
 40
0.0004986860142279
 40
0.0012764156396066
 40
0.0012764156396066
 40
0.0012764156396066
 40
0.0020328298799637
 40
0.0020328298799637
 40
0.0020328298799637
 40
0.0027747362356041
 40
0.0027747362356041
 40
0.0027747362356041
 40
0.003515831950397
 40
0.003515831950397
 40
0.003515831950397
 40
0.0042708729443774
 40
0.0042708729443774
 40
0.0042708729443774
 40
0.0050482083934464
 40
0.0050482083934464
 40
0.0050482083934464
 40
0.005844802945264
 40
0.005844802945264
 40
0.005844802945264
 40
0.0066482855679818
 40
0.0066482855679818
 40
0.0066482855679818
 40
0.0074444787827592
 40
0.0074444787827592
 40
0.0074444787827592
 40
0.0082241676648048
 40
0.0082241676648048
 40
0.0082241676648048
 40
0.0089856426939547
 40
0.0089856426939547
 40
0.0089856426939547
 40
0.0097338713561023
 40
0.0097338713561023
 40
0.0097338713561023
 40
0.010478211466648
 40
0.010478211466648
 40
0.010478211466648
 40
0.0112295670616578
 40
0.0112295670616578
 40
0.0112295670616578
 40
0.011996946442746
 40
0.011996946442746
 40
0.011996946442746
 40
0.0127835585576579
 40
0.0127835585576579
 40
0.0127835585576579
 40
0.0135811239917167
 40
0.0135811239917167
 40
0.0135811239917167
 40
0.0143780092768952
 40
0.0143780092768952
 40
0.0143780092768952
 40
0.0143780092768952
 10
370.535150613712
 20
254.1677791349833
 42
1.0
 10
370.5729126944016
 20
254.0058964723523
 42
1.0
 10
370.6111250586362
 20
253.8431819128897
 42
1.0
 10
370.6485160756831
 20
253.6849857899007
 42
1.0
 10
370.7063649066301
 20
253.4402355397592
 42
1.0
 10
370.7634951640342
 20
253.201084594192
 42
1.0
 10
370.8151454703921
 20
252.9866514266795
 42
1.0
 10
370.8653969041594
 20
252.7780258661634
 42
1.0
 10
370.911752963794
 20
252.5873905471305
 42
1.0
 10
370.9501615499312
 20
252.4302989704704
 42
1.0
 10
370.9878342249796
 20
252.2762172789648
 42
1.0
 10
371.0188145997689
 20
252.1504569625617
 42
1.0
 10
371.0402075364154
 20
252.0638131340243
 42
1.0
 10
371.0615698460404
 20
251.9772933484107
 42
1.0
 10
371.0739130871543
 20
251.9275489227429
 42
1.0
 10
371.0760040888313
 20
251.9191127589684
 42
1.0
 10
371.0781332116227
 20
251.9105227952381
 42
1.0
 10
371.0696766663314
 20
251.9445775865015
 42
1.0
 10
371.0515155307754
 20
252.0180424431071
 42
1.0
 10
371.0328276612628
 20
252.0936380274129
 42
1.0
 10
371.0033370821801
 20
252.2131327532721
 42
1.0
 10
370.9660983128371
 20
252.3651742699446
 42
1.0
 10
370.9279427965129
 20
252.5209587567508
 42
1.0
 10
370.8805668804287
 20
252.7154119111615
 42
1.0
 10
370.8285959982941
 20
252.9308517425455
 42
1.0
 10
370.7761634279519
 20
253.1482054538851
 42
1.0
 10
370.7175689010245
 20
253.3931305365667
 42
1.0
 10
370.6580401541977
 20
253.6447128024308
 42
1.0
 10
370.5990258889186
 20
253.8941207501639
 42
1.0
 10
370.5374634417742
 20
254.1569795604806
 42
1.0
 10
370.478397662047
 20
254.411887659094
 42
1.0
 10
370.4205320155759
 20
254.6616163850183
 42
1.0
 10
370.3635116035946
 20
254.9103919149695
 42
1.0
 10
370.3117632573017
 20
255.1382363351619
 42
1.0
 10
370.2612102974857
 20
255.3608175506672
 42
1.0
 10
370.214359488804
 20
255.5692342672696
 42
1.0
 10
370.1747857721011
 20
255.7464476908594
 42
1.0
 10
370.1358986396336
 20
255.9205865499891
 42
1.0
 10
370.1030177746647
 20
256.0691122730739
 42
1.0
 10
370.0786810369851
 20
256.1794243285353
 42
1.0
 10
370.0544753031244
 20
256.2891425780096
 42
1.0
 10
370.0380787128558
 20
256.3639268180885
 42
1.0
 10
370.0307920070878
 20
256.3971587483938
 42
1.0
 10
370.0234393949843
 20
256.4306912527605
 42
1.0
 10
370.0251665286322
 20
256.4227903716035
 42
1.0
 10
370.0358321681834
 20
256.374179915559
 42
1.0
 10
370.0467204167955
 20
256.3245548810713
 42
1.0
 10
370.0672412228557
 20
256.2310827848696
 42
1.0
 10
370.0956798299379
 20
256.1024565798886
 42
1.0
 10
370.1248217362718
 20
255.9706493923281
 42
1.0
 10
370.1631292500893
 20
255.7981387659806
 42
1.0
 10
370.2073858543924
 20
255.6007593184044
 42
1.0
 10
370.2522622853585
 20
255.4006155140445
 42
1.0
 10
370.3045526129562
 20
255.1691818962167
 42
1.0
 10
370.359945653604
 20
254.9267127848443
 42
1.0
 10
370.4153120101589
 20
254.6843604763812
 42
1.0
 10
370.4753310449713
 20
254.4242202761588
 42
1.0
 10
370.535150613712
 20
254.1677791349833
 42
1.0
 97
        0
 92
        0
 93
        1
 72
     4
 94
        3
 73
     1
 74
     0
 95
       62
 96
       58
 40
0.0
 40
0.0
 40
0.0
 40
0.0
 40
0.00052456084013
 40
0.00052456084013
 40
0.00052456084013
 40
0.0013280129786414
 40
0.0013280129786414
 40
0.0013280129786414
 40
0.0020801323316995
 40
0.0020801323316995
 40
0.0020801323316995
 40
0.0027962356132373
 40
0.0027962356132373
 40
0.0027962356132373
 40
0.0035065116826668
 40
0.0035065116826668
 40
0.0035065116826668
 40
0.0042473494874632
 40
0.0042473494874632
 40
0.0042473494874632
 40
0.005044553410163
 40
0.005044553410163
 40
0.005044553410163
 40
0.005893829875847
 40
0.005893829875847
 40
0.005893829875847
 40
0.006762182449822
 40
0.006762182449822
 40
0.006762182449822
 40
0.0076118472663133
 40
0.0076118472663133
 40
0.0076118472663133
 40
0.0084201782114714
 40
0.0084201782114714
 40
0.0084201782114714
 40
0.0091838423486617
 40
0.0091838423486617
 40
0.0091838423486617
 40
0.0099144971178217
 40
0.0099144971178217
 40
0.0099144971178217
 40
0.0106334805635306
 40
0.0106334805635306
 40
0.0106334805635306
 40
0.0113671675346028
 40
0.0113671675346028
 40
0.0113671675346028
 40
0.0121401896643723
 40
0.0121401896643723
 40
0.0121401896643723
 40
0.0129636555858786
 40
0.0129636555858786
 40
0.0129636555858786
 40
0.0138183221678885
 40
0.0138183221678885
 40
0.0138183221678885
 40
0.0146711247319719
 40
0.0146711247319719
 40
0.0146711247319719
 40
0.0146711247319719
 10
375.8818473433589
 20
236.2183171952947
 42
1.0
 10
375.9429574618213
 20
236.0544900316973
 42
1.0
 10
376.0047488414236
 20
235.8899422282838
 42
1.0
 10
376.0652729633018
 20
235.7298107471871
 42
1.0
 10
376.1572982463668
 20
235.48633518045
 42
1.0
 10
376.2482839546814
 20
235.2481300912897
 42
1.0
 10
376.3310160112601
 20
235.0333487947931
 42
1.0
 10
376.4085194886847
 20
234.8321414508369
 42
1.0
 10
376.4806129848109
 20
234.6466979958523
 42
1.0
 10
376.5411764733492
 20
234.491787551367
 42
1.0
 10
376.5988468567584
 20
234.3442771462837
 42
1.0
 10
376.6473868840538
 20
234.2210258586773
 42
1.0
 10
376.6821672822685
 20
234.1329414276157
 42
1.0
 10
376.7166411797241
 20
234.0456332368029
 42
1.0
 10
376.7383892146942
 20
233.9908308186972
 42
1.0
 10
376.7450415848189
 20
233.9740571937462
 42
1.0
 10
376.7519702108281
 20
233.9565870031334
 42
1.0
 10
376.7426480220885
 20
233.9800401100008
 42
1.0
 10
376.7182070279386
 20
234.041782848289
 42
1.0
 10
376.691945515456
 20
234.1081245724566
 42
1.0
 10
376.6474430396597
 20
234.2206978686027
 42
1.0
 10
376.5902230122762
 20
234.3665517970359
 42
1.0
 10
376.5292946889406
 20
234.5218581769471
 42
1.0
 10
376.4520967787928
 20
234.7196964183634
 42
1.0
 10
376.3672749279671
 20
234.9393376726891
 42
1.0
 10
376.2804923718455
 20
235.1640560594557
 42
1.0
 10
376.1831214919802
 20
235.4184030186051
 42
1.0
 10
376.0842699205834
 20
235.6795837795197
 42
1.0
 10
375.9874423957195
 20
235.9354167042185
 42
1.0
 10
375.8864870954899
 20
236.2049648650731
 42
1.0
 10
375.7894743547923
 20
236.4667831626109
 42
1.0
 10
375.6970929128165
 20
236.7161024962188
 42
1.0
 10
375.6059126010289
 20
236.9647994699225
 42
1.0
 10
375.5227159863064
 20
237.1937331112163
 42
1.0
 10
375.4440687661832
 20
237.4101481004618
 42
1.0
 10
375.3706401881061
 20
237.6141412426309
 42
1.0
 10
375.3079527078957
 20
237.7893864715664
 42
1.0
 10
375.247965455146
 20
237.9570831122042
 42
1.0
 10
375.1963703182891
 20
238.1024513576903
 42
1.0
 10
375.1573043066626
 20
238.2128894760306
 42
1.0
 10
375.1188766199186
 20
238.3215230743807
 42
1.0
 10
375.0916285161363
 20
238.398987800305
 42
1.0
 10
375.0779442853382
 20
238.4379023600736
 42
1.0
 10
375.0639928978431
 20
238.4775766472544
 42
1.0
 10
375.0637971872828
 20
238.4781348753285
 42
1.0
 10
375.0773757804392
 20
238.4395190814218
 42
1.0
 10
375.0916649871658
 20
238.3988823927984
 42
1.0
 10
375.1216518520712
 20
238.3136196550815
 42
1.0
 10
375.1643344918838
 20
238.1930206127573
 42
1.0
 10
375.2097601785282
 20
238.0646711402251
 42
1.0
 10
375.2709749239136
 20
237.8923811735356
 42
1.0
 10
375.3419290258548
 20
237.6945235153683
 42
1.0
 10
375.4155830315018
 20
237.4891370941004
 42
1.0
 10
375.501988627939
 20
237.2499753987425
 42
1.0
 10
375.5933545002938
 20
236.9998570315944
 42
1.0
 10
375.6846082426018
 20
236.7500456257167
 42
1.0
 10
375.7834320070785
 20
236.482154114662
 42
1.0
 10
375.8818473433589
 20
236.2183171952947
 42
1.0
 97
        0
 92
        0
 93
        1
 72
     4
 94
        3
 73
     1
 74
     0
 95
       62
 96
       58
 40
0.0
 40
0.0
 40
0.0
 40
0.0
 40
0.0004741153196282
 40
0.0004741153196282
 40
0.0004741153196282
 40
0.0012366196351414
 40
0.0012366196351414
 40
0.0012366196351414
 40
0.001998632036485
 40
0.001998632036485
 40
0.001998632036485
 40
0.0027602197481374
 40
0.0027602197481374
 40
0.0027602197481374
 40
0.0035218134884416
 40
0.0035218134884416
 40
0.0035218134884416
 40
0.0042838395805284
 40
0.0042838395805284
 40
0.0042838395805284
 40
0.0050463550807576
 40
0.0050463550807576
 40
0.0050463550807576
 40
0.0058090551033785
 40
0.0058090551033785
 40
0.0058090551033785
 40
0.0065715982760213
 40
0.0065715982760213
 40
0.0065715982760213
 40
0.007333872693239
 40
0.007333872693239
 40
0.007333872693239
 40
0.0080959732026449
 40
0.0080959732026449
 40
0.0080959732026449
 40
0.0088580226820278
 40
0.0088580226820278
 40
0.0088580226820278
 40
0.0096200729535667
 40
0.0096200729535667
 40
0.0096200729535667
 40
0.0103821258048817
 40
0.0103821258048817
 40
0.0103821258048817
 40
0.0111441743932475
 40
0.0111441743932475
 40
0.0111441743932475
 40
0.0119062351048682
 40
0.0119062351048682
 40
0.0119062351048682
 40
0.0126683899609929
 40
0.0126683899609929
 40
0.0126683899609929
 40
0.0134307040656607
 40
0.0134307040656607
 40
0.0134307040656607
 40
0.0141930066946053
 40
0.0141930066946053
 40
0.0141930066946053
 40
0.0141930066946053
 10
365.9352479343849
 20
289.8636041837677
 42
1.0
 10
365.9392129092718
 20
289.705615489702
 42
1.0
 10
365.9434391013183
 20
289.5467645305391
 42
1.0
 10
365.9477703680297
 20
289.3922903041205
 42
1.0
 10
365.954675763453
 20
289.1460100154163
 42
1.0
 10
365.9620140005196
 20
288.9054540709837
 42
1.0
 10
365.9689746621104
 20
288.6905281259355
 42
1.0
 10
365.9759309293887
 20
288.4757378650818
 42
1.0
 10
365.9826894100289
 20
288.280625971161
 42
1.0
 10
365.9884055669935
 20
288.1213339805907
 42
1.0
 10
365.994118559173
 20
287.9621301830052
 42
1.0
 10
365.9989344189501
 20
287.8343230478432
 42
1.0
 10
366.0022096906964
 20
287.7485007710422
 42
1.0
 10
366.0054849520362
 20
287.6626787669257
 42
1.0
 10
366.0073011845258
 20
287.6164791363958
 42
1.0
 10
366.0074080589493
 20
287.6137376852539
 42
1.0
 10
366.0075149922896
 20
287.6109947228259
 42
1.0
 10
366.0059132679598
 20
287.6516836369887
 42
1.0
 10
366.0028240908578
 20
287.7324222354106
 42
1.0
 10
365.9997329534505
 20
287.8132120682886
 42
1.0
 10
365.9950753398864
 20
287.9363320787762
 42
1.0
 10
365.9894768231763
 20
288.0915569777814
 42
1.0
 10
365.9838769209797
 20
288.2468202908933
 42
1.0
 10
365.9771943099959
 20
288.4384893068948
 42
1.0
 10
365.9702701535944
 20
288.6506781279728
 42
1.0
 10
365.9633473468157
 20
288.8628255902374
 42
1.0
 10
365.9560047471583
 20
289.1013368836266
 42
1.0
 10
365.9490615458619
 20
289.3464734746583
 42
1.0
 10
365.9421207480967
 20
289.591525206647
 42
1.0
 10
365.9353943508159
 20
289.8499532095698
 42
1.0
 10
365.9294815468315
 20
290.1003736677429
 42
1.0
 10
365.9235700931528
 20
290.3507369374555
 42
1.0
 10
365.9183065220212
 20
290.5999965896591
 42
1.0
 10
365.9139790994876
 20
290.8275137878256
 42
1.0
 10
365.9096519775968
 20
291.0550151794977
 42
1.0
 10
365.9061309119994
 20
291.2670485010532
 42
1.0
 10
365.903432161141
 20
291.4460482460304
 42
1.0
 10
365.900733411136
 20
291.6250479344039
 42
1.0
 10
365.8987681738262
 20
291.7759501014071
 42
1.0
 10
365.8974171619421
 20
291.8862528981995
 42
1.0
 10
365.896066145611
 20
291.996556058066
 42
1.0
 10
365.8952805040187
 20
292.0693019402254
 42
1.0
 10
365.8949632785021
 20
292.0984646294918
 42
1.0
 10
365.8946460546886
 20
292.1276271621918
 42
1.0
 10
365.8947850707522
 20
292.1140113884557
 42
1.0
 10
365.8954004405051
 20
292.0587450956481
 42
1.0
 10
365.8960158197046
 20
292.003477954436
 42
1.0
 10
365.8971308979565
 20
291.9050345006721
 42
1.0
 10
365.8988641970296
 20
291.7715698509691
 42
1.0
 10
365.9005977045772
 20
291.6380891486658
 42
1.0
 10
365.9030105655905
 20
291.4658963790491
 42
1.0
 10
365.9061975417874
 20
291.2692613751279
 42
1.0
 10
365.9093851719462
 20
291.0725860220531
 42
1.0
 10
365.9134490938124
 20
290.8460321605443
 42
1.0
 10
365.9182993269565
 20
290.608378267058
 42
1.0
 10
365.9231495153971
 20
290.3707265639679
 42
1.0
 10
365.9289282003613
 20
290.1154207913657
 42
1.0
 10
365.9352479343849
 20
289.8636041837677
 42
1.0
 97
        0
 75
     0
 76
     1
 52
0.0
 41
1.0
 77
     0
 78
     1
 53
45.0
 43
0.0
 44
0.0
 45
-2.245064030267288
 46
2.245064030267288
 79
     0
 98
        1
 10
0.0
 20
0.0
  0
HATCH
  5
4AA
330
1F
100
AcDbEntity
  8
0
  6
Continuous
 62
     7
370
    18
100
AcDbHatch
 10
0.0
 20
0.0
 30
0.0
210
0.0
220
0.0
230
1.0
  2
ANSI31
 70
     0
 71
     0
 91
        1
 92
        0
 93
        6
 72
     1
 10
371.9783700085891
 20
314.5156916593758
 11
367.5863521297936
 21
314.5156916593758
 72
     3
 10
390.3484819009249
 20
272.6682949130608
 11
-9.190550930640141
 21
64.14629425059027
 40
0.3534187821293034
 50
20.3896199296911
 51
36.93949832162281
 73
     1
 72
     1
 10
365.921871526365
 20
297.0156916593758
 11
370.1783700085891
 21
297.0156916593758
 72
     1
 10
370.1783700085891
 20
297.0156916593758
 11
370.1783700085891
 21
302.0156916593758
 72
     1
 10
370.1783700085891
 20
302.0156916593758
 11
371.9783700085891
 21
302.0156916593758
 72
     1
 10
371.9783700085891
 20
302.0156916593758
 11
371.9783700085891
 21
314.5156916593758
 97
        0
 75
     0
 76
     1
 52
0.0
 41
1.0
 77
     0
 78
     1
 53
45.0
 43
0.0
 44
0.0
 45
-2.245064030267288
 46
2.245064030267288
 79
     0
 98
        1
 10
0.0
 20
0.0
  0
HATCH
  5
4AB
330
1F
100
AcDbEntity
  8
0
  6
Continuous
 62
     7
370
    18
100
AcDbHatch
 10
0.0
 20
0.0
 30
0.0
210
0.0
220
0.0
230
1.0
  2
ANSI31
 70
     0
 71
     0
 91
        1
 92
        0
 93
        5
 72
     1
 10
378.6307868286594
 20
229.5156916593758
 11
397.9783700085891
 21
229.5156916593758
 72
     1
 10
397.9783700085891
 20
229.5156916593758
 11
397.9783700085891
 21
241.5156916593758
 72
     1
 10
397.9783700085891
 20
241.5156916593758
 11
397.4783700085891
 21
242.0156916593758
 72
     1
 10
397.4783700085891
 20
242.0156916593758
 11
373.8767195188231
 21
242.0156916593758
 72
     3
 10
390.3484819009249
 20
272.6682949130608
 11
-9.190550930640141
 21
64.14629425059027
 40
0.3534187821293034
 50
143.5942333989088
 51
156.6546152276069
 73
     1
 97
        0
 75
     0
 76
     1
 52
0.0
 41
1.0
 77
     0
 78
     1
 53
45.0
 43
0.0
 44
0.0
 45
-2.245064030267288
 46
2.245064030267288
 79
     0
 98
        1
 10
0.0
 20
0.0
  0
POINT
  5
4AC
330
1F
100
AcDbEntity
  8
印刷しない
100
AcDbPoint
 10
392.9783700086
 20
242.0156916594
 30
0.0
  0
LINE
  5
4AD
330
1F
100
AcDbEntity
  8
0
  6
Continuous
 62
     7
370
    18
100
AcDbLine
 10
379.5573700086
 20
272.5156916594
 30
0.0
 11
379.5573700086
 21
271.5156916594
 31
0.0
  0
LINE
  5
4AE
330
1F
100
AcDbEntity
  8
0
  6
Continuous
 62
     7
370
    18
100
AcDbLine
 10
382.7993700086
 20
271.5156916594
 30
0.0
 11
382.7993700086
 21
272.5156916594
 31
0.0
  0
LINE
  5
4AF
330
1F
100
AcDbEntity
  8
0
  6
Continuous
 62
     7
370
    18
100
AcDbLine
 10
365.9783700086
 20
291.4846041838
 30
0.0
 11
365.9028556206
 21
291.4846041838
 31
0.0
  0
LINE
  5
4B0
330
1F
100
AcDbEntity
  8
0
  6
Continuous
 62
     7
370
    18
100
AcDbLine
 10
247.3134553047
 20
276.0156916594
 30
0.0
 11
262.1783700086
 21
276.0156916594
 31
0.0
  0
LINE
  5
4B1
330
1F
100
AcDbEntity
  8
0
  6
Continuous
 62
     7
370
    18
100
AcDbLine
 10
262.1783700086
 20
268.0156916594
 30
0.0
 11
247.3134553047
 21
268.0156916594
 31
0.0
  0
LINE
  5
4B2
330
1F
100
AcDbEntity
  8
0
  6
Continuous
 62
     7
370
    25
100
AcDbLine
 10
262.1783700086
 20
268.5156916594
 30
0.0
 11
262.1783700086
 21
268.0156916594
 31
0.0
  0
LINE
  5
4B3
330
1F
100
AcDbEntity
  8
0
  6
Continuous
 62
     7
370
    25
100
AcDbLine
 10
262.1783700086
 20
276.0156916594
 30
0.0
 11
262.1783700086
 21
275.5156916594
 31
0.0
  0
LWPOLYLINE
  5
4B4
330
1F
100
AcDbEntity
  8
0
  6
Continuous
 62
     7
370
     0
100
AcDbPolyline
 90
       14
 70
   128
 43
0.0
 10
262.1782422066
 20
268.5156916594
 10
262.1783700086
 20
268.6173952984
 10
262.1783700086
 20
268.9165955696
 10
262.1783700086
 20
269.3959040408
 10
262.1783700086
 20
270.0274650458
 10
262.1783700086
 20
270.7745745547
 10
262.1783700086
 20
271.5938132785
 10
262.1783700086
 20
272.4375700403
 10
262.1783700086
 20
273.256808764
 10
262.1783700086
 20
274.0039182729
 10
262.1783700086
 20
274.635479278
 10
262.1783700086
 20
275.1147877492
 10
262.1783700086
 20
275.4139880204
 10
262.1783700086
 20
275.5156916594
  0
LINE
  5
4B5
330
1F
100
AcDbEntity
  8
0
  6
Continuous
 62
     7
370
    18
100
AcDbLine
 10
379.5573700086
 20
272.5156916594
 30
0.0
 11
379.5573700086
 21
271.5156916594
 31
0.0
  0
LINE
  5
4B6
330
1F
100
AcDbEntity
  8
0
  6
Continuous
 62
     7
370
    18
100
AcDbLine
 10
382.7993700086
 20
271.5156916594
 30
0.0
 11
382.7993700086
 21
272.5156916594
 31
0.0
  0
LINE
  5
4B7
330
1F
100
AcDbEntity
  8
0
  6
Continuous
 62
     7
370
    18
100
AcDbLine
 10
365.9783700086
 20
291.4846041838
 30
0.0
 11
365.9028556206
 21
291.4846041838
 31
0.0
  0
LINE
  5
4B8
330
1F
100
AcDbEntity
  8
0
  6
CENTERX2
 62
     7
370
    18
100
AcDbLine
 10
379.9783700086
 20
298.1182045975
 30
0.0
 11
379.9783700086
 21
320.2775239113
 31
0.0
  0
LINE
  5
4B9
330
1F
100
AcDbEntity
  8
0
  6
CENTERX2
 62
     7
370
    18
100
AcDbLine
 10
381.1783700086
 20
286.2139864346
 30
0.0
 11
381.1783700086
 21
258.4121954732
 31
0.0
  0
LINE
  5
4BA
330
1F
100
AcDbEntity
  8
0
  6
CENTERX2
 62
     7
370
    18
100
AcDbLine
 10
235.3454113882
 20
272.0156916594
 30
0.0
 11
406.5562295291
 21
272.0156916594
 31
0.0
  0
LINE
  5
4BB
330
1F
100
AcDbEntity
  8
0
  6
CENTERX2
 62
     7
370
    18
100
AcDbLine
 10
304.5010617505
 20
236.6603526
 30
0.0
 11
288.273751576
 21
236.6603526
 31
0.0
  0
LINE
  5
4BC
330
1F
100
AcDbEntity
  8
0
  6
CENTERX2
 62
     7
370
    18
100
AcDbLine
 10
304.5010617505
 20
307.3710307187
 30
0.0
 11
288.273751576
 21
307.3710307187
 31
0.0
  0
ENDSEC
  0
SECTION
  2
OBJECTS
  0
DICTIONARY
  5
C
330
0
100
AcDbDictionary
281
     1
  3
ACAD_GROUP
350
D
  3
ACAD_LAYOUT
350
1A
  3
ACAD_MLINESTYLE
350
17
  3
ACAD_PLOTSETTINGS
350
19
  3
ACAD_PLOTSTYLENAME
350
E
  3
ACAD_SCALELIST
350
47
  3
DWGPROPS
350
4BD
  0
DICTIONARY
  5
D
102
{ACAD_REACTORS
330
C
102
}
330
C
100
AcDbDictionary
281
     1
  0
DICTIONARY
  5
1A
102
{ACAD_REACTORS
330
C
102
}
330
C
100
AcDbDictionary
281
     1
  3
Layout1
350
1E
  3
Layout2
350
26
  3
Model
350
22
  0
DICTIONARY
  5
17
102
{ACAD_REACTORS
330
C
102
}
330
C
100
AcDbDictionary
281
     1
  3
Standard
350
18
  0
DICTIONARY
  5
19
102
{ACAD_REACTORS
330
C
102
}
330
C
100
AcDbDictionary
281
     1
  0
ACDBDICTIONARYWDFLT
  5
E
102
{ACAD_REACTORS
330
C
102
}
330
C
100
AcDbDictionary
281
     1
  3
Normal
350
F
100
AcDbDictionaryWithDefault
340
F
  0
DICTIONARY
  5
47
102
{ACAD_REACTORS
330
C
102
}
330
C
100
AcDbDictionary
281
     1
  3
A0
350
48
  3
A1
350
49
  3
A2
350
4A
  3
A3
350
4B
  3
A4
350
4C
  3
A5
350
4D
  3
A6
350
4E
  3
A7
350
4F
  3
A8
350
50
  3
A9
350
51
  3
B0
350
52
  3
B1
350
53
  3
B2
350
54
  3
B3
350
55
  3
B4
350
56
  3
B5
350
57
  3
B6
350
58
  3
B7
350
59
  3
B8
350
5A
  3
B9
350
5B
  3
C0
350
5C
  3
C1
350
5D
  3
C2
350
5E
  3
C3
350
5F
  3
C4
350
60
  3
C5
350
61
  3
C6
350
62
  3
C7
350
63
  3
C8
350
64
  3
C9
350
65
  3
D0
350
66
  3
D1
350
67
  3
D2
350
68
  0
XRECORD
  5
4BD
102
{ACAD_REACTORS
330
C
102
}
330
C
100
AcDbXrecord
280
     1
  1
DWGPROPS COOKIE
  2

  3

  4

  6

  7

  8
HD1809
  9

300
=
301
=
302
=
303
=
304
=
305
=
306
=
307
=
308
=
309
=
 40
0.0
 41
2460095.263728507
 42
2460095.263731366
  1

 90
        0
  0
LAYOUT
  5
1E
102
{ACAD_REACTORS
330
1A
102
}
330
1A
100
AcDbPlotSettings
  1

  2
none_device
  4

  6

 40
0.0
 41
0.0
 42
0.0
 43
0.0
 44
0.0
 45
0.0
 46
0.0
 47
0.0
 48
0.0
 49
0.0
140
0.0
141
0.0
142
1.0
143
1.0
 70
   688
 72
     1
 73
     0
 74
     5
  7

 75
    16
147
1.0
148
0.0
149
0.0
100
AcDbLayout
  1
Layout1
 70
     1
 71
     1
 10
0.0
 20
0.0
 11
420.0
 21
297.0
 12
0.0
 22
0.0
 32
0.0
 14
1.0000000000E+20
 24
1.0000000000E+20
 34
1.0000000000E+20
 15
-1.0000000000E+20
 25
-1.0000000000E+20
 35
-1.0000000000E+20
146
0.0
 13
0.0
 23
0.0
 33
0.0
 16
1.0
 26
0.0
 36
0.0
 17
0.0
 27
1.0
 37
0.0
 76
     0
330
1B
  0
LAYOUT
  5
26
102
{ACAD_REACTORS
330
1A
102
}
330
1A
100
AcDbPlotSettings
  1

  2
none_device
  4

  6

 40
0.0
 41
0.0
 42
0.0
 43
0.0
 44
0.0
 45
0.0
 46
0.0
 47
0.0
 48
0.0
 49
0.0
140
0.0
141
0.0
142
1.0
143
1.0
 70
   688
 72
     1
 73
     0
 74
     5
  7

 75
    16
147
1.0
148
0.0
149
0.0
100
AcDbLayout
  1
Layout2
 70
     1
 71
     2
 10
0.0
 20
0.0
 11
0.0
 21
0.0
 12
0.0
 22
0.0
 32
0.0
 14
0.0
 24
0.0
 34
0.0
 15
0.0
 25
0.0
 35
0.0
146
0.0
 13
0.0
 23
0.0
 33
0.0
 16
1.0
 26
0.0
 36
0.0
 17
0.0
 27
1.0
 37
0.0
 76
     0
330
23
  0
LAYOUT
  5
22
102
{ACAD_REACTORS
330
1A
102
}
330
1A
100
AcDbPlotSettings
  1

  2
none_device
  4
Letter_(8.50_x_11.00_Inches)
  6

 40
6.35
 41
6.35
 42
6.35000508
 43
6.35000508
 44
215.9
 45
279.4
 46
0.0
 47
0.0
 48
0.0
 49
0.0
140
0.0
141
0.0
142
1.0
143
1.0
 70
  1712
 72
     1
 73
     0
 74
     0
  7

 75
     0
147
1.0
148
0.0
149
0.0
100
AcDbLayout
  1
Model
 70
     1
 71
     0
 10
0.0
 20
0.0
 11
630.0
 21
445.5
 12
0.0
 22
0.0
 32
0.0
 14
0.0
 24
0.0
 34
0.0
 15
630.0
 25
445.5
 35
0.0
146
0.0
 13
0.0
 23
0.0
 33
0.0
 16
1.0
 26
0.0
 36
0.0
 17
0.0
 27
1.0
 37
0.0
 76
     0
330
1F
331
29
  0
MLINESTYLE
  5
18
102
{ACAD_REACTORS
330
17
102
}
330
17
100
AcDbMlineStyle
  2
Standard
 70
     0
  3

 62
   256
 51
90.0
 52
90.0
 71
     2
 49
0.5
 62
   256
  6
BYLAYER
 49
-0.5
 62
   256
  6
BYLAYER
  0
ACDBPLACEHOLDER
  5
F
102
{ACAD_REACTORS
330
E
102
}
330
E
  0
SCALE
  5
48
102
{ACAD_REACTORS
330
47
102
}
330
47
100
AcDbScale
 70
     0
300
1:1
140
1.0
141
1.0
290
     1
  0
SCALE
  5
49
102
{ACAD_REACTORS
330
47
102
}
330
47
100
AcDbScale
 70
     0
300
1:2
140
1.0
141
2.0
290
     0
  0
SCALE
  5
4A
102
{ACAD_REACTORS
330
47
102
}
330
47
100
AcDbScale
 70
     0
300
1:4
140
1.0
141
4.0
290
     0
  0
SCALE
  5
4B
102
{ACAD_REACTORS
330
47
102
}
330
47
100
AcDbScale
 70
     0
300
1:5
140
1.0
141
5.0
290
     0
  0
SCALE
  5
4C
102
{ACAD_REACTORS
330
47
102
}
330
47
100
AcDbScale
 70
     0
300
1:8
140
1.0
141
8.0
290
     0
  0
SCALE
  5
4D
102
{ACAD_REACTORS
330
47
102
}
330
47
100
AcDbScale
 70
     0
300
1:10
140
1.0
141
10.0
290
     0
  0
SCALE
  5
4E
102
{ACAD_REACTORS
330
47
102
}
330
47
100
AcDbScale
 70
     0
300
1:16
140
1.0
141
16.0
290
     0
  0
SCALE
  5
4F
102
{ACAD_REACTORS
330
47
102
}
330
47
100
AcDbScale
 70
     0
300
1:20
140
1.0
141
20.0
290
     0
  0
SCALE
  5
50
102
{ACAD_REACTORS
330
47
102
}
330
47
100
AcDbScale
 70
     0
300
1:30
140
1.0
141
30.0
290
     0
  0
SCALE
  5
51
102
{ACAD_REACTORS
330
47
102
}
330
47
100
AcDbScale
 70
     0
300
1:40
140
1.0
141
40.0
290
     0
  0
SCALE
  5
52
102
{ACAD_REACTORS
330
47
102
}
330
47
100
AcDbScale
 70
     0
300
1:50
140
1.0
141
50.0
290
     0
  0
SCALE
  5
53
102
{ACAD_REACTORS
330
47
102
}
330
47
100
AcDbScale
 70
     0
300
1:100
140
1.0
141
100.0
290
     0
  0
SCALE
  5
54
102
{ACAD_REACTORS
330
47
102
}
330
47
100
AcDbScale
 70
     0
300
2:1
140
2.0
141
1.0
290
     0
  0
SCALE
  5
55
102
{ACAD_REACTORS
330
47
102
}
330
47
100
AcDbScale
 70
     0
300
4:1
140
4.0
141
1.0
290
     0
  0
SCALE
  5
56
102
{ACAD_REACTORS
330
47
102
}
330
47
100
AcDbScale
 70
     0
300
8:1
140
8.0
141
1.0
290
     0
  0
SCALE
  5
57
102
{ACAD_REACTORS
330
47
102
}
330
47
100
AcDbScale
 70
     0
300
10:1
140
10.0
141
1.0
290
     0
  0
SCALE
  5
58
102
{ACAD_REACTORS
330
47
102
}
330
47
100
AcDbScale
 70
     0
300
100:1
140
100.0
141
1.0
290
     0
  0
SCALE
  5
59
102
{ACAD_REACTORS
330
47
102
}
330
47
100
AcDbScale
 70
     0
300
1/128" = 1'-0"
140
0.0078125
141
12.0
290
     0
  0
SCALE
  5
5A
102
{ACAD_REACTORS
330
47
102
}
330
47
100
AcDbScale
 70
     0
300
1/64" = 1'-0"
140
0.015625
141
12.0
290
     0
  0
SCALE
  5
5B
102
{ACAD_REACTORS
330
47
102
}
330
47
100
AcDbScale
 70
     0
300
1/32" = 1'-0"
140
0.03125
141
12.0
290
     0
  0
SCALE
  5
5C
102
{ACAD_REACTORS
330
47
102
}
330
47
100
AcDbScale
 70
     0
300
1/16" = 1'-0"
140
0.0625
141
12.0
290
     0
  0
SCALE
  5
5D
102
{ACAD_REACTORS
330
47
102
}
330
47
100
AcDbScale
 70
     0
300
3/32" = 1'-0"
140
0.09375
141
12.0
290
     0
  0
SCALE
  5
5E
102
{ACAD_REACTORS
330
47
102
}
330
47
100
AcDbScale
 70
     0
300
1/8" = 1'-0"
140
0.125
141
12.0
290
     0
  0
SCALE
  5
5F
102
{ACAD_REACTORS
330
47
102
}
330
47
100
AcDbScale
 70
     0
300
3/16" = 1'-0"
140
0.1875
141
12.0
290
     0
  0
SCALE
  5
60
102
{ACAD_REACTORS
330
47
102
}
330
47
100
AcDbScale
 70
     0
300
1/4" = 1'-0"
140
0.25
141
12.0
290
     0
  0
SCALE
  5
61
102
{ACAD_REACTORS
330
47
102
}
330
47
100
AcDbScale
 70
     0
300
3/8" = 1'-0"
140
0.375
141
12.0
290
     0
  0
SCALE
  5
62
102
{ACAD_REACTORS
330
47
102
}
330
47
100
AcDbScale
 70
     0
300
1/2" = 1'-0"
140
0.5
141
12.0
290
     0
  0
SCALE
  5
63
102
{ACAD_REACTORS
330
47
102
}
330
47
100
AcDbScale
 70
     0
300
3/4" = 1'-0"
140
0.75
141
12.0
290
     0
  0
SCALE
  5
64
102
{ACAD_REACTORS
330
47
102
}
330
47
100
AcDbScale
 70
     0
300
1" = 1'-0"
140
1.0
141
12.0
290
     0
  0
SCALE
  5
65
102
{ACAD_REACTORS
330
47
102
}
330
47
100
AcDbScale
 70
     0
300
1-1/2" = 1'-0"
140
1.5
141
12.0
290
     0
  0
SCALE
  5
66
102
{ACAD_REACTORS
330
47
102
}
330
47
100
AcDbScale
 70
     0
300
3" = 1'-0"
140
3.0
141
12.0
290
     0
  0
SCALE
  5
67
102
{ACAD_REACTORS
330
47
102
}
330
47
100
AcDbScale
 70
     0
300
6" = 1'-0"
140
6.0
141
12.0
290
     0
  0
SCALE
  5
68
102
{ACAD_REACTORS
330
47
102
}
330
47
100
AcDbScale
 70
     0
300
1'-0" = 1'-0"
140
12.0
141
12.0
290
     0
  0
ENDSEC
  0
EOF
