  0
SECTION
  2
HEADER
  9
$ACADVER
  1
AC1014
  9
$ACADMAINTVER
 70
           0
  9
$DWGCODEPAGE
  3
DOS932
  9
$INSBASE
 10
0.0
 20
0.0
 30
0.0
  9
$EXTMIN
 10
1.000000000000E+20
 20
1.000000000000E+20
 30
1.000000000000E+20
  9
$EXTMAX
 10
-1.000000000000E+20
 20
-1.000000000000E+20
 30
-1.000000000000E+20
  9
$LIMMIN
 10
0.0
 20
0.0
  9
$LIMMAX
 10
0.0
 20
0.0
  9
$ORTHOMODE
 70
           0
  9
$REGENMODE
 70
           1
  9
$FILLMODE
 70
           1
  9
$QTEXTMODE
 70
           0
  9
$MIRRTEXT
 70
           1
  9
$DRAGMODE
 70
           2
  9
$LTSCALE
 40
1.0
  9
$OSMODE
 70
           0
  9
$ATTMODE
 70
           1
  9
$TEXTSIZE
 40
0.2
  9
$TRACEWID
 40
0.05
  9
$TEXTSTYLE
  7
STANDARD
  9
$CLAYER
  8
0
  9
$CELTYPE
  6
CONTINUOUS
  9
$CECOLOR
 62
         256
  9
$CELTSCALE
 40
1.0
  9
$DELOBJ
 70
           1
  9
$DISPSILH
 70
           0
  9
$DIMSCALE
 40
1.0
  9
$DIMASZ
 40
0.18
  9
$DIMEXO
 40
0.0625
  9
$DIMDLI
 40
0.38
  9
$DIMRND
 40
0.0
  9
$DIMDLE
 40
0.0
  9
$DIMEXE
 40
0.18
  9
$DIMTP
 40
0.0
  9
$DIMTM
 40
0.0
  9
$DIMTXT
 40
0.18
  9
$DIMCEN
 40
0.09
  9
$DIMTSZ
 40
0.0
  9
$DIMTOL
 70
           0
  9
$DIMLIM
 70
           0
  9
$DIMTIH
 70
           1
  9
$DIMTOH
 70
           1
  9
$DIMSE1
 70
           0
  9
$DIMSE2
 70
           0
  9
$DIMTAD
 70
           0
  9
$DIMZIN
 70
           0
  9
$DIMBLK
  1

  9
$DIMASO
 70
           1
  9
$DIMSHO
 70
           1
  9
$DIMPOST
  1

  9
$DIMAPOST
  1

  9
$DIMALT
 70
           0
  9
$DIMALTD
 70
           2
  9
$DIMALTF
 40
25.4
  9
$DIMLFAC
 40
1.0
  9
$DIMTOFL
 70
           0
  9
$DIMTVP
 40
0.0
  9
$DIMTIX
 70
           0
  9
$DIMSOXD
 70
           0
  9
$DIMSAH
 70
           0
  9
$DIMBLK1
  1

  9
$DIMBLK2
  1

  9
$DIMSTYLE
  2
STANDARD
  9
$DIMCLRD
 70
           0
  9
$DIMCLRE
 70
           0
  9
$DIMCLRT
 70
           0
  9
$DIMTFAC
 40
1.0
  9
$DIMGAP
 40
0.09
  9
$DIMJUST
 70
           0
  9
$DIMSD1
 70
           0
  9
$DIMSD2
 70
           0
  9
$DIMTOLJ
 70
           1
  9
$DIMTZIN
 70
           0
  9
$DIMALTZ
 70
           0
  9
$DIMALTTZ
 70
           0
  9
$DIMFIT
 70
           3
  9
$DIMUPT
 70
           0
  9
$DIMUNIT
 70
           2
  9
$DIMDEC
 70
           4
  9
$DIMTDEC
 70
           4
  9
$DIMALTU
 70
           2
  9
$DIMALTTD
 70
           2
  9
$DIMTXSTY
  7
STANDARD
  9
$DIMAUNIT
 70
           0
  9
$LUNITS
 70
           2
  9
$LUPREC
 70
           4
  9
$SKETCHINC
 40
0.1
  9
$FILLETRAD
 40
0.0
  9
$AUNITS
 70
           0
  9
$AUPREC
 70
           0
  9
$MENU
  1
acad
  9
$ELEVATION
 40
0.0
  9
$PELEVATION
 40
0.0
  9
$THICKNESS
 40
0.0
  9
$LIMCHECK
 70
           0
  9
$BLIPMODE
 70
           1
  9
$CHAMFERA
 40
0.0
  9
$CHAMFERB
 40
0.0
  9
$CHAMFERC
 40
0.0
  9
$CHAMFERD
 40
0.0
  9
$SKPOLY
 70
           0
  9
$TDCREATE
 40
0.000000000
  9
$TDUPDATE
 40
0.000000000
  9
$TDINDWG
 40
0.0000000000
  9
$TDUSRTIMER
 40
0.0000000000
  9
$USRTIMER
 70
           1
  9
$ANGBASE
 50
0.0
  9
$ANGDIR
 70
           0
  9
$PDMODE
 70
           0
  9
$PDSIZE
 40
0.0
  9
$PLINEWID
 40
0.0
  9
$COORDS
 70
           0
  9
$SPLFRAME
 70
           0
  9
$SPLINETYPE
 70
           6
  9
$SPLINESEGS
 70
           8
  9
$ATTDIA
 70
           0
  9
$ATTREQ
 70
           1
  9
$HANDLING
 70
           1
  9
$HANDSEED
  5
2B9
  9
$SURFTAB1
 70
           6
  9
$SURFTAB2
 70
           6
  9
$SURFTYPE
 70
           6
  9
$SURFU
 70
           6
  9
$SURFV
 70
           6
  9
$UCSNAME
  2

  9
$UCSORG
 10
0.0
 20
0.0
 30
0.0
  9
$UCSXDIR
 10
1.0
 20
0.0
 30
0.0
  9
$UCSYDIR
 10
0.0
 20
1.0
 30
0.0
  9
$PUCSNAME
  2

  9
$PUCSORG
 10
0.0
 20
0.0
 30
0.0
  9
$PUCSXDIR
 10
1.0
 20
0.0
 30
0.0
  9
$PUCSYDIR
 10
0.0
 20
1.0
 30
0.0
  9
$USERI1
 70
           0
  9
$USERI2
 70
           0
  9
$USERI3
 70
           0
  9
$USERI4
 70
           0
  9
$USERI5
 70
           0
  9
$USERR1
 40
0.0
  9
$USERR2
 40
0.0
  9
$USERR3
 40
0.0
  9
$USERR4
 40
0.0
  9
$USERR5
 40
0.0
  9
$WORLDVIEW
 70
           1
  9
$SHADEDGE
 70
           3
  9
$SHADEDIF
 70
          70
  9
$TILEMODE
 70
           1
  9
$MAXACTVP
 70
          16
  9
$PINSBASE
 10
0.0
 20
0.0
 30
0.0
  9
$PLIMCHECK
 70
           0
  9
$PEXTMIN
 10
1.000000000000E+20
 20
1.000000000000E+20
 30
1.000000000000E+20
  9
$PEXTMAX
 10
-1.000000000000E+20
 20
-1.000000000000E+20
 30
-1.000000000000E+20
  9
$PLIMMIN
 10
0.0
 20
0.0
  9
$PLIMMAX
 10
12.0
 20
9.0
  9
$UNITMODE
 70
           0
  9
$VISRETAIN
 70
           0
  9
$PLINEGEN
 70
           1
  9
$PSLTSCALE
 70
           0
  9
$TREEDEPTH
 70
        3020
  9
$PICKSTYLE
 70
           1
  9
$CMLSTYLE
  2
STANDARD
  9
$CMLJUST
 70
           0
  9
$CMLSCALE
 40
1.0
  9
$PROXYGRAPHICS
 70
           0
  9
$MEASUREMENT
 70
           0
  0
ENDSEC
  0
SECTION
  2
CLASSES
  0
CLASS
  1
LWPOLYLINE
  2
AcDbPolyline
  3
"AutoCAD"
 90
        0
280
           0
281
           1
  0
CLASS
  1
IMAGE
  2
AcDbRasterImage
  3
ISM
 90
      127
280
           0
281
           1
  0
CLASS
  1
OLE2FRAME
  2
AcDbOle2Frame
  3
""
 90
        0
280
           0
281
           1
  0
CLASS
  1
HATCH
  2
AcDbHatch
  3
"ACAD_SEDONA"
 90
        0
280
           0
281
           1
  0
CLASS
  1
DICTIONARYVAR
  2
AcDbDictionaryVar
  3
"AutoCAD"
 90
        0
280
           0
281
           0
  0
CLASS
  1
RASTERVARIABLES
  2
AcDbRasterVariables
  3
ISM
 90
        0
280
           0
281
           0
  0
CLASS
  1
IMAGEDEF
  2
AcDbRasterImageDef
  3
ISM
 90
        0
280
           0
281
           0
  0
CLASS
  1
IMAGEDEF_REACTOR
  2
AcDbRasterImageDefReactor
  3
ISM
 90
        1
280
           0
281
           0
  0
CLASS
  1
IDBUFFER
  2
AcDbIdBuffer
  3
"Acad"
 90
        0
280
           0
281
           0
  0
CLASS
  1
SPATIAL_FILTER
  2
AcDbSpatialFilter
  3
"Acad"
 90
        0
280
           0
281
           0
  0
CLASS
  1
XRECORD
  2
AcDbXrecord
  3
"<Built In>"
 90
        0
280
           0
281
           0
  0
CLASS
  1
SORTENTSTABLE
  2
AcDbSortentsTable
  3
"AutoCAD"
 90
        0
280
           0
281
           0
  0
CLASS
  1
LAYER_INDEX
  2
AcDbLayerIndex
  3
"Acad"
 90
        0
280
           0
281
           0
  0
CLASS
  1
SPATIAL_INDEX
  2
AcDbSpatialIndex
  3
"Acad"
 90
        0
280
           0
281
           0
  0
CLASS
  1
OBJECT_PTR
  2
CAseDLPNTableRecord
  3
"ASE-LPNTableRecord"
 90
        1
280
           0
281
           0
  0
CLASS
  1
LAYOUT
  2
AcDbLayout
  3
"AutoCAD 2000"
 90
        1
280
           0
281
           0
  0
CLASS
  1
PLOTSETTINGS
  2
AcDbPlotSettings
  3
"AutoCAD 2000"
 90
        1
280
           0
281
           0
  0
CLASS
  1
ACDBDICTIONARYWDFLT
  2
AcDbDictionaryWithDefault
  3
"AutoCAD 2000"
 90
        1
280
           0
281
           0
  0
CLASS
  1
ACDBPLACEHOLDER
  2
AcDbPlaceHolder
  3
"AutoCAD 2000"
 90
        1
280
           0
281
           0
  0
CLASS
  1
VBA_PROJECT
  2
AcDbVbaProject
  3
"acadvba"
 90
        1
280
           0
281
           0
  0
CLASS
  1
WIPEOUT
  2
AcDbWipeout
  3
WipeOut|AutoCAD Express Tool|expresstools@autodesk.com
 90
      127
280
           0
281
           1
  0
CLASS
  1
WIPEOUTVARIABLES
  2
AcDbWipeoutVariables
  3
WipeOut|AutoCAD Express Tool|expresstools@autodesk.com
 90
        0
280
           0
281
           0
  0
CLASS
  1
RTEXT
  2
RText
  3
RText|AutoCAD Express Tool|expresstools@autodesk.com
 90
        0
280
           0
281
           1
  0
CLASS
  1
ARCALIGNEDTEXT
  2
AcDbArcAlignedText
  3
ATEXT|AutoCAD Express Tool|expresstools@autodesk.com
 90
        0
280
           0
281
           1
  0
ENDSEC
  0
SECTION
  2
TABLES
  0
TABLE
  2
VPORT
  5
7
100
AcDbSymbolTable
 70
           1
  0
VPORT
  5
15
100
AcDbSymbolTableRecord
100
AcDbViewportTableRecord
  2
*ACTIVE
 70
           0
 10
0.0
 20
0.0
 11
1.0
 21
1.0
 12
6.591288
 22
4.579184
 13
0.0
 23
0.0
 14
1.0
 24
1.0
 15
0.0
 25
0.0
 16
0.0
 26
0.0
 36
1.0
 17
0.0
 27
0.0
 37
0.0
 40
9.158369
 41
0.688564
 42
50.0
 43
0.0
 44
0.0
 50
0.0
 51
0.0
 71
           0
 72
         100
 73
           1
 74
           1
 75
           0
 76
           0
 77
           0
 78
           0
  0
ENDTAB
  0
TABLE
  2
LTYPE
  5
4
100
AcDbSymbolTable
 70
          10
  0
LTYPE
  5
11
100
AcDbSymbolTableRecord
100
AcDbLinetypeTableRecord
  2
BYBLOCK
 70
          64
  3

 72
          65
 73
           0
 40
0.0
  0
LTYPE
  5
12
100
AcDbSymbolTableRecord
100
AcDbLinetypeTableRecord
  2
BYLAYER
 70
          64
  3

 72
          65
 73
           0
 40
0.0
  0
LTYPE
  5
13
100
AcDbSymbolTableRecord
100
AcDbLinetypeTableRecord
  2
CONTINUOUS
 70
          64
  3
Solid line
 72
          65
 73
           0
 40
0.0
  0
LTYPE
  5
1D
100
AcDbSymbolTableRecord
100
AcDbLinetypeTableRecord
  2
DASHED
 70
          64
  3
Dashed
 72
          65
 73
           2
 40
15.0
 49
12.0
 74
           0
 49
-3.0
 74
           0
  0
LTYPE
  5
1E
100
AcDbSymbolTableRecord
100
AcDbLinetypeTableRecord
  2
DOTTED
 70
          64
  3
Dotted
 72
          65
 73
           2
 40
3.5
 49
0.5
 74
           0
 49
-3.0
 74
           0
  0
LTYPE
  5
1F
100
AcDbSymbolTableRecord
100
AcDbLinetypeTableRecord
  2
DOT_CENTER
 70
          64
  3
Dot_Center
 72
          65
 73
           4
 40
2.0
 49
1.25
 74
           0
 49
-0.25
 74
           0
 49
0.25
 74
           0
 49
-0.25
 74
           0
  0
LTYPE
  5
20
100
AcDbSymbolTableRecord
100
AcDbLinetypeTableRecord
  2
LONG_DASHED
 70
          64
  3
Long_Dashed
 72
          65
 73
           2
 40
2.0
 49
1.5
 74
           0
 49
-0.5
 74
           0
  0
LTYPE
  5
21
100
AcDbSymbolTableRecord
100
AcDbLinetypeTableRecord
  2
DASH_CENTER
 70
          64
  3
Dash_Center
 72
          65
 73
           4
 40
36.0
 49
24.0
 74
           0
 49
-3.0
 74
           0
 49
6.0
 74
           0
 49
-3.0
 74
           0
  0
LTYPE
  5
22
100
AcDbSymbolTableRecord
100
AcDbLinetypeTableRecord
  2
PHANTOM
 70
          64
  3
Phantom
 72
          65
 73
           6
 40
2.5
 49
1.25
 74
           0
 49
-0.25
 74
           0
 49
0.25
 74
           0
 49
-0.25
 74
           0
 49
0.25
 74
           0
 49
-0.25
 74
           0
  0
LTYPE
  5
23
100
AcDbSymbolTableRecord
100
AcDbLinetypeTableRecord
  2
CENTER_DASH_DASH
 70
          64
  3
Center_Dash_Dash
 72
          65
 73
           6
 40
22.0
 49
12.0
 74
           0
 49
-3.0
 74
           0
 49
0.5
 74
           0
 49
-3.0
 74
           0
 49
0.5
 74
           0
 49
-3.0
 74
           0
  0
ENDTAB
  0
TABLE
  2
LAYER
  5
2
100
AcDbSymbolTable
 70
           3
  0
LAYER
  5
14
100
AcDbSymbolTableRecord
100
AcDbLayerTableRecord
  2
0
 70
           0
 62
           7
  6
CONTINUOUS
  0
LAYER
  5
24
100
AcDbSymbolTableRecord
100
AcDbLayerTableRecord
  2
1
 70
           0
 62
           7
  6
CONTINUOUS
  0
LAYER
  5
25
100
AcDbSymbolTableRecord
100
AcDbLayerTableRecord
  2
2
 70
           0
 62
           7
  6
CONTINUOUS
  0
ENDTAB
  0
TABLE
  2
STYLE
  5
3
100
AcDbSymbolTable
 70
           4
  0
STYLE
  5
17
100
AcDbSymbolTableRecord
100
AcDbTextStyleTableRecord
  2
STANDARD
 70
           0
 40
0.0
 41
1.0
 50
0.0
 71
           0
 42
0.0
  3
txt
  4

  0
STYLE
  5
2AA
100
AcDbSymbolTableRecord
100
AcDbTextStyleTableRecord
  2
CONVERTER_1
 70
           0
 40
0.0
 41
0.9
 50
0.0
 71
           0
 42
0.0
  3
txt.shx
  4

  0
STYLE
  5
2AC
100
AcDbSymbolTableRecord
100
AcDbTextStyleTableRecord
  2
CONVERTER_2
 70
           0
 40
0.0
 41
0.765
 50
0.0
 71
           0
 42
0.0
  3
txt.shx
  4

  0
STYLE
  5
2AE
100
AcDbSymbolTableRecord
100
AcDbTextStyleTableRecord
  2
CONVERTER_3
 70
           0
 40
0.0
 41
0.81
 50
0.0
 71
           0
 42
0.0
  3
txt.shx
  4

  0
ENDTAB
  0
TABLE
  2
VIEW
  5
5
100
AcDbSymbolTable
 70
           0
  0
ENDTAB
  0
TABLE
  2
UCS
  5
6
100
AcDbSymbolTable
 70
           0
  0
ENDTAB
  0
TABLE
  2
APPID
  5
8
100
AcDbSymbolTable
 70
           1
  0
APPID
  5
16
100
AcDbSymbolTableRecord
100
AcDbRegAppTableRecord
  2
ACAD
 70
           0
  0
ENDTAB
  0
TABLE
  2
DIMSTYLE
  5
9
100
AcDbSymbolTable
 70
           1
  0
DIMSTYLE
105
18
100
AcDbSymbolTableRecord
100
AcDbDimStyleTableRecord
  2
STANDARD
 70
           0
  3

  4

  5

  6

  7

 40
1.0
 41
0.18
 42
0.0625
 43
0.38
 44
0.18
 45
0.0
 46
0.0
 47
0.0
 48
0.0
 71
           0
 72
           0
 73
           1
 74
           1
 75
           0
 76
           0
 77
           0
 78
           0
140
0.18
141
0.09
142
0.0
143
25.4
144
1.0
145
0.0
146
1.0
147
0.09
170
           0
171
           2
172
           0
173
           0
174
           0
175
           0
176
           0
177
           0
178
           0
270
           2
271
           4
272
           4
273
           2
274
           2
275
           0
280
           0
281
           0
282
           0
283
           1
284
           0
285
           0
286
           0
287
           0
288
           0
340
17
  0
ENDTAB
  0
TABLE
  2
BLOCK_RECORD
  5
1
100
AcDbSymbolTable
 70
           8
  0
BLOCK_RECORD
  5
A
100
AcDbSymbolTableRecord
100
AcDbBlockTableRecord
  2
*MODEL_SPACE
  0
BLOCK_RECORD
  5
B
100
AcDbSymbolTableRecord
100
AcDbBlockTableRecord
  2
*PAPER_SPACE
  0
BLOCK_RECORD
  5
26
100
AcDbSymbolTableRecord
100
AcDbBlockTableRecord
  2
RETAINER__1
  0
BLOCK_RECORD
  5
28
100
AcDbSymbolTableRecord
100
AcDbBlockTableRecord
  2
WBG_025_F__2
  0
BLOCK_RECORD
  5
2B
100
AcDbSymbolTableRecord
100
AcDbBlockTableRecord
  2
RETAINER__3
  0
BLOCK_RECORD
  5
2D
100
AcDbSymbolTableRecord
100
AcDbBlockTableRecord
  2
WBG_025_F__4
  0
BLOCK_RECORD
  5
30
100
AcDbSymbolTableRecord
100
AcDbBlockTableRecord
  2
RETAINER__5
  0
BLOCK_RECORD
  5
32
100
AcDbSymbolTableRecord
100
AcDbBlockTableRecord
  2
WBG_025_F__6
  0
BLOCK_RECORD
  5
35
100
AcDbSymbolTableRecord
100
AcDbBlockTableRecord
  2
RETAINER__7
  0
BLOCK_RECORD
  5
37
100
AcDbSymbolTableRecord
100
AcDbBlockTableRecord
  2
WBG_025_F__8
  0
ENDTAB
  0
ENDSEC
  0
SECTION
  2
BLOCKS
  0
BLOCK
  5
D
100
AcDbEntity
  8
0
100
AcDbBlockBegin
  2
*MODEL_SPACE
 70
           0
 10
0.0
 20
0.0
 30
0.0
  3
*MODEL_SPACE
  1

  0
ENDBLK
  5
E
100
AcDbEntity
  8
0
100
AcDbBlockEnd
  0
BLOCK
  5
F
100
AcDbEntity
 67
           1
  8
0
100
AcDbBlockBegin
  2
*PAPER_SPACE
 70
           0
 10
0.0
 20
0.0
 30
0.0
  3
*PAPER_SPACE
  1

  0
ENDBLK
  5
10
100
AcDbEntity
 67
           1
  8
0
100
AcDbBlockEnd
  0
BLOCK
  5
27
100
AcDbEntity
  8
0
100
AcDbBlockBegin
  2
RETAINER__1
 70
           0
 10
0.0
 20
0.0
 30
0.0
  3
RETAINER__1
  1

  0
ENDBLK
  5
40
100
AcDbEntity
  8
0
100
AcDbBlockEnd
  0
BLOCK
  5
29
100
AcDbEntity
  8
0
100
AcDbBlockBegin
  2
WBG_025_F__2
 70
           0
 10
0.0
 20
0.0
 30
0.0
  3
WBG_025_F__2
  1

  0
INSERT
  5
2A
100
AcDbEntity
  8
0
100
AcDbBlockReference
  2
RETAINER__1
 10
0.0
 20
0.0
  0
ENDBLK
  5
41
100
AcDbEntity
  8
0
100
AcDbBlockEnd
  0
BLOCK
  5
2C
100
AcDbEntity
  8
0
100
AcDbBlockBegin
  2
RETAINER__3
 70
           0
 10
0.0
 20
0.0
 30
0.0
  3
RETAINER__3
  1

  0
ENDBLK
  5
42
100
AcDbEntity
  8
0
100
AcDbBlockEnd
  0
BLOCK
  5
2E
100
AcDbEntity
  8
0
100
AcDbBlockBegin
  2
WBG_025_F__4
 70
           0
 10
0.0
 20
0.0
 30
0.0
  3
WBG_025_F__4
  1

  0
INSERT
  5
2F
100
AcDbEntity
  8
0
100
AcDbBlockReference
  2
RETAINER__3
 10
0.0
 20
0.0
  0
ENDBLK
  5
43
100
AcDbEntity
  8
0
100
AcDbBlockEnd
  0
BLOCK
  5
31
100
AcDbEntity
  8
0
100
AcDbBlockBegin
  2
RETAINER__5
 70
           0
 10
0.0
 20
0.0
 30
0.0
  3
RETAINER__5
  1

  0
ENDBLK
  5
44
100
AcDbEntity
  8
0
100
AcDbBlockEnd
  0
BLOCK
  5
33
100
AcDbEntity
  8
0
100
AcDbBlockBegin
  2
WBG_025_F__6
 70
           0
 10
0.0
 20
0.0
 30
0.0
  3
WBG_025_F__6
  1

  0
INSERT
  5
34
100
AcDbEntity
  8
0
100
AcDbBlockReference
  2
RETAINER__5
 10
0.0
 20
0.0
  0
ENDBLK
  5
45
100
AcDbEntity
  8
0
100
AcDbBlockEnd
  0
BLOCK
  5
36
100
AcDbEntity
  8
0
100
AcDbBlockBegin
  2
RETAINER__7
 70
           0
 10
0.0
 20
0.0
 30
0.0
  3
RETAINER__7
  1

  0
ENDBLK
  5
46
100
AcDbEntity
  8
0
100
AcDbBlockEnd
  0
BLOCK
  5
38
100
AcDbEntity
  8
0
100
AcDbBlockBegin
  2
WBG_025_F__8
 70
           0
 10
0.0
 20
0.0
 30
0.0
  3
WBG_025_F__8
  1

  0
INSERT
  5
39
100
AcDbEntity
  8
0
100
AcDbBlockReference
  2
RETAINER__7
 10
0.0
 20
0.0
  0
ENDBLK
  5
47
100
AcDbEntity
  8
0
100
AcDbBlockEnd
  0
ENDSEC
  0
SECTION
  2
ENTITIES
  0
TEXT
  5
2B7
100
AcDbEntity
  8
1
 62
           7
100
AcDbText
 10
-474.813214124662
 20
311.577818596133
 40
5.0
  1
The reference drawing
 41
0.81
  7
CONVERTER_3
100
AcDbText
  0
TEXT
  5
2B6
100
AcDbEntity
  8
1
 62
           3
100
AcDbText
 10
-476.324414931926
 20
303.558542922429
 40
3.5
  1
All speciffcations and dimensions mentioned in the drawing are
 41
0.81
  7
CONVERTER_3
100
AcDbText
  0
TEXT
  5
2B5
100
AcDbEntity
  8
1
 62
           3
100
AcDbText
 10
-476.324414931926
 20
296.598542922429
 40
3.5
  1
subject to change without notification.
 41
0.81
  7
CONVERTER_3
100
AcDbText
  0
TEXT
  5
2B4
100
AcDbEntity
  8
1
 62
           3
100
AcDbText
 10
-476.324414931926
 20
289.638542922429
 40
3.5
  1
This drawing itself is also a property of Harmonic Drive Systems,Ins.
 41
0.81
  7
CONVERTER_3
100
AcDbText
  0
TEXT
  5
2B3
100
AcDbEntity
  8
1
 62
           3
100
AcDbText
 10
-476.324414931926
 20
278.718542922429
 40
3.5
  1
Harmonic Drive Systems,Inc.
 41
0.81
  7
CONVERTER_3
100
AcDbText
  0
TEXT
  5
2B2
100
AcDbEntity
  8
1
 62
           3
100
AcDbText
 10
-476.324414931926
 20
271.758542922429
 40
3.5
  1
Ichigo Omori Bldg.,4F 6-25-3 Minami-Oi, Shinagawa-ku, Tokyo 140-0013
 41
0.81
  7
CONVERTER_3
100
AcDbText
  0
TEXT
  5
2B1
100
AcDbEntity
  8
1
 62
           3
100
AcDbText
 10
-476.324414931926
 20
264.798542922429
 40
3.5
  1
JAPAN
 41
0.81
  7
CONVERTER_3
100
AcDbText
  0
TEXT
  5
2B0
100
AcDbEntity
  8
1
 62
           3
100
AcDbText
 10
-476.324414931926
 20
257.838542922429
 40
3.5
  1
Tel.03-5471-7800 Fax.03-5471-7811
 41
0.81
  7
CONVERTER_3
100
AcDbText
  0
TEXT
  5
2AF
100
AcDbEntity
  8
1
 62
           3
100
AcDbText
 10
-476.324414931926
 20
250.878542922429
 40
3.5
  1
http://www.hds.co.jp
 41
0.81
  7
CONVERTER_3
100
AcDbText
  0
MTEXT
  5
2AD
100
AcDbEntity
  8
1
 62
           3
100
AcDbMText
 10
-245.735773802335
 20
320.477296108347
 30
0.0
 40
3.5
 41
0.0
 71
           5
 72
           1
  1
CSG-32-50-2UH-LW-SP-B
  7
CONVERTER_2
  0
MTEXT
  5
2AB
100
AcDbEntity
  8
1
 62
           3
100
AcDbMText
 10
-247.985773802335
 20
312.852296108347
 30
0.0
 40
4.5
 41
0.0
 71
           6
 72
           1
  1
C007761
  7
CONVERTER_1
  0
LEADER
  5
2A9
100
AcDbEntity
  8
1
  6
CONTINUOUS
 62
           7
100
AcDbLeader
  3
Standard
 71
           0
 73
           3
 74
           0
 75
           0
 40
0.0
 76
           2
 10
-460.66885416431
 20
432.369268969839
 30
0.0
 10
-460.643341935485
 20
432.430860938673
 30
0.0
 77
           7
  0
LEADER
  5
2A6
100
AcDbEntity
  8
1
  6
CONTINUOUS
 62
           7
100
AcDbLeader
  3
Standard
 71
           0
 73
           3
 74
           0
 75
           0
 40
0.0
 76
           2
 10
-447.657617463896
 20
432.369268969839
 30
0.0
 10
-447.596025495063
 20
432.394781198663
 30
0.0
 77
           7
  0
LEADER
  5
2A3
100
AcDbEntity
  8
1
  6
CONTINUOUS
 62
           7
100
AcDbLeader
  3
Standard
 71
           0
 73
           3
 74
           0
 75
           0
 40
0.0
 76
           2
 10
-438.457283761411
 20
423.168935267354
 30
0.0
 10
-438.395691792577
 20
423.14342303853
 30
0.0
 77
           7
  0
LEADER
  5
2A0
100
AcDbEntity
  8
1
  6
CONTINUOUS
 62
           7
100
AcDbLeader
  3
Standard
 71
           0
 73
           3
 74
           0
 75
           0
 40
0.0
 76
           2
 10
-438.457283761411
 20
410.157698566941
 30
0.0
 10
-438.431771532587
 20
410.096106598107
 30
0.0
 77
           7
  0
LEADER
  5
29D
100
AcDbEntity
  8
1
  6
CONTINUOUS
 62
           7
100
AcDbLeader
  3
Standard
 71
           0
 73
           3
 74
           0
 75
           0
 40
0.0
 76
           2
 10
-447.657617463896
 20
400.957364864455
 30
0.0
 10
-447.683129692721
 20
400.895772895622
 30
0.0
 77
           7
  0
LEADER
  5
29A
100
AcDbEntity
  8
1
  6
CONTINUOUS
 62
           7
100
AcDbLeader
  3
Standard
 71
           0
 73
           3
 74
           0
 75
           0
 40
0.0
 76
           2
 10
-460.66885416431
 20
400.957364864456
 30
0.0
 10
-460.730446133144
 20
400.931852635631
 30
0.0
 77
           7
  0
LEADER
  5
297
100
AcDbEntity
  8
1
  6
CONTINUOUS
 62
           7
100
AcDbLeader
  3
Standard
 71
           0
 73
           3
 74
           0
 75
           0
 40
0.0
 76
           2
 10
-469.869187866795
 20
410.157698566941
 30
0.0
 10
-469.930779835629
 20
410.183210795765
 30
0.0
 77
           7
  0
LEADER
  5
294
100
AcDbEntity
  8
1
  6
CONTINUOUS
 62
           7
100
AcDbLeader
  3
Standard
 71
           0
 73
           3
 74
           0
 75
           0
 40
0.0
 76
           2
 10
-469.869187866795
 20
423.168935267353
 30
0.0
 10
-469.894700095619
 20
423.230527236188
 30
0.0
 77
           7
  0
LEADER
  5
291
100
AcDbEntity
  8
1
  6
CONTINUOUS
 62
           7
100
AcDbLeader
  3
Standard
 71
           0
 73
           3
 74
           0
 75
           0
 40
0.0
 76
           2
 10
-468.305371437834
 20
430.805452540878
 30
0.0
 10
-468.330883666658
 20
430.867044509712
 30
0.0
 77
           7
  0
LEADER
  5
28E
100
AcDbEntity
  8
1
  6
CONTINUOUS
 62
           7
100
AcDbLeader
  3
Standard
 71
           0
 73
           3
 74
           0
 75
           0
 40
0.0
 76
           2
 10
-454.163235814103
 20
436.663316917147
 30
0.0
 10
-454.137723585279
 20
436.724908885981
 30
0.0
 77
           7
  0
LEADER
  5
28B
100
AcDbEntity
  8
1
  6
CONTINUOUS
 62
           7
100
AcDbLeader
  3
Standard
 71
           0
 73
           3
 74
           0
 75
           0
 40
0.0
 76
           2
 10
-440.021100190372
 20
430.805452540878
 30
0.0
 10
-439.959508221538
 20
430.830964769703
 30
0.0
 77
           7
  0
LEADER
  5
288
100
AcDbEntity
  8
1
  6
CONTINUOUS
 62
           7
100
AcDbLeader
  3
Standard
 71
           0
 73
           3
 74
           0
 75
           0
 40
0.0
 76
           2
 10
-434.163235814103
 20
416.663316917147
 30
0.0
 10
-434.101643845269
 20
416.637804688323
 30
0.0
 77
           7
  0
LEADER
  5
285
100
AcDbEntity
  8
1
  6
CONTINUOUS
 62
           7
100
AcDbLeader
  3
Standard
 71
           0
 73
           3
 74
           0
 75
           0
 40
0.0
 76
           2
 10
-474.163235814103
 20
416.663316917147
 30
0.0
 10
-474.224827782937
 20
416.688829145971
 30
0.0
 77
           7
  0
LEADER
  5
282
100
AcDbEntity
  8
1
  6
CONTINUOUS
 62
           7
100
AcDbLeader
  3
Standard
 71
           0
 73
           3
 74
           0
 75
           0
 40
0.0
 76
           2
 10
-468.305371437834
 20
402.521181293416
 30
0.0
 10
-468.366963406668
 20
402.495669064592
 30
0.0
 77
           7
  0
LEADER
  5
27F
100
AcDbEntity
  8
1
  6
CONTINUOUS
 62
           7
100
AcDbLeader
  3
Standard
 71
           0
 73
           3
 74
           0
 75
           0
 40
0.0
 76
           2
 10
-454.163235814103
 20
396.663316917147
 30
0.0
 10
-454.188748042927
 20
396.601724948313
 30
0.0
 77
           7
  0
LEADER
  5
27C
100
AcDbEntity
  8
1
  6
CONTINUOUS
 62
           7
100
AcDbLeader
  3
Standard
 71
           0
 73
           3
 74
           0
 75
           0
 40
0.0
 76
           2
 10
-440.021100190372
 20
402.521181293416
 30
0.0
 10
-439.995587961548
 20
402.459589324582
 30
0.0
 77
           7
  0
ARC
  5
279
100
AcDbEntity
  8
1
  6
CONTINUOUS
 62
           7
100
AcDbCircle
 10
-342.853235684336
 20
390.163317307655
 40
0.5
100
AcDbArc
 50
0.0
 51
90.0
  0
ARC
  5
278
100
AcDbEntity
  8
1
  6
CONTINUOUS
 62
           7
100
AcDbCircle
 10
-318.313235814103
 20
473.563316917147
 40
0.399999999999
100
AcDbArc
 50
-90.0
 51
0.0
  0
ARC
  5
277
100
AcDbEntity
  8
1
  6
CONTINUOUS
 62
           7
100
AcDbCircle
 10
-318.313235814103
 20
359.763316917147
 40
0.4
100
AcDbArc
 50
0.0
 51
90.0
  0
ARC
  5
276
100
AcDbEntity
  8
1
  6
CONTINUOUS
 62
           7
100
AcDbCircle
 10
-305.513235814103
 20
462.063316917147
 40
0.4
100
AcDbArc
 50
180.0
 51
-90.0
  0
ARC
  5
275
100
AcDbEntity
  8
1
  6
CONTINUOUS
 62
           7
100
AcDbCircle
 10
-305.513235814103
 20
371.263316917147
 40
0.4
100
AcDbArc
 50
90.0
 51
180.0
  0
ARC
  5
274
100
AcDbEntity
  8
1
  6
CONTINUOUS
 62
           7
100
AcDbCircle
 10
-307.213235814103
 20
365.163316917147
 40
0.2
100
AcDbArc
 50
90.0
 51
180.0
  0
ARC
  5
273
100
AcDbEntity
  8
1
  6
CONTINUOUS
 62
           7
100
AcDbCircle
 10
-307.213235814103
 20
362.863316917147
 40
0.2
100
AcDbArc
 50
180.0
 51
-90.0
  0
ARC
  5
272
100
AcDbEntity
  8
1
  6
CONTINUOUS
 62
           7
100
AcDbCircle
 10
-289.16324021512
 20
357.413316917147
 40
0.25
100
AcDbArc
 50
-90.0
 51
0.0
  0
ARC
  5
271
100
AcDbEntity
  8
1
  6
CONTINUOUS
 62
           7
100
AcDbCircle
 10
-289.16324021512
 20
350.913316917147
 40
0.25
100
AcDbArc
 50
0.0
 51
90.0
  0
ARC
  5
270
100
AcDbEntity
  8
1
  6
CONTINUOUS
 62
           7
100
AcDbCircle
 10
-360.313235684336
 20
371.913316917147
 40
0.8
100
AcDbArc
 50
179.999999999987
 51
-138.590377890742
  0
ARC
  5
26F
100
AcDbEntity
  8
1
  6
CONTINUOUS
 62
           7
100
AcDbCircle
 10
-360.313235684336
 20
461.413316917147
 40
0.8
100
AcDbArc
 50
138.590377890742
 51
-179.999999999991
  0
ARC
  5
26E
100
AcDbEntity
  8
1
  6
CONTINUOUS
 62
           7
100
AcDbCircle
 10
-334.313234847405
 20
432.263316917147
 40
0.4
100
AcDbArc
 50
0.0
 51
90.0
  0
CIRCLE
  5
26D
100
AcDbEntity
  8
1
  6
DASH_CENTER
 62
           3
100
AcDbCircle
 10
-183.575604442771
 20
416.663316917147
 40
49.5
  0
CIRCLE
  5
26C
100
AcDbEntity
  8
1
  6
CONTINUOUS
 62
           7
100
AcDbCircle
 10
-152.325604442771
 20
362.53672918062
 40
3.3
  0
CIRCLE
  5
26B
100
AcDbEntity
  8
1
  6
CONTINUOUS
 62
           7
100
AcDbCircle
 10
-454.163235814103
 20
416.663316917147
 40
12.999999804762
  0
CIRCLE
  5
26A
100
AcDbEntity
  8
1
  6
CONTINUOUS
 62
           7
100
AcDbCircle
 10
-428.756548670043
 20
406.139522527107
 40
4.0
  0
CIRCLE
  5
269
100
AcDbEntity
  8
1
  6
CONTINUOUS
 62
           3
100
AcDbCircle
 10
-428.756548670043
 20
406.139522527107
 40
5.0
  0
CIRCLE
  5
268
100
AcDbEntity
  8
1
  6
CONTINUOUS
 62
           7
100
AcDbCircle
 10
-443.639441424063
 20
391.256629773086
 40
4.0
  0
CIRCLE
  5
267
100
AcDbEntity
  8
1
  6
CONTINUOUS
 62
           3
100
AcDbCircle
 10
-443.639441424063
 20
391.256629773086
 40
5.0
  0
CIRCLE
  5
266
100
AcDbEntity
  8
1
  6
CONTINUOUS
 62
           7
100
AcDbCircle
 10
-464.687030204143
 20
391.256629773086
 40
4.0
  0
CIRCLE
  5
265
100
AcDbEntity
  8
1
  6
CONTINUOUS
 62
           3
100
AcDbCircle
 10
-464.687030204143
 20
391.256629773086
 40
5.0
  0
CIRCLE
  5
264
100
AcDbEntity
  8
1
  6
CONTINUOUS
 62
           7
100
AcDbCircle
 10
-464.687030204143
 20
442.070004061207
 40
4.0
  0
CIRCLE
  5
263
100
AcDbEntity
  8
1
  6
CONTINUOUS
 62
           3
100
AcDbCircle
 10
-464.687030204143
 20
442.070004061207
 40
5.0
  0
CIRCLE
  5
262
100
AcDbEntity
  8
1
  6
CONTINUOUS
 62
           7
100
AcDbCircle
 10
-443.639441424063
 20
442.070004061207
 40
4.0
  0
CIRCLE
  5
261
100
AcDbEntity
  8
1
  6
CONTINUOUS
 62
           3
100
AcDbCircle
 10
-443.639441424063
 20
442.070004061207
 40
5.0
  0
CIRCLE
  5
260
100
AcDbEntity
  8
1
  6
CONTINUOUS
 62
           7
100
AcDbCircle
 10
-428.756548670043
 20
427.187111307187
 40
4.0
  0
CIRCLE
  5
25F
100
AcDbEntity
  8
1
  6
CONTINUOUS
 62
           3
100
AcDbCircle
 10
-428.756548670043
 20
427.187111307187
 40
5.0
  0
CIRCLE
  5
25E
100
AcDbEntity
  8
1
  6
CONTINUOUS
 62
           7
100
AcDbCircle
 10
-454.163235814103
 20
416.663316917147
 40
9.999999804762
  0
CIRCLE
  5
25D
100
AcDbEntity
  8
1
  6
DASH_CENTER
 62
           3
100
AcDbCircle
 10
-454.163235814103
 20
416.663316917147
 40
27.5
  0
CIRCLE
  5
25C
100
AcDbEntity
  8
1
  6
CONTINUOUS
 62
           7
100
AcDbCircle
 10
-479.569922958163
 20
406.139522527107
 40
4.0
  0
CIRCLE
  5
25B
100
AcDbEntity
  8
1
  6
CONTINUOUS
 62
           3
100
AcDbCircle
 10
-479.569922958163
 20
406.139522527107
 40
5.0
  0
CIRCLE
  5
25A
100
AcDbEntity
  8
1
  6
CONTINUOUS
 62
           7
100
AcDbCircle
 10
-479.569922958163
 20
427.187111307187
 40
4.0
  0
CIRCLE
  5
259
100
AcDbEntity
  8
1
  6
CONTINUOUS
 62
           3
100
AcDbCircle
 10
-479.569922958163
 20
427.187111307187
 40
5.0
  0
CIRCLE
  5
258
100
AcDbEntity
  8
1
  6
DASH_CENTER
 62
           3
100
AcDbCircle
 10
-454.163235814103
 20
416.663316917147
 40
17.0
  0
CIRCLE
  5
257
100
AcDbEntity
  8
1
  6
DASH_CENTER
 62
           3
100
AcDbCircle
 10
-454.163235814103
 20
416.663316917147
 40
20.0
  0
CIRCLE
  5
256
100
AcDbEntity
  8
1
  6
CONTINUOUS
 62
           7
100
AcDbCircle
 10
-454.163235814103
 20
416.663316917147
 40
56.5
  0
CIRCLE
  5
255
100
AcDbEntity
  8
1
  6
CONTINUOUS
 62
           7
100
AcDbCircle
 10
-454.163235814103
 20
416.663316917147
 40
55.749976160465
  0
CIRCLE
  5
254
100
AcDbEntity
  8
1
  6
CONTINUOUS
 62
           7
100
AcDbCircle
 10
-454.163235814103
 20
416.663316917147
 40
55.0
  0
CIRCLE
  5
253
100
AcDbEntity
  8
1
  6
DASH_CENTER
 62
           3
100
AcDbCircle
 10
-454.163235814103
 20
416.663316917147
 40
50.5
  0
CIRCLE
  5
252
100
AcDbEntity
  8
1
  6
CONTINUOUS
 62
           7
100
AcDbCircle
 10
-454.163235814103
 20
416.663316917147
 40
45.55
  0
CIRCLE
  5
251
100
AcDbEntity
  8
1
  6
CONTINUOUS
 62
           7
100
AcDbCircle
 10
-454.163235814103
 20
416.663316917147
 40
39.0
  0
CIRCLE
  5
250
100
AcDbEntity
  8
1
  6
CONTINUOUS
 62
           7
100
AcDbCircle
 10
-454.163235814103
 20
416.663316917147
 40
37.0
  0
CIRCLE
  5
24F
100
AcDbEntity
  8
1
  6
CONTINUOUS
 62
           7
100
AcDbCircle
 10
-454.163235814103
 20
416.663316917147
 40
34.3
  0
CIRCLE
  5
24E
100
AcDbEntity
  8
1
  6
CONTINUOUS
 62
           7
100
AcDbCircle
 10
-183.575603663045
 20
416.663316722881
 40
68.999999805734
  0
CIRCLE
  5
24D
100
AcDbEntity
  8
1
  6
DASH_CENTER
 62
           3
100
AcDbCircle
 10
-183.575604442771
 20
416.663316917147
 40
62.5
  0
CIRCLE
  5
24C
100
AcDbEntity
  8
1
  6
CONTINUOUS
 62
           7
100
AcDbCircle
 10
-183.575604442771
 20
479.163316917147
 40
3.3
  0
CIRCLE
  5
24B
100
AcDbEntity
  8
1
  6
CONTINUOUS
 62
           7
100
AcDbCircle
 10
-214.825604442771
 20
470.789904653675
 40
3.3
  0
CIRCLE
  5
24A
100
AcDbEntity
  8
1
  6
CONTINUOUS
 62
           7
100
AcDbCircle
 10
-237.702192179299
 20
447.913316917147
 40
3.3
  0
CIRCLE
  5
249
100
AcDbEntity
  8
1
  6
CONTINUOUS
 62
           7
100
AcDbCircle
 10
-246.075604442771
 20
416.663316917147
 40
3.3
  0
CIRCLE
  5
248
100
AcDbEntity
  8
1
  6
CONTINUOUS
 62
           7
100
AcDbCircle
 10
-237.702192179299
 20
385.413316917147
 40
3.3
  0
CIRCLE
  5
247
100
AcDbEntity
  8
1
  6
CONTINUOUS
 62
           7
100
AcDbCircle
 10
-214.825604442772
 20
362.53672918062
 40
3.3
  0
CIRCLE
  5
246
100
AcDbEntity
  8
1
  6
CONTINUOUS
 62
           7
100
AcDbCircle
 10
-183.575604442771
 20
354.163316917147
 40
3.3
  0
CIRCLE
  5
245
100
AcDbEntity
  8
1
  6
CONTINUOUS
 62
           7
100
AcDbCircle
 10
-152.325604442771
 20
362.53672918062
 40
3.3
  0
CIRCLE
  5
244
100
AcDbEntity
  8
1
  6
CONTINUOUS
 62
           7
100
AcDbCircle
 10
-129.449016706244
 20
385.413316917147
 40
3.3
  0
CIRCLE
  5
243
100
AcDbEntity
  8
1
  6
CONTINUOUS
 62
           7
100
AcDbCircle
 10
-121.075604442771
 20
416.663316917147
 40
3.3
  0
CIRCLE
  5
242
100
AcDbEntity
  8
1
  6
CONTINUOUS
 62
           7
100
AcDbCircle
 10
-129.449016706244
 20
447.913316917147
 40
3.3
  0
CIRCLE
  5
241
100
AcDbEntity
  8
1
  6
CONTINUOUS
 62
           7
100
AcDbCircle
 10
-152.325604442771
 20
470.789904653675
 40
3.3
  0
CIRCLE
  5
240
100
AcDbEntity
  8
1
  6
CONTINUOUS
 62
           3
100
AcDbCircle
 10
-222.846594787187
 20
446.797007653079
 40
3.0
  0
CIRCLE
  5
23F
100
AcDbEntity
  8
1
  6
CONTINUOUS
 62
           7
100
AcDbCircle
 10
-222.846594787187
 20
446.797007653079
 40
2.4
  0
CIRCLE
  5
23E
100
AcDbEntity
  8
1
  6
CONTINUOUS
 62
           3
100
AcDbCircle
 10
-153.441913706839
 20
455.934307261563
 40
3.0
  0
CIRCLE
  5
23D
100
AcDbEntity
  8
1
  6
CONTINUOUS
 62
           7
100
AcDbCircle
 10
-153.441913706839
 20
455.934307261563
 40
2.4
  0
CIRCLE
  5
23C
100
AcDbEntity
  8
1
  6
CONTINUOUS
 62
           3
100
AcDbCircle
 10
-144.304614098355
 20
386.529626181215
 40
3.0
  0
CIRCLE
  5
23B
100
AcDbEntity
  8
1
  6
CONTINUOUS
 62
           7
100
AcDbCircle
 10
-144.304614098355
 20
386.529626181215
 40
2.4
  0
CIRCLE
  5
23A
100
AcDbEntity
  8
1
  6
CONTINUOUS
 62
           7
100
AcDbCircle
 10
-213.709295178703
 20
377.392326572731
 40
2.4
  0
CIRCLE
  5
239
100
AcDbEntity
  8
1
  6
CONTINUOUS
 62
           3
100
AcDbCircle
 10
-213.709295178703
 20
377.392326572731
 40
3.0
  0
CIRCLE
  5
238
100
AcDbEntity
  8
1
  6
CONTINUOUS
 62
           7
100
AcDbCircle
 10
-183.575604442771
 20
416.663316917147
 40
7.0
  0
CIRCLE
  5
237
100
AcDbEntity
  8
1
  6
CONTINUOUS
 62
           7
100
AcDbCircle
 10
-183.575604442771
 20
416.663316917147
 40
9.0
  0
CIRCLE
  5
236
100
AcDbEntity
  8
1
  6
CONTINUOUS
 62
           7
100
AcDbCircle
 10
-183.575604442771
 20
416.663316917147
 40
29.99999932945
  0
CIRCLE
  5
235
100
AcDbEntity
  8
1
  6
CONTINUOUS
 62
           7
100
AcDbCircle
 10
-183.575604442771
 20
416.663316917147
 40
34.3
  0
CIRCLE
  5
234
100
AcDbEntity
  8
1
  6
CONTINUOUS
 62
           7
100
AcDbCircle
 10
-183.575604442771
 20
416.663316917147
 40
37.0
  0
CIRCLE
  5
233
100
AcDbEntity
  8
1
  6
CONTINUOUS
 62
           7
100
AcDbCircle
 10
-139.38142964462
 20
372.469143678447
 40
5.0
  0
CIRCLE
  5
232
100
AcDbEntity
  8
1
  6
CONTINUOUS
 62
           7
100
AcDbCircle
 10
-139.38142964462
 20
372.469143678447
 40
4.307179676972
  0
CIRCLE
  5
231
100
AcDbEntity
  8
1
  6
CONTINUOUS
 62
           7
100
AcDbCircle
 10
-227.769776707479
 20
372.469142704456
 40
5.0
  0
CIRCLE
  5
230
100
AcDbEntity
  8
1
  6
CONTINUOUS
 62
           7
100
AcDbCircle
 10
-227.769776707479
 20
372.469142704456
 40
4.307179676972
  0
CIRCLE
  5
22F
100
AcDbEntity
  8
1
  6
CONTINUOUS
 62
           7
100
AcDbCircle
 10
-227.76977768147
 20
460.857489767315
 40
5.0
  0
CIRCLE
  5
22E
100
AcDbEntity
  8
1
  6
CONTINUOUS
 62
           7
100
AcDbCircle
 10
-227.76977768147
 20
460.857489767315
 40
4.307179676972
  0
CIRCLE
  5
22D
100
AcDbEntity
  8
1
  6
CONTINUOUS
 62
           7
100
AcDbCircle
 10
-139.381430618612
 20
460.857490741306
 40
4.307179676972
  0
CIRCLE
  5
22C
100
AcDbEntity
  8
1
  6
CONTINUOUS
 62
           7
100
AcDbCircle
 10
-139.381430618612
 20
460.857490741306
 40
5.0
  0
CIRCLE
  5
22B
100
AcDbEntity
  8
1
  6
CONTINUOUS
 62
           3
100
AcDbCircle
 10
-319.313235778105
 20
416.663316917147
 40
2.5
  0
CIRCLE
  5
22A
100
AcDbEntity
  8
1
  6
CONTINUOUS
 62
           7
100
AcDbCircle
 10
-319.313235778105
 20
416.663316917147
 40
2.0
  0
CIRCLE
  5
229
100
AcDbEntity
  8
1
  6
CONTINUOUS
 62
           7
100
AcDbCircle
 10
-410.428952922989
 20
391.413316917147
 40
2.980384757729
  0
CIRCLE
  5
228
100
AcDbEntity
  8
1
  6
CONTINUOUS
 62
           7
100
AcDbCircle
 10
-410.428952922989
 20
391.413316917147
 40
3.5
  0
CIRCLE
  5
227
100
AcDbEntity
  8
1
  6
CONTINUOUS
 62
           7
100
AcDbCircle
 10
-403.663235814103
 20
416.663316917147
 40
3.5
  0
CIRCLE
  5
226
100
AcDbEntity
  8
1
  6
CONTINUOUS
 62
           7
100
AcDbCircle
 10
-403.663235814103
 20
416.663316917147
 40
2.980384757729
  0
CIRCLE
  5
225
100
AcDbEntity
  8
1
  6
CONTINUOUS
 62
           7
100
AcDbCircle
 10
-410.428952922989
 20
441.913316917147
 40
3.5
  0
CIRCLE
  5
224
100
AcDbEntity
  8
1
  6
CONTINUOUS
 62
           7
100
AcDbCircle
 10
-410.428952922989
 20
441.913316917147
 40
2.980384757729
  0
CIRCLE
  5
223
100
AcDbEntity
  8
1
  6
CONTINUOUS
 62
           7
100
AcDbCircle
 10
-428.913235814103
 20
460.397599808261
 40
2.980384757729
  0
CIRCLE
  5
222
100
AcDbEntity
  8
1
  6
CONTINUOUS
 62
           7
100
AcDbCircle
 10
-428.913235814103
 20
460.397599808261
 40
3.5
  0
CIRCLE
  5
221
100
AcDbEntity
  8
1
  6
CONTINUOUS
 62
           7
100
AcDbCircle
 10
-454.163235814103
 20
467.163316917147
 40
3.5
  0
CIRCLE
  5
220
100
AcDbEntity
  8
1
  6
CONTINUOUS
 62
           7
100
AcDbCircle
 10
-454.163235814103
 20
467.163316917147
 40
2.980384757729
  0
CIRCLE
  5
21F
100
AcDbEntity
  8
1
  6
CONTINUOUS
 62
           7
100
AcDbCircle
 10
-479.413235814103
 20
460.397599808261
 40
3.5
  0
CIRCLE
  5
21E
100
AcDbEntity
  8
1
  6
CONTINUOUS
 62
           7
100
AcDbCircle
 10
-479.413235814103
 20
460.397599808261
 40
2.980384757729
  0
CIRCLE
  5
21D
100
AcDbEntity
  8
1
  6
CONTINUOUS
 62
           7
100
AcDbCircle
 10
-497.897518705217
 20
441.913316917147
 40
2.980384757729
  0
CIRCLE
  5
21C
100
AcDbEntity
  8
1
  6
CONTINUOUS
 62
           7
100
AcDbCircle
 10
-497.897518705217
 20
441.913316917147
 40
3.5
  0
CIRCLE
  5
21B
100
AcDbEntity
  8
1
  6
CONTINUOUS
 62
           7
100
AcDbCircle
 10
-504.663235814103
 20
416.663316917147
 40
2.980384757729
  0
CIRCLE
  5
21A
100
AcDbEntity
  8
1
  6
CONTINUOUS
 62
           7
100
AcDbCircle
 10
-504.663235814103
 20
416.663316917147
 40
3.5
  0
CIRCLE
  5
219
100
AcDbEntity
  8
1
  6
CONTINUOUS
 62
           7
100
AcDbCircle
 10
-497.897518705217
 20
391.413316917147
 40
3.5
  0
CIRCLE
  5
218
100
AcDbEntity
  8
1
  6
CONTINUOUS
 62
           7
100
AcDbCircle
 10
-497.897518705217
 20
391.413316917147
 40
2.980384757729
  0
CIRCLE
  5
217
100
AcDbEntity
  8
1
  6
CONTINUOUS
 62
           7
100
AcDbCircle
 10
-479.413235814103
 20
372.929034026033
 40
2.980384757729
  0
CIRCLE
  5
216
100
AcDbEntity
  8
1
  6
CONTINUOUS
 62
           7
100
AcDbCircle
 10
-479.413235814103
 20
372.929034026033
 40
3.5
  0
CIRCLE
  5
215
100
AcDbEntity
  8
1
  6
CONTINUOUS
 62
           7
100
AcDbCircle
 10
-454.163235814103
 20
366.163316917147
 40
3.5
  0
CIRCLE
  5
214
100
AcDbEntity
  8
1
  6
CONTINUOUS
 62
           7
100
AcDbCircle
 10
-454.163235814103
 20
366.163316917147
 40
2.980384757729
  0
CIRCLE
  5
213
100
AcDbEntity
  8
1
  6
CONTINUOUS
 62
           7
100
AcDbCircle
 10
-428.913235814103
 20
372.929034026033
 40
3.5
  0
CIRCLE
  5
212
100
AcDbEntity
  8
1
  6
CONTINUOUS
 62
           7
100
AcDbCircle
 10
-428.913235814103
 20
372.929034026033
 40
2.980384757729
  0
ARC
  5
211
100
AcDbEntity
  8
1
  6
PHANTOM
 62
           7
100
AcDbCircle
 10
-300.324414931926
 20
252.890248337061
 40
12.0
100
AcDbArc
 50
-90.0
 51
0.0
  0
ARC
  5
210
100
AcDbEntity
  8
1
  6
PHANTOM
 62
           7
100
AcDbCircle
 10
-300.324414931926
 20
312.890248337061
 40
12.0
100
AcDbArc
 50
0.0
 51
90.0
  0
ARC
  5
20F
100
AcDbEntity
  8
1
  6
PHANTOM
 62
           7
100
AcDbCircle
 10
-472.324414931926
 20
312.890248337061
 40
12.0
100
AcDbArc
 50
90.0
 51
180.0
  0
ARC
  5
20E
100
AcDbEntity
  8
1
  6
PHANTOM
 62
           7
100
AcDbCircle
 10
-472.324414931926
 20
252.890248337061
 40
12.0
100
AcDbArc
 50
180.0
 51
-90.0
  0
ARC
  5
20D
100
AcDbEntity
  8
1
  6
CONTINUOUS
 62
           3
100
AcDbCircle
 10
-309.62052492332
 20
467.192163860828
 40
8.000000000003
100
AcDbArc
 50
62.392557950919
 51
102.653357513226
  0
ARC
  5
20C
100
AcDbEntity
  8
1
  6
CONTINUOUS
 62
           3
100
AcDbCircle
 10
-314.959202052106
 20
486.449451372202
 40
12.0
100
AcDbArc
 50
-104.250956899553
 51
-72.611148923819
  0
ARC
  5
20B
100
AcDbEntity
  8
1
  6
CONTINUOUS
 62
           7
100
AcDbCircle
 10
-339.713234847405
 20
391.710277241461
 40
2.0
100
AcDbArc
 50
180.0
 51
-90.0
  0
ARC
  5
20A
100
AcDbEntity
  8
1
  6
CONTINUOUS
 62
           3
100
AcDbCircle
 10
-358.916083204584
 20
389.660121142932
 40
11.45326010292
100
AcDbArc
 50
-110.425974428163
 51
-69.289161736135
  0
ARC
  5
209
100
AcDbEntity
  8
1
  6
CONTINUOUS
 62
           3
100
AcDbCircle
 10
-309.821226072439
 20
370.645412134067
 40
3.999999999996
100
AcDbArc
 50
-71.480308526862
 51
-12.31290586621
  0
ARC
  5
208
100
AcDbEntity
  8
1
  6
CONTINUOUS
 62
           3
100
AcDbCircle
 10
-303.614710639138
 20
351.632962256044
 40
15.999999999998
100
AcDbArc
 50
107.968831157408
 51
153.336548505532
  0
ARC
  5
207
100
AcDbEntity
  8
1
  6
CONTINUOUS
 62
           3
100
AcDbCircle
 10
-353.503275729203
 20
420.484731285449
 40
14.119617516923
100
AcDbArc
 50
66.801485214798
 51
131.793339935074
  0
ARC
  5
206
100
AcDbEntity
  8
1
  6
CONTINUOUS
 62
           3
100
AcDbCircle
 10
-342.208939906999
 20
451.608395521647
 40
19.029600950985
100
AcDbArc
 50
-107.531736155361
 51
-77.019436721323
  0
ARC
  5
205
100
AcDbEntity
  8
1
  6
CONTINUOUS
 62
           3
100
AcDbCircle
 10
-340.723922226321
 20
445.731930075544
 40
12.970358120345
100
AcDbArc
 50
-77.580882018595
 51
-22.305611088361
  0
ARC
  5
204
100
AcDbEntity
  8
1
  6
CONTINUOUS
 62
           3
100
AcDbCircle
 10
-321.077601344695
 20
438.45726178925
 40
8.000000000003
100
AcDbArc
 50
101.787271289666
 51
162.903834881884
  0
ARC
  5
203
100
AcDbEntity
  8
1
  6
CONTINUOUS
 62
           3
100
AcDbCircle
 10
-316.535967998286
 20
417.953802312366
 40
29.0
100
AcDbArc
 50
83.150152661406
 51
102.295916967741
  0
ARC
  5
202
100
AcDbEntity
  8
1
  6
CONTINUOUS
 62
           3
100
AcDbCircle
 10
-312.008656744971
 20
457.694781333184
 40
11.0
100
AcDbArc
 50
-56.349244517402
 51
-34.222839511864
  0
ARC
  5
201
100
AcDbEntity
  8
1
  6
CONTINUOUS
 62
           3
100
AcDbCircle
 10
-312.008656744971
 20
457.694781333184
 40
11.0
100
AcDbArc
 50
-95.574528482828
 51
-56.349244517402
  0
ARC
  5
200
100
AcDbEntity
  8
1
  6
CONTINUOUS
 62
           3
100
AcDbCircle
 10
-361.444512254326
 20
394.918631965988
 40
17.27352829143
100
AcDbArc
 50
-67.612681669541
 51
-49.702523741561
  0
ARC
  5
1FF
100
AcDbEntity
  8
1
  6
CONTINUOUS
 62
           3
100
AcDbCircle
 10
-332.412181538964
 20
363.977182795755
 40
25.192571626082
100
AcDbArc
 50
102.947225842581
 51
135.150502434012
  0
ARC
  5
1FE
100
AcDbEntity
  8
1
  6
CONTINUOUS
 62
           3
100
AcDbCircle
 10
-324.032913578995
 20
334.313651179602
 40
56.0
100
AcDbArc
 50
67.843539421204
 51
104.502611543718
  0
ARC
  5
1FD
100
AcDbEntity
  8
1
  6
CONTINUOUS
 62
           7
100
AcDbCircle
 10
-355.913235684336
 20
362.663316917147
 40
1.0
100
AcDbArc
 50
180.0
 51
-90.0
  0
ARC
  5
1FC
100
AcDbEntity
  8
1
  6
CONTINUOUS
 62
           7
100
AcDbCircle
 10
-355.913235684336
 20
470.663316917147
 40
1.0
100
AcDbArc
 50
90.0
 51
179.999999999977
  0
LINE
  5
1FB
100
AcDbEntity
  8
1
  6
PHANTOM
 62
           7
100
AcDbLine
 10
-300.324414931926
 20
324.890248337061
 11
-472.324414931926
 21
324.890248337061
  0
LINE
  5
1FA
100
AcDbEntity
  8
1
  6
PHANTOM
 62
           7
100
AcDbLine
 10
-288.324414931926
 20
252.890248337061
 11
-288.324414931926
 21
312.890248337061
  0
LINE
  5
1F9
100
AcDbEntity
  8
1
  6
PHANTOM
 62
           7
100
AcDbLine
 10
-472.324414931926
 20
240.890248337061
 11
-300.324414931926
 21
240.890248337061
  0
LINE
  5
1F8
100
AcDbEntity
  8
1
  6
PHANTOM
 62
           7
100
AcDbLine
 10
-484.324414931926
 20
312.890248337061
 11
-484.324414931926
 21
252.890248337061
  0
LINE
  5
1F7
100
AcDbEntity
  8
1
  6
DASH_CENTER
 62
           3
100
AcDbLine
 10
-216.448721609242
 20
373.822236541421
 11
-210.969868748164
 21
380.962416604042
  0
LINE
  5
1F6
100
AcDbEntity
  8
1
  6
CONTINUOUS
 62
           7
100
AcDbLine
 10
-305.913235814103
 20
351.163316917147
 11
-305.913235814103
 21
350.663316517901
  0
LINE
  5
1F5
100
AcDbEntity
  8
1
  6
CONTINUOUS
 62
           7
100
AcDbLine
 10
-305.913235814103
 20
481.913316917147
 11
-305.913235814103
 21
485.163316917147
  0
LINE
  5
1F4
100
AcDbEntity
  8
1
  6
CONTINUOUS
 62
           7
100
AcDbLine
 10
-305.913235814103
 20
481.913316917147
 11
-305.913235814103
 21
476.413316917147
  0
LINE
  5
1F3
100
AcDbEntity
  8
1
  6
CONTINUOUS
 62
           7
100
AcDbLine
 10
-317.913235814103
 20
481.913316917147
 11
-317.913235814103
 21
476.413316917147
  0
LINE
  5
1F2
100
AcDbEntity
  8
1
  6
CONTINUOUS
 62
           7
100
AcDbLine
 10
-305.913235814103
 20
481.913316917147
 11
-317.913235814103
 21
481.913316917147
  0
LINE
  5
1F1
100
AcDbEntity
  8
1
  6
CONTINUOUS
 62
           7
100
AcDbLine
 10
-305.913235814103
 20
476.413316917147
 11
-305.913235814103
 21
481.913316917147
  0
LINE
  5
1F0
100
AcDbEntity
  8
1
  6
CONTINUOUS
 62
           7
100
AcDbLine
 10
-305.913235814103
 20
476.413316917147
 11
-305.913235814103
 21
474.281311021152
  0
LINE
  5
1EF
100
AcDbEntity
  8
1
  6
CONTINUOUS
 62
           7
100
AcDbLine
 10
-317.913235814103
 20
476.413316917147
 11
-317.913235814103
 21
474.818729789559
  0
LINE
  5
1EE
100
AcDbEntity
  8
1
  6
CONTINUOUS
 62
           7
100
AcDbLine
 10
-305.913235814103
 20
476.413316917147
 11
-317.913235814103
 21
476.413316917147
  0
LINE
  5
1ED
100
AcDbEntity
  8
1
  6
DASH_CENTER
 62
           3
100
AcDbLine
 10
-319.120728032647
 20
479.163316917147
 11
-287.65520618303
 21
479.163316917147
  0
LINE
  5
1EC
100
AcDbEntity
  8
1
  6
CONTINUOUS
 62
           7
100
AcDbLine
 10
-305.913235814103
 20
474.281311021152
 11
-305.913235814103
 21
462.163316917147
  0
LINE
  5
1EB
100
AcDbEntity
  8
1
  6
CONTINUOUS
 62
           7
100
AcDbLine
 10
-305.913235814103
 20
474.281311021152
 11
-305.913235814103
 21
476.413316917147
  0
LINE
  5
1EA
100
AcDbEntity
  8
1
  6
CONTINUOUS
 62
           7
100
AcDbLine
 10
-317.913235814103
 20
474.818729789559
 11
-317.913235814103
 21
473.563316917147
  0
LINE
  5
1E9
100
AcDbEntity
  8
1
  6
CONTINUOUS
 62
           3
100
AcDbLine
 10
-317.913235814103
 20
357.163316917147
 11
-305.913235814103
 21
357.163316917147
  0
LINE
  5
1E8
100
AcDbEntity
  8
1
  6
CONTINUOUS
 62
           7
100
AcDbLine
 10
-317.913235814103
 20
356.363316917147
 11
-305.913235814103
 21
356.363316917147
  0
LINE
  5
1E7
100
AcDbEntity
  8
1
  6
DASH_CENTER
 62
           3
100
AcDbLine
 10
-149.850604442771
 20
358.249903431887
 11
-154.800604442771
 21
366.823554929353
  0
LINE
  5
1E6
100
AcDbEntity
  8
2
  6
DASH_CENTER
 62
           3
100
AcDbLine
 10
-283.510014134819
 20
416.663316917147
 11
-367.913235684337
 21
416.663316917147
  0
LINE
  5
1E5
100
AcDbEntity
  8
1
  6
CONTINUOUS
 62
           7
100
AcDbLine
 10
-346.413235814103
 20
373.918002830477
 11
-346.413235814103
 21
361.113340756683
  0
LINE
  5
1E4
100
AcDbEntity
  8
1
  6
CONTINUOUS
 62
           3
100
AcDbLine
 10
-346.213235814103
 20
375.807459997804
 11
-346.213235814103
 21
385.053154090809
  0
LINE
  5
1E3
100
AcDbEntity
  8
1
  6
DASH_CENTER
 62
           3
100
AcDbLine
 10
-349.663235684337
 20
379.326130994845
 11
-349.663235684337
 21
370.672760159957
  0
LINE
  5
1E2
100
AcDbEntity
  8
1
  6
DASH_CENTER
 62
           3
100
AcDbLine
 10
-354.029345285217
 20
375.063316917147
 11
-345.282927452103
 21
375.063316917147
  0
LINE
  5
1E1
100
AcDbEntity
  8
1
  6
PHANTOM
 62
           3
100
AcDbLine
 10
-353.198769590269
 20
375.063316917147
 11
-349.663235684337
 21
378.59885082308
  0
LINE
  5
1E0
100
AcDbEntity
  8
1
  6
PHANTOM
 62
           3
100
AcDbLine
 10
-349.663235684337
 20
371.527783011214
 11
-353.198769590269
 21
375.063316917147
  0
LINE
  5
1DF
100
AcDbEntity
  8
1
  6
PHANTOM
 62
           3
100
AcDbLine
 10
-346.127701778404
 20
375.063316917147
 11
-349.663235684337
 21
371.527783011214
  0
LINE
  5
1DE
100
AcDbEntity
  8
1
  6
PHANTOM
 62
           3
100
AcDbLine
 10
-349.663235684337
 20
378.59885082308
 11
-346.127701778404
 21
375.063316917147
  0
LINE
  5
1DD
100
AcDbEntity
  8
2
  6
DASH_CENTER
 62
           3
100
AcDbLine
 10
-301.491919467501
 20
416.663316917147
 11
-295.088899450679
 21
416.663316917147
  0
LINE
  5
1DC
100
AcDbEntity
  8
1
  6
DASH_CENTER
 62
           3
100
AcDbLine
 10
-286.663600719637
 20
416.663316917147
 11
-301.712642039707
 21
416.663316917147
  0
LINE
  5
1DB
100
AcDbEntity
  8
1
  6
CONTINUOUS
 62
           7
100
AcDbLine
 10
-305.913235814103
 20
350.863316917147
 11
-305.913235814103
 21
348.163316917147
  0
LINE
  5
1DA
100
AcDbEntity
  8
1
  6
CONTINUOUS
 62
           7
100
AcDbLine
 10
-305.913235814103
 20
485.163316917147
 11
-305.913235814103
 21
481.913316917147
  0
LINE
  5
1D9
100
AcDbEntity
  8
1
  6
CONTINUOUS
 62
           7
100
AcDbLine
 10
-305.913235814103
 20
462.163316917147
 11
-305.413235814103
 21
461.663316917147
  0
LINE
  5
1D8
100
AcDbEntity
  8
1
  6
CONTINUOUS
 62
           7
100
AcDbLine
 10
-305.913235814103
 20
371.163316917172
 11
-305.413235814103
 21
371.663316917172
  0
LINE
  5
1D7
100
AcDbEntity
  8
1
  6
CONTINUOUS
 62
           7
100
AcDbLine
 10
-305.413235701073
 20
461.663316917147
 11
-305.413235701036
 21
461.663316917147
  0
LINE
  5
1D6
100
AcDbEntity
  8
1
  6
CONTINUOUS
 62
           3
100
AcDbLine
 10
-322.913195014825
 20
360.163316917147
 11
-322.913195014825
 21
390.302455688513
  0
LINE
  5
1D5
100
AcDbEntity
  8
1
  6
CONTINUOUS
 62
           7
100
AcDbLine
 10
-323.163195014826
 20
360.413316917147
 11
-323.163195014826
 21
390.306897108189
  0
LINE
  5
1D4
100
AcDbEntity
  8
1
  6
CONTINUOUS
 62
           3
100
AcDbLine
 10
-346.213235814103
 20
360.913340756682
 11
-346.213235814103
 21
374.309310527853
  0
LINE
  5
1D3
100
AcDbEntity
  8
1
  6
CONTINUOUS
 62
           7
100
AcDbLine
 10
-318.313235814103
 20
473.163316917147
 11
-322.913195014826
 21
473.163316917147
  0
LINE
  5
1D2
100
AcDbEntity
  8
1
  6
CONTINUOUS
 62
           3
100
AcDbLine
 10
-322.913195014826
 20
473.163316917147
 11
-322.913195014826
 21
446.288564149414
  0
LINE
  5
1D1
100
AcDbEntity
  8
1
  6
CONTINUOUS
 62
           7
100
AcDbLine
 10
-323.163195014826
 20
472.913316917147
 11
-323.163195014826
 21
446.180622394784
  0
LINE
  5
1D0
100
AcDbEntity
  8
1
  6
CONTINUOUS
 62
           7
100
AcDbLine
 10
-317.913235814103
 20
473.563316917147
 11
-317.913235814103
 21
446.92107925314
  0
LINE
  5
1CF
100
AcDbEntity
  8
1
  6
DASH_CENTER
 62
           3
100
AcDbLine
 10
-441.644668148575
 20
411.4779564086
 11
-421.827452176208
 21
403.269396784369
  0
LINE
  5
1CE
100
AcDbEntity
  8
1
  6
DASH_CENTER
 62
           3
100
AcDbLine
 10
-448.977875305556
 20
429.181884582675
 11
-440.769315681325
 21
448.999100555042
  0
LINE
  5
1CD
100
AcDbEntity
  8
1
  6
CONTINUOUS
 62
           7
100
AcDbLine
 10
-344.913235814103
 20
432.663316917147
 11
-344.913235814103
 21
430.163316714341
  0
LINE
  5
1CC
100
AcDbEntity
  8
1
  6
CONTINUOUS
 62
           7
100
AcDbLine
 10
-333.913235814103
 20
434.744360303052
 11
-333.913235814103
 21
389.710277241461
  0
LINE
  5
1CB
100
AcDbEntity
  8
1
  6
CONTINUOUS
 62
           7
100
AcDbLine
 10
-347.913235814103
 20
426.66331672191
 11
-347.913235814103
 21
404.163316917147
  0
LINE
  5
1CA
100
AcDbEntity
  8
1
  6
CONTINUOUS
 62
           7
100
AcDbLine
 10
-347.913235814103
 20
404.163316917147
 11
-347.413236009178
 21
403.663317112222
  0
LINE
  5
1C9
100
AcDbEntity
  8
1
  6
CONTINUOUS
 62
           7
100
AcDbLine
 10
-347.913235814103
 20
429.163316721909
 11
-347.913235814103
 21
426.66331672191
  0
LINE
  5
1C8
100
AcDbEntity
  8
1
  6
CONTINUOUS
 62
           7
100
AcDbLine
 10
-347.41323581394
 20
429.663316722072
 11
-347.913235814103
 21
429.163316721909
  0
LINE
  5
1C7
100
AcDbEntity
  8
1
  6
CONTINUOUS
 62
           7
100
AcDbLine
 10
-347.913235814103
 20
406.663317112384
 11
-333.913235814103
 21
406.663317112384
  0
LINE
  5
1C6
100
AcDbEntity
  8
1
  6
CONTINUOUS
 62
           7
100
AcDbLine
 10
-347.913235814103
 20
426.66331672191
 11
-333.913235814103
 21
426.66331672191
  0
LINE
  5
1C5
100
AcDbEntity
  8
1
  6
CONTINUOUS
 62
           7
100
AcDbLine
 10
-341.713235814103
 20
403.663317112466
 11
-341.713235814103
 21
387.389915538991
  0
LINE
  5
1C4
100
AcDbEntity
  8
1
  6
CONTINUOUS
 62
           7
100
AcDbLine
 10
-341.713235814103
 20
432.163316917147
 11
-341.713235814103
 21
429.663316721828
  0
LINE
  5
1C3
100
AcDbEntity
  8
1
  6
CONTINUOUS
 62
           7
100
AcDbLine
 10
-344.913235814103
 20
432.163316917147
 11
-333.913235814103
 21
432.163316917147
  0
LINE
  5
1C2
100
AcDbEntity
  8
1
  6
CONTINUOUS
 62
           7
100
AcDbLine
 10
-339.713234847405
 20
389.710277241461
 11
-333.913235814103
 21
389.710277241461
  0
LINE
  5
1C1
100
AcDbEntity
  8
0
  6
CONTINUOUS
 62
           7
100
AcDbLine
 10
-344.913235814103
 20
430.163316714341
 11
-344.413235821633
 21
429.663316721943
  0
LINE
  5
1C0
100
AcDbEntity
  8
0
  6
CONTINUOUS
 62
           7
100
AcDbLine
 10
-347.41323581394
 20
429.663316722072
 11
-341.713235814103
 21
429.663316721828
  0
LINE
  5
1BF
100
AcDbEntity
  8
0
  6
CONTINUOUS
 62
           7
100
AcDbLine
 10
-342.213235806556
 20
429.66331672185
 11
-341.71323581408
 21
430.163316714374
  0
LINE
  5
1BE
100
AcDbEntity
  8
1
  6
CONTINUOUS
 62
           7
100
AcDbLine
 10
-302.913235814103
 20
459.021816917147
 11
-302.913235814103
 21
451.508238026108
  0
LINE
  5
1BD
100
AcDbEntity
  8
1
  6
CONTINUOUS
 62
           7
100
AcDbLine
 10
-342.353235684336
 20
387.125424794102
 11
-342.353235684336
 21
390.163317307655
  0
LINE
  5
1BC
100
AcDbEntity
  8
0
  6
CONTINUOUS
 62
           7
100
AcDbLine
 10
-342.853235684336
 20
390.663317307655
 11
-344.913235814103
 21
390.663317307655
  0
LINE
  5
1BB
100
AcDbEntity
  8
0
  6
CONTINUOUS
 62
           7
100
AcDbLine
 10
-344.413235821633
 20
403.663317112351
 11
-344.913235814103
 21
403.16331711992
  0
LINE
  5
1BA
100
AcDbEntity
  8
0
  6
CONTINUOUS
 62
           7
100
AcDbLine
 10
-341.713235814103
 20
403.663317112466
 11
-347.413236009178
 21
403.663317112222
  0
LINE
  5
1B9
100
AcDbEntity
  8
0
  6
CONTINUOUS
 62
           7
100
AcDbLine
 10
-341.713235814103
 20
403.163317119943
 11
-342.213235806556
 21
403.663317112444
  0
LINE
  5
1B8
100
AcDbEntity
  8
1
  6
CONTINUOUS
 62
           7
100
AcDbLine
 10
-346.413235814103
 20
384.920824893534
 11
-346.413235814103
 21
376.086965495929
  0
LINE
  5
1B7
100
AcDbEntity
  8
1
  6
CONTINUOUS
 62
           7
100
AcDbLine
 10
-302.913235814103
 20
386.178467877506
 11
-302.913235814103
 21
372.163316917147
  0
LINE
  5
1B6
100
AcDbEntity
  8
1
  6
CONTINUOUS
 62
           7
100
AcDbLine
 10
-346.413235814103
 20
472.213293077611
 11
-346.413235814103
 21
433.049041861587
  0
LINE
  5
1B5
100
AcDbEntity
  8
1
  6
CONTINUOUS
 62
           7
100
AcDbLine
 10
-307.413235814103
 20
365.163316917147
 11
-307.413235814103
 21
362.863316917147
  0
LINE
  5
1B4
100
AcDbEntity
  8
1
  6
CONTINUOUS
 62
           7
100
AcDbLine
 10
-307.213235814103
 20
362.663316917147
 11
-306.113235814103
 21
362.663316917147
  0
LINE
  5
1B3
100
AcDbEntity
  8
1
  6
CONTINUOUS
 62
           7
100
AcDbLine
 10
-306.113235814103
 20
362.663316917147
 11
-305.913235814103
 21
362.463316917147
  0
LINE
  5
1B2
100
AcDbEntity
  8
1
  6
CONTINUOUS
 62
           7
100
AcDbLine
 10
-306.113235814103
 20
365.363316917147
 11
-307.213235814103
 21
365.363316917147
  0
LINE
  5
1B1
100
AcDbEntity
  8
1
  6
CONTINUOUS
 62
           7
100
AcDbLine
 10
-305.913235814103
 20
365.563316917147
 11
-306.113235814103
 21
365.363316917147
  0
LINE
  5
1B0
100
AcDbEntity
  8
1
  6
CONTINUOUS
 62
           7
100
AcDbLine
 10
-322.913195014825
 20
360.163316917147
 11
-318.313235814103
 21
360.163316917147
  0
LINE
  5
1AF
100
AcDbEntity
  8
1
  6
CONTINUOUS
 62
           7
100
AcDbLine
 10
-322.913195014826
 20
473.163316917147
 11
-318.313235814103
 21
473.163316917147
  0
LINE
  5
1AE
100
AcDbEntity
  8
1
  6
CONTINUOUS
 62
           7
100
AcDbLine
 10
-303.413235814103
 20
461.663316917147
 11
-305.513235814103
 21
461.663316917147
  0
LINE
  5
1AD
100
AcDbEntity
  8
1
  6
CONTINUOUS
 62
           7
100
AcDbLine
 10
-305.913235814103
 20
462.063316917147
 11
-305.913235814103
 21
462.163316917147
  0
LINE
  5
1AC
100
AcDbEntity
  8
1
  6
CONTINUOUS
 62
           7
100
AcDbLine
 10
-306.413235814103
 20
485.663316917147
 11
-317.413195014826
 21
485.663316917147
  0
LINE
  5
1AB
100
AcDbEntity
  8
1
  6
CONTINUOUS
 62
           7
100
AcDbLine
 10
-317.913235814103
 20
485.16327611787
 11
-317.913235814103
 21
481.913316917147
  0
LINE
  5
1AA
100
AcDbEntity
  8
1
  6
CONTINUOUS
 62
           7
100
AcDbLine
 10
-302.913235814103
 20
461.163316917147
 11
-302.913235814103
 21
459.021816917147
  0
LINE
  5
1A9
100
AcDbEntity
  8
1
  6
CONTINUOUS
 62
           7
100
AcDbLine
 10
-303.413235814103
 20
371.663316917147
 11
-305.513235814103
 21
371.663316917147
  0
LINE
  5
1A8
100
AcDbEntity
  8
1
  6
CONTINUOUS
 62
           7
100
AcDbLine
 10
-306.413235814103
 20
347.663316917147
 11
-317.413195014826
 21
347.663316917147
  0
LINE
  5
1A7
100
AcDbEntity
  8
1
  6
CONTINUOUS
 62
           7
100
AcDbLine
 10
-317.913235814103
 20
485.16327611787
 11
-317.413195014826
 21
485.663316917147
  0
LINE
  5
1A6
100
AcDbEntity
  8
1
  6
CONTINUOUS
 62
           7
100
AcDbLine
 10
-317.413195014826
 20
347.663316917147
 11
-317.913235814103
 21
348.163357716424
  0
LINE
  5
1A5
100
AcDbEntity
  8
1
  6
CONTINUOUS
 62
           7
100
AcDbLine
 10
-323.163195014826
 20
360.413316917147
 11
-343.663223843828
 21
360.913340756682
  0
LINE
  5
1A4
100
AcDbEntity
  8
1
  6
CONTINUOUS
 62
           7
100
AcDbLine
 10
-322.913195014825
 20
360.163316917147
 11
-323.163195014826
 21
360.413316917147
  0
LINE
  5
1A3
100
AcDbEntity
  8
1
  6
CONTINUOUS
 62
           7
100
AcDbLine
 10
-323.163195014826
 20
472.913316917147
 11
-322.913195014826
 21
473.163316917147
  0
LINE
  5
1A2
100
AcDbEntity
  8
1
  6
CONTINUOUS
 62
           7
100
AcDbLine
 10
-303.413235814103
 20
371.663316917147
 11
-302.913235814103
 21
372.163316917147
  0
LINE
  5
1A1
100
AcDbEntity
  8
1
  6
CONTINUOUS
 62
           7
100
AcDbLine
 10
-302.913235814103
 20
461.163316917147
 11
-303.413235814103
 21
461.663316917147
  0
LINE
  5
1A0
100
AcDbEntity
  8
1
  6
CONTINUOUS
 62
           7
100
AcDbLine
 10
-306.413235814103
 20
347.663316917147
 11
-305.913235814103
 21
348.163316917147
  0
LINE
  5
19F
100
AcDbEntity
  8
1
  6
CONTINUOUS
 62
           7
100
AcDbLine
 10
-306.413235814103
 20
485.663316917147
 11
-305.913235814103
 21
485.163316917147
  0
LINE
  5
19E
100
AcDbEntity
  8
1
  6
CONTINUOUS
 62
           7
100
AcDbLine
 10
-346.213235814103
 20
472.413293077612
 11
-343.663223843828
 21
472.413293077612
  0
LINE
  5
19D
100
AcDbEntity
  8
1
  6
CONTINUOUS
 62
           7
100
AcDbLine
 10
-346.213235814103
 20
472.413293077612
 11
-346.413235814103
 21
472.213293077611
  0
LINE
  5
19C
100
AcDbEntity
  8
1
  6
CONTINUOUS
 62
           7
100
AcDbLine
 10
-343.663223843828
 20
360.913340756682
 11
-346.213235814103
 21
360.913340756682
  0
LINE
  5
19B
100
AcDbEntity
  8
1
  6
CONTINUOUS
 62
           7
100
AcDbLine
 10
-346.213235814103
 20
360.913340756682
 11
-346.413235814103
 21
361.113340756683
  0
LINE
  5
19A
100
AcDbEntity
  8
1
  6
DASH_CENTER
 62
           3
100
AcDbLine
 10
-340.713235814103
 20
399.663316917147
 11
-364.906576904433
 21
399.663316917147
  0
LINE
  5
199
100
AcDbEntity
  8
1
  6
DASH_CENTER
 62
           3
100
AcDbLine
 10
-364.413235684337
 20
389.163316917147
 11
-341.103834607578
 21
389.163316917147
  0
LINE
  5
198
100
AcDbEntity
  8
1
  6
CONTINUOUS
 62
           7
100
AcDbLine
 10
-344.913235814103
 20
390.663317307655
 11
-344.913235814103
 21
397.163317112432
  0
LINE
  5
197
100
AcDbEntity
  8
1
  6
CONTINUOUS
 62
           7
100
AcDbLine
 10
-344.913235814103
 20
402.163317112434
 11
-344.913235814103
 21
403.16331711992
  0
LINE
  5
196
100
AcDbEntity
  8
1
  6
DASH_CENTER
 62
           3
100
AcDbLine
 10
-459.34859632265
 20
404.144749251619
 11
-467.557155946881
 21
384.327533279252
  0
LINE
  5
195
100
AcDbEntity
  8
1
  6
DASH_CENTER
 62
           3
100
AcDbLine
 10
-466.681803479631
 20
421.848677425694
 11
-486.499019451998
 21
430.057237049925
  0
LINE
  5
194
100
AcDbEntity
  8
1
  6
DASH_CENTER
 62
           3
100
AcDbLine
 10
-426.113235814103
 20
368.07929176484
 11
-431.713235814103
 21
377.778776287226
  0
LINE
  5
193
100
AcDbEntity
  8
1
  6
DASH_CENTER
 62
           3
100
AcDbLine
 10
-431.713235814103
 20
455.547857547068
 11
-426.113235814103
 21
465.247342069454
  0
LINE
  5
192
100
AcDbEntity
  8
1
  6
DASH_CENTER
 62
           3
100
AcDbLine
 10
-476.613235814103
 20
377.778776287226
 11
-482.213235814103
 21
368.07929176484
  0
LINE
  5
191
100
AcDbEntity
  8
1
  6
DASH_CENTER
 62
           3
100
AcDbLine
 10
-493.047776444024
 20
394.213316917147
 11
-502.74726096641
 21
388.613316917147
  0
LINE
  5
190
100
AcDbEntity
  8
1
  6
DASH_CENTER
 62
           3
100
AcDbLine
 10
-502.74726096641
 20
444.713316917147
 11
-493.047776444024
 21
439.113316917147
  0
LINE
  5
18F
100
AcDbEntity
  8
1
  6
DASH_CENTER
 62
           3
100
AcDbLine
 10
-454.163235814103
 20
354.663316917147
 11
-454.163235814103
 21
478.663316917147
  0
LINE
  5
18E
100
AcDbEntity
  8
1
  6
DASH_CENTER
 62
           3
100
AcDbLine
 10
-514.563235814103
 20
416.663316917147
 11
-392.163235814103
 21
416.663316917147
  0
LINE
  5
18D
100
AcDbEntity
  8
1
  6
DASH_CENTER
 62
           3
100
AcDbLine
 10
-486.499019451998
 20
403.269396784369
 11
-466.681803479631
 21
411.4779564086
  0
LINE
  5
18C
100
AcDbEntity
  8
1
  6
DASH_CENTER
 62
           3
100
AcDbLine
 10
-467.557155946881
 20
448.999100555042
 11
-459.34859632265
 21
429.181884582675
  0
LINE
  5
18B
100
AcDbEntity
  8
1
  6
DASH_CENTER
 62
           3
100
AcDbLine
 10
-421.827452176208
 20
430.057237049925
 11
-441.644668148575
 21
421.848677425694
  0
LINE
  5
18A
100
AcDbEntity
  8
1
  6
DASH_CENTER
 62
           3
100
AcDbLine
 10
-482.213235814103
 20
465.247342069454
 11
-476.613235814103
 21
455.547857547068
  0
LINE
  5
189
100
AcDbEntity
  8
1
  6
DASH_CENTER
 62
           3
100
AcDbLine
 10
-440.769315681325
 20
384.327533279252
 11
-448.977875305556
 21
404.144749251619
  0
LINE
  5
188
100
AcDbEntity
  8
1
  6
DASH_CENTER
 62
           3
100
AcDbLine
 10
-472.548012124953
 20
435.048093227997
 11
-464.062730750715
 21
426.562811853759
  0
LINE
  5
187
100
AcDbEntity
  8
1
  6
DASH_CENTER
 62
           3
100
AcDbLine
 10
-435.778459503253
 20
435.048093227998
 11
-444.263740877491
 21
426.562811853759
  0
LINE
  5
186
100
AcDbEntity
  8
1
  6
DASH_CENTER
 62
           3
100
AcDbLine
 10
-472.548012124953
 20
398.278540606296
 11
-464.062730750715
 21
406.763821980535
  0
LINE
  5
185
100
AcDbEntity
  8
1
  6
DASH_CENTER
 62
           3
100
AcDbLine
 10
-435.778459503253
 20
398.278540606297
 11
-444.263740877491
 21
406.763821980536
  0
LINE
  5
184
100
AcDbEntity
  8
1
  6
DASH_CENTER
 62
           3
100
AcDbLine
 10
-415.278695184182
 20
439.113316917147
 11
-405.579210661796
 21
444.713316917147
  0
LINE
  5
183
100
AcDbEntity
  8
1
  6
DASH_CENTER
 62
           3
100
AcDbLine
 10
-405.579210661796
 20
388.613316917147
 11
-415.278695184182
 21
394.213316917147
  0
LINE
  5
182
100
AcDbEntity
  8
1
  6
DASH_CENTER
 62
           3
100
AcDbLine
 10
-281.513235679365
 20
354.163316917147
 11
-319.613235679365
 21
354.163316917147
  0
LINE
  5
181
100
AcDbEntity
  8
1
  6
CONTINUOUS
 62
           7
100
AcDbLine
 10
-305.913235814103
 20
351.163316917147
 11
-305.913235814103
 21
348.163316917147
  0
LINE
  5
180
100
AcDbEntity
  8
1
  6
CONTINUOUS
 62
           7
100
AcDbLine
 10
-343.663223843828
 20
472.413293077612
 11
-323.163195014826
 21
472.913316917147
  0
LINE
  5
17F
100
AcDbEntity
  8
1
  6
CONTINUOUS
 62
           3
100
AcDbLine
 10
-305.913235814103
 20
351.163316917147
 11
-317.913235814103
 21
351.163316917147
  0
LINE
  5
17E
100
AcDbEntity
  8
1
  6
CONTINUOUS
 62
           7
100
AcDbLine
 10
-305.913235814103
 20
351.963316917147
 11
-317.913235814103
 21
351.963316917147
  0
LINE
  5
17D
100
AcDbEntity
  8
1
  6
DASH_CENTER
 62
           3
100
AcDbLine
 10
-281.513235679365
 20
354.163316917147
 11
-319.613235679365
 21
354.163316917147
  0
LINE
  5
17C
100
AcDbEntity
  8
1
  6
CONTINUOUS
 62
           7
100
AcDbLine
 10
-305.913235814103
 20
462.163316917147
 11
-305.913235814103
 21
448.538043722247
  0
LINE
  5
17B
100
AcDbEntity
  8
1
  6
CONTINUOUS
 62
           7
100
AcDbLine
 10
-305.913235814103
 20
462.163316917147
 11
-305.913235814103
 21
474.281311021152
  0
LINE
  5
17A
100
AcDbEntity
  8
1
  6
DASH_CENTER
 62
           3
100
AcDbLine
 10
-331.450818907943
 20
436.663316917147
 11
-324.888771342408
 21
436.663316917147
  0
LINE
  5
179
100
AcDbEntity
  8
1
  6
DASH_CENTER
 62
           3
100
AcDbLine
 10
-217.300604442771
 20
475.076730402408
 11
-212.350604442771
 21
466.503078904942
  0
LINE
  5
178
100
AcDbEntity
  8
1
  6
DASH_CENTER
 62
           3
100
AcDbLine
 10
-241.989017928032
 20
450.388316917147
 11
-233.415366430566
 21
445.438316917147
  0
LINE
  5
177
100
AcDbEntity
  8
1
  6
DASH_CENTER
 62
           3
100
AcDbLine
 10
-241.989017928032
 20
382.938316917147
 11
-233.415366430566
 21
387.888316917147
  0
LINE
  5
176
100
AcDbEntity
  8
1
  6
DASH_CENTER
 62
           3
100
AcDbLine
 10
-217.300604442771
 20
358.249903431887
 11
-212.350604442772
 21
366.823554929353
  0
LINE
  5
175
100
AcDbEntity
  8
1
  6
DASH_CENTER
 62
           3
100
AcDbLine
 10
-125.162190957511
 20
382.938316917147
 11
-133.735842454977
 21
387.888316917147
  0
LINE
  5
174
100
AcDbEntity
  8
1
  6
DASH_CENTER
 62
           3
100
AcDbLine
 10
-125.162190957511
 20
450.388316917147
 11
-133.735842454977
 21
445.438316917147
  0
LINE
  5
173
100
AcDbEntity
  8
1
  6
DASH_CENTER
 62
           3
100
AcDbLine
 10
-149.850604442771
 20
475.076730402408
 11
-154.800604442771
 21
466.503078904942
  0
LINE
  5
172
100
AcDbEntity
  8
1
  6
DASH_CENTER
 62
           3
100
AcDbLine
 10
-144.187657025376
 20
456.051264334542
 11
-134.785236385536
 21
465.453684974382
  0
LINE
  5
171
100
AcDbEntity
  8
1
  6
DASH_CENTER
 62
           3
100
AcDbLine
 10
-222.963551274706
 20
456.05126336055
 11
-232.365971914546
 21
465.453684000391
  0
LINE
  5
170
100
AcDbEntity
  8
1
  6
DASH_CENTER
 62
           3
100
AcDbLine
 10
-222.963550300714
 20
377.275369111221
 11
-232.365970940555
 21
367.87294847138
  0
LINE
  5
16F
100
AcDbEntity
  8
1
  6
DASH_CENTER
 62
           3
100
AcDbLine
 10
-144.187656051385
 20
377.275370085212
 11
-134.785235411544
 21
367.872949445372
  0
LINE
  5
16E
100
AcDbEntity
  8
1
  6
DASH_CENTER
 62
           3
100
AcDbLine
 10
-226.416684818498
 20
449.536434083618
 11
-219.276504755877
 21
444.057581222539
  0
LINE
  5
16D
100
AcDbEntity
  8
1
  6
DASH_CENTER
 62
           3
100
AcDbLine
 10
-150.7024872763
 20
459.504397292873
 11
-156.181340137379
 21
452.364217230252
  0
LINE
  5
16C
100
AcDbEntity
  8
1
  6
DASH_CENTER
 62
           3
100
AcDbLine
 10
-140.734524067045
 20
383.790199750676
 11
-147.874704129666
 21
389.269052611754
  0
LINE
  5
16B
100
AcDbEntity
  8
1
  6
CONTINUOUS
 62
           7
100
AcDbLine
 10
-136.593041965494
 20
371.721997451641
 11
-137.340188192301
 21
374.510385130767
  0
LINE
  5
16A
100
AcDbEntity
  8
1
  6
CONTINUOUS
 62
           7
100
AcDbLine
 10
-137.340188192301
 20
374.510385130767
 11
-140.128575871427
 21
375.257531357574
  0
LINE
  5
169
100
AcDbEntity
  8
1
  6
CONTINUOUS
 62
           7
100
AcDbLine
 10
-140.128575871427
 20
375.257531357574
 11
-142.169817323746
 21
373.216289905254
  0
LINE
  5
168
100
AcDbEntity
  8
1
  6
CONTINUOUS
 62
           7
100
AcDbLine
 10
-142.169817323746
 20
373.216289905254
 11
-141.42267109694
 21
370.427902226128
  0
LINE
  5
167
100
AcDbEntity
  8
1
  6
CONTINUOUS
 62
           7
100
AcDbLine
 10
-141.42267109694
 20
370.427902226128
 11
-138.634283417814
 21
369.680755999321
  0
LINE
  5
166
100
AcDbEntity
  8
1
  6
CONTINUOUS
 62
           7
100
AcDbLine
 10
-138.634283417814
 20
369.680755999321
 11
-136.593041965494
 21
371.721997451641
  0
LINE
  5
165
100
AcDbEntity
  8
1
  6
CONTINUOUS
 62
           7
100
AcDbLine
 10
-228.516922934285
 20
369.68075502533
 11
-225.728535255159
 21
370.427901252137
  0
LINE
  5
164
100
AcDbEntity
  8
1
  6
CONTINUOUS
 62
           7
100
AcDbLine
 10
-225.728535255159
 20
370.427901252137
 11
-224.981389028353
 21
373.216288931263
  0
LINE
  5
163
100
AcDbEntity
  8
1
  6
CONTINUOUS
 62
           7
100
AcDbLine
 10
-224.981389028353
 20
373.216288931263
 11
-227.022630480672
 21
375.257530383582
  0
LINE
  5
162
100
AcDbEntity
  8
1
  6
CONTINUOUS
 62
           7
100
AcDbLine
 10
-227.022630480672
 20
375.257530383582
 11
-229.811018159798
 21
374.510384156775
  0
LINE
  5
161
100
AcDbEntity
  8
1
  6
CONTINUOUS
 62
           7
100
AcDbLine
 10
-229.811018159798
 20
374.510384156775
 11
-230.558164386605
 21
371.721996477649
  0
LINE
  5
160
100
AcDbEntity
  8
1
  6
CONTINUOUS
 62
           7
100
AcDbLine
 10
-230.558164386605
 20
371.721996477649
 11
-228.516922934285
 21
369.68075502533
  0
LINE
  5
15F
100
AcDbEntity
  8
1
  6
CONTINUOUS
 62
           7
100
AcDbLine
 10
-230.558165360596
 20
461.604635994121
 11
-229.811019133789
 21
458.816248314995
  0
LINE
  5
15E
100
AcDbEntity
  8
1
  6
CONTINUOUS
 62
           7
100
AcDbLine
 10
-229.811019133789
 20
458.816248314995
 11
-227.022631454663
 21
458.069102088189
  0
LINE
  5
15D
100
AcDbEntity
  8
1
  6
CONTINUOUS
 62
           7
100
AcDbLine
 10
-227.022631454663
 20
458.069102088189
 11
-224.981390002344
 21
460.110343540508
  0
LINE
  5
15C
100
AcDbEntity
  8
1
  6
CONTINUOUS
 62
           7
100
AcDbLine
 10
-224.981390002344
 20
460.110343540508
 11
-225.728536229151
 21
462.898731219634
  0
LINE
  5
15B
100
AcDbEntity
  8
1
  6
CONTINUOUS
 62
           7
100
AcDbLine
 10
-225.728536229151
 20
462.898731219634
 11
-228.516923908277
 21
463.645877446441
  0
LINE
  5
15A
100
AcDbEntity
  8
1
  6
CONTINUOUS
 62
           7
100
AcDbLine
 10
-228.516923908277
 20
463.645877446441
 11
-230.558165360596
 21
461.604635994121
  0
LINE
  5
159
100
AcDbEntity
  8
1
  6
CONTINUOUS
 62
           7
100
AcDbLine
 10
-136.593042939486
 20
461.604636968113
 11
-138.634284391805
 21
463.645878420432
  0
LINE
  5
158
100
AcDbEntity
  8
1
  6
CONTINUOUS
 62
           7
100
AcDbLine
 10
-137.340189166292
 20
458.816249288987
 11
-136.593042939486
 21
461.604636968113
  0
LINE
  5
157
100
AcDbEntity
  8
1
  6
CONTINUOUS
 62
           7
100
AcDbLine
 10
-140.128576845419
 20
458.06910306218
 11
-137.340189166292
 21
458.816249288987
  0
LINE
  5
156
100
AcDbEntity
  8
1
  6
CONTINUOUS
 62
           7
100
AcDbLine
 10
-142.169818297738
 20
460.1103445145
 11
-140.128576845419
 21
458.06910306218
  0
LINE
  5
155
100
AcDbEntity
  8
1
  6
CONTINUOUS
 62
           7
100
AcDbLine
 10
-141.422672070931
 20
462.898732193625
 11
-142.169818297738
 21
460.1103445145
  0
LINE
  5
154
100
AcDbEntity
  8
1
  6
CONTINUOUS
 62
           7
100
AcDbLine
 10
-138.634284391805
 20
463.645878420432
 11
-141.422672070931
 21
462.898732193625
  0
LINE
  5
153
100
AcDbEntity
  8
1
  6
CONTINUOUS
 62
           7
100
AcDbLine
 10
-305.913235814103
 20
351.163316917147
 11
-305.913235814103
 21
348.163316917147
  0
LINE
  5
152
100
AcDbEntity
  8
1
  6
CONTINUOUS
 62
           7
100
AcDbLine
 10
-288.91324021512
 20
350.863316917147
 11
-305.913235814103
 21
350.863316917147
  0
LINE
  5
151
100
AcDbEntity
  8
1
  6
CONTINUOUS
 62
           7
100
AcDbLine
 10
-288.91324021512
 20
357.463316917147
 11
-305.913235814103
 21
357.463316917147
  0
LINE
  5
150
100
AcDbEntity
  8
1
  6
CONTINUOUS
 62
           7
100
AcDbLine
 10
-291.913240310121
 20
386.663317587697
 11
-291.913240310121
 21
446.663316246597
  0
LINE
  5
14F
100
AcDbEntity
  8
1
  6
CONTINUOUS
 62
           7
100
AcDbLine
 10
-292.413240310121
 20
407.663316917147
 11
-291.913240310121
 21
407.163316917147
  0
LINE
  5
14E
100
AcDbEntity
  8
1
  6
CONTINUOUS
 62
           7
100
AcDbLine
 10
-291.913240310121
 20
426.163316917147
 11
-292.413240310121
 21
425.663316917147
  0
LINE
  5
14D
100
AcDbEntity
  8
1
  6
CONTINUOUS
 62
           7
100
AcDbLine
 10
-300.913235814085
 20
425.663316917147
 11
-292.413240310121
 21
425.663316917147
  0
LINE
  5
14C
100
AcDbEntity
  8
1
  6
CONTINUOUS
 62
           7
100
AcDbLine
 10
-300.913235814085
 20
407.663316917147
 11
-292.413240310121
 21
407.663316917147
  0
LINE
  5
14B
100
AcDbEntity
  8
1
  6
CONTINUOUS
 62
           7
100
AcDbLine
 10
-301.413235814085
 20
407.163316917147
 11
-300.913235814085
 21
407.663316917147
  0
LINE
  5
14A
100
AcDbEntity
  8
1
  6
CONTINUOUS
 62
           7
100
AcDbLine
 10
-301.413235814085
 20
426.163316917147
 11
-300.913235814085
 21
425.663316917147
  0
LINE
  5
149
100
AcDbEntity
  8
1
  6
CONTINUOUS
 62
           7
100
AcDbLine
 10
-291.913240310121
 20
446.663316246597
 11
-289.41324021512
 21
446.663316246597
  0
LINE
  5
148
100
AcDbEntity
  8
1
  6
CONTINUOUS
 62
           7
100
AcDbLine
 10
-305.413235814103
 20
461.663316917147
 11
-301.413235814085
 21
461.663316917147
  0
LINE
  5
147
100
AcDbEntity
  8
1
  6
CONTINUOUS
 62
           7
100
AcDbLine
 10
-305.913235814103
 20
485.163316917147
 11
-305.913235814103
 21
462.163316917147
  0
LINE
  5
146
100
AcDbEntity
  8
1
  6
CONTINUOUS
 62
           7
100
AcDbLine
 10
-289.41324021512
 20
446.663316246597
 11
-288.91324021512
 21
447.163316246597
  0
LINE
  5
145
100
AcDbEntity
  8
1
  6
CONTINUOUS
 62
           7
100
AcDbLine
 10
-305.913235814103
 20
462.163316917147
 11
-305.413235814103
 21
461.663316917147
  0
LINE
  5
144
100
AcDbEntity
  8
1
  6
CONTINUOUS
 62
           7
100
AcDbLine
 10
-289.41324021512
 20
485.663316917147
 11
-288.91324021512
 21
485.163316917147
  0
LINE
  5
143
100
AcDbEntity
  8
1
  6
CONTINUOUS
 62
           7
100
AcDbLine
 10
-305.913235814103
 20
485.163316917147
 11
-305.413235814103
 21
485.663316917147
  0
LINE
  5
142
100
AcDbEntity
  8
1
  6
CONTINUOUS
 62
           7
100
AcDbLine
 10
-301.413235814085
 20
461.663316917147
 11
-301.413235814085
 21
371.663316917147
  0
LINE
  5
141
100
AcDbEntity
  8
1
  6
CONTINUOUS
 62
           7
100
AcDbLine
 10
-289.41324021512
 20
485.663316917147
 11
-305.413235814103
 21
485.663316917147
  0
LINE
  5
140
100
AcDbEntity
  8
1
  6
CONTINUOUS
 62
           7
100
AcDbLine
 10
-305.413235701073
 20
461.663316917147
 11
-305.413235701036
 21
461.663316917147
  0
LINE
  5
13F
100
AcDbEntity
  8
1
  6
DASH_CENTER
 62
           3
100
AcDbLine
 10
-286.663600719637
 20
416.663316917147
 11
-301.712642039707
 21
416.663316917147
  0
LINE
  5
13E
100
AcDbEntity
  8
1
  6
CONTINUOUS
 62
           7
100
AcDbLine
 10
-288.913240215121
 20
450.963316917147
 11
-290.41324021512
 21
450.963316917147
  0
LINE
  5
13D
100
AcDbEntity
  8
1
  6
CONTINUOUS
 62
           7
100
AcDbLine
 10
-290.41324021512
 20
450.963316917147
 11
-290.41324021512
 21
453.663316917147
  0
LINE
  5
13C
100
AcDbEntity
  8
1
  6
CONTINUOUS
 62
           7
100
AcDbLine
 10
-290.41324021512
 20
453.663316917147
 11
-288.91324021512
 21
453.663316917147
  0
LINE
  5
13B
100
AcDbEntity
  8
1
  6
CONTINUOUS
 62
           7
100
AcDbLine
 10
-288.91324021512
 20
481.913316917147
 11
-305.913235814103
 21
481.913316917147
  0
LINE
  5
13A
100
AcDbEntity
  8
1
  6
CONTINUOUS
 62
           7
100
AcDbLine
 10
-288.91324021512
 20
476.413316917147
 11
-305.913235814103
 21
476.413316917147
  0
LINE
  5
139
100
AcDbEntity
  8
1
  6
CONTINUOUS
 62
           7
100
AcDbLine
 10
-288.91324021512
 20
379.663316917147
 11
-290.41324021512
 21
379.663316917147
  0
LINE
  5
138
100
AcDbEntity
  8
1
  6
CONTINUOUS
 62
           7
100
AcDbLine
 10
-290.41324021512
 20
379.663316917147
 11
-290.41324021512
 21
382.363316917147
  0
LINE
  5
137
100
AcDbEntity
  8
1
  6
CONTINUOUS
 62
           7
100
AcDbLine
 10
-290.41324021512
 20
382.363316917147
 11
-288.913240215121
 21
382.363316917147
  0
LINE
  5
136
100
AcDbEntity
  8
1
  6
CONTINUOUS
 62
           7
100
AcDbLine
 10
-305.413235701036
 20
371.663316917147
 11
-305.413235701073
 21
371.663316917147
  0
LINE
  5
135
100
AcDbEntity
  8
1
  6
CONTINUOUS
 62
           7
100
AcDbLine
 10
-305.413235814103
 20
347.663316917147
 11
-289.41324021512
 21
347.663316917147
  0
LINE
  5
134
100
AcDbEntity
  8
1
  6
CONTINUOUS
 62
           7
100
AcDbLine
 10
-305.413235814103
 20
347.663316917147
 11
-305.913235814103
 21
348.163316917147
  0
LINE
  5
133
100
AcDbEntity
  8
1
  6
CONTINUOUS
 62
           7
100
AcDbLine
 10
-288.91324021512
 20
348.163316917147
 11
-289.41324021512
 21
347.663316917147
  0
LINE
  5
132
100
AcDbEntity
  8
1
  6
CONTINUOUS
 62
           7
100
AcDbLine
 10
-305.413235814103
 20
371.663316917147
 11
-305.913235814103
 21
371.163316917147
  0
LINE
  5
131
100
AcDbEntity
  8
1
  6
CONTINUOUS
 62
           7
100
AcDbLine
 10
-288.91324021512
 20
386.163317587697
 11
-289.41324021512
 21
386.663317587697
  0
LINE
  5
130
100
AcDbEntity
  8
1
  6
CONTINUOUS
 62
           7
100
AcDbLine
 10
-301.413235814085
 20
371.663316917147
 11
-305.413235814103
 21
371.663316917147
  0
LINE
  5
12F
100
AcDbEntity
  8
1
  6
CONTINUOUS
 62
           7
100
AcDbLine
 10
-289.41324021512
 20
386.663317587697
 11
-291.913240310121
 21
386.663317587697
  0
LINE
  5
12E
100
AcDbEntity
  8
1
  6
CONTINUOUS
 62
           7
100
AcDbLine
 10
-283.313240215121
 20
349.163316917147
 11
-283.313240215121
 21
359.163316917147
  0
LINE
  5
12D
100
AcDbEntity
  8
1
  6
CONTINUOUS
 62
           7
100
AcDbLine
 10
-313.113240215121
 20
357.163316917147
 11
-313.113240215121
 21
351.163316917147
  0
LINE
  5
12C
100
AcDbEntity
  8
1
  6
CONTINUOUS
 62
           7
100
AcDbLine
 10
-290.91324021512
 20
351.163316917147
 11
-289.16324021512
 21
351.163316917147
  0
LINE
  5
12B
100
AcDbEntity
  8
1
  6
CONTINUOUS
 62
           7
100
AcDbLine
 10
-290.91324021512
 20
357.163316917147
 11
-305.913235814103
 21
357.163316917147
  0
LINE
  5
12A
100
AcDbEntity
  8
1
  6
CONTINUOUS
 62
           7
100
AcDbLine
 10
-290.91324021512
 20
351.163316917147
 11
-290.91324021512
 21
357.163316917147
  0
LINE
  5
129
100
AcDbEntity
  8
1
  6
CONTINUOUS
 62
           7
100
AcDbLine
 10
-313.113240215121
 20
351.163316917147
 11
-290.91324021512
 21
351.163316917147
  0
LINE
  5
128
100
AcDbEntity
  8
1
  6
CONTINUOUS
 62
           7
100
AcDbLine
 10
-313.91324021512
 20
351.963316917147
 11
-313.113240215121
 21
351.163316917147
  0
LINE
  5
127
100
AcDbEntity
  8
1
  6
CONTINUOUS
 62
           7
100
AcDbLine
 10
-313.91324021512
 20
356.363316917147
 11
-313.91324021512
 21
351.963316917147
  0
LINE
  5
126
100
AcDbEntity
  8
1
  6
CONTINUOUS
 62
           7
100
AcDbLine
 10
-313.113240215121
 20
357.163316917147
 11
-313.91324021512
 21
356.363316917147
  0
LINE
  5
125
100
AcDbEntity
  8
1
  6
CONTINUOUS
 62
           7
100
AcDbLine
 10
-289.16324021512
 20
357.163316917147
 11
-290.91324021512
 21
357.163316917147
  0
LINE
  5
124
100
AcDbEntity
  8
1
  6
CONTINUOUS
 62
           7
100
AcDbLine
 10
-283.313240215121
 20
359.163316917147
 11
-288.91324021512
 21
359.163316917147
  0
LINE
  5
123
100
AcDbEntity
  8
1
  6
CONTINUOUS
 62
           7
100
AcDbLine
 10
-282.91324021512
 20
358.763316917147
 11
-283.313240215121
 21
359.163316917147
  0
LINE
  5
122
100
AcDbEntity
  8
1
  6
CONTINUOUS
 62
           7
100
AcDbLine
 10
-282.91324021512
 20
349.563316917147
 11
-282.91324021512
 21
358.763316917147
  0
LINE
  5
121
100
AcDbEntity
  8
1
  6
CONTINUOUS
 62
           7
100
AcDbLine
 10
-283.313240215121
 20
349.163316917147
 11
-282.91324021512
 21
349.563316917147
  0
LINE
  5
120
100
AcDbEntity
  8
1
  6
CONTINUOUS
 62
           7
100
AcDbLine
 10
-288.91324021512
 20
349.163316917147
 11
-283.313240215121
 21
349.163316917147
  0
LINE
  5
11F
100
AcDbEntity
  8
1
  6
CONTINUOUS
 62
           3
100
AcDbLine
 10
-290.91324021512
 20
356.363316917147
 11
-289.527599569065
 21
357.163316917147
  0
LINE
  5
11E
100
AcDbEntity
  8
1
  6
CONTINUOUS
 62
           3
100
AcDbLine
 10
-290.91324021512
 20
351.963316917147
 11
-289.527599569065
 21
351.163316917147
  0
LINE
  5
11D
100
AcDbEntity
  8
1
  6
CONTINUOUS
 62
           3
100
AcDbLine
 10
-290.91324021512
 20
356.363316917147
 11
-313.91324021512
 21
356.363316917147
  0
LINE
  5
11C
100
AcDbEntity
  8
1
  6
CONTINUOUS
 62
           3
100
AcDbLine
 10
-290.91324021512
 20
351.963316917147
 11
-313.91324021512
 21
351.963316917147
  0
LINE
  5
11B
100
AcDbEntity
  8
1
  6
DASH_CENTER
 62
           3
100
AcDbLine
 10
-319.313235778105
 20
420.663316917147
 11
-319.313235778105
 21
420.063316917147
  0
LINE
  5
11A
100
AcDbEntity
  8
1
  6
DASH_CENTER
 62
           3
100
AcDbLine
 10
-319.313235778105
 20
412.663316917147
 11
-319.313235778105
 21
420.663316917147
  0
LINE
  5
119
100
AcDbEntity
  8
1
  6
DASH_CENTER
 62
           3
100
AcDbLine
 10
-322.613235778105
 20
416.663316917147
 11
-315.313235778105
 21
416.663316917147
  0
LINE
  5
118
100
AcDbEntity
  8
1
  6
CONTINUOUS
 62
           7
100
AcDbLine
 10
-317.313235778105
 20
423.663316917147
 11
-321.313235778105
 21
423.663316917147
  0
LINE
  5
117
100
AcDbEntity
  8
1
  6
CONTINUOUS
 62
           7
100
AcDbLine
 10
-317.313235778105
 20
429.663316917147
 11
-317.313235778105
 21
423.663316917147
  0
LINE
  5
116
100
AcDbEntity
  8
1
  6
CONTINUOUS
 62
           7
100
AcDbLine
 10
-321.313235778105
 20
423.663316917147
 11
-321.813235778105
 21
423.663316917147
  0
LINE
  5
115
100
AcDbEntity
  8
1
  6
CONTINUOUS
 62
           7
100
AcDbLine
 10
-321.313235778105
 20
429.663316917147
 11
-321.313235778105
 21
423.663316917147
  0
LINE
  5
114
100
AcDbEntity
  8
1
  6
DASH_CENTER
 62
           3
100
AcDbLine
 10
-319.313235778105
 20
431.263316917147
 11
-319.313235778105
 21
420.663316917147
  0
LINE
  5
113
100
AcDbEntity
  8
1
  6
CONTINUOUS
 62
           7
100
AcDbLine
 10
-316.813235778105
 20
423.663316917147
 11
-317.313235778105
 21
423.663316917147
  0
LINE
  5
112
100
AcDbEntity
  8
1
  6
CONTINUOUS
 62
           3
100
AcDbLine
 10
-316.813235778105
 20
429.663316917147
 11
-316.813235778105
 21
423.663316917147
  0
LINE
  5
111
100
AcDbEntity
  8
1
  6
CONTINUOUS
 62
           7
100
AcDbLine
 10
-321.813235778105
 20
423.663316917147
 11
-323.213235778105
 21
423.663316917147
  0
LINE
  5
110
100
AcDbEntity
  8
1
  6
CONTINUOUS
 62
           3
100
AcDbLine
 10
-321.813235778105
 20
429.663316917147
 11
-321.813235778105
 21
423.663316917147
  0
LINE
  5
10F
100
AcDbEntity
  8
1
  6
CONTINUOUS
 62
           7
100
AcDbLine
 10
-307.513235778105
 20
423.663316917147
 11
-316.813235778105
 21
423.663316917147
  0
LINE
  5
10E
100
AcDbEntity
  8
1
  6
CONTINUOUS
 62
           7
100
AcDbLine
 10
-315.913235778105
 20
403.663316917147
 11
-315.913235778105
 21
389.721871078907
  0
LINE
  5
10D
100
AcDbEntity
  8
1
  6
CONTINUOUS
 62
           7
100
AcDbLine
 10
-315.913235778105
 20
403.663316917147
 11
-323.613235778105
 21
403.663316917147
  0
LINE
  5
10C
100
AcDbEntity
  8
1
  6
CONTINUOUS
 62
           7
100
AcDbLine
 10
-307.513235778104
 20
409.663316917147
 11
-307.113235778105
 21
409.263316917147
  0
LINE
  5
10B
100
AcDbEntity
  8
1
  6
CONTINUOUS
 62
           7
100
AcDbLine
 10
-323.213235778105
 20
409.663316917147
 11
-323.613235778105
 21
409.263316917147
  0
LINE
  5
10A
100
AcDbEntity
  8
1
  6
CONTINUOUS
 62
           7
100
AcDbLine
 10
-323.213235778105
 20
423.663316917147
 11
-323.613235778105
 21
424.063316917148
  0
LINE
  5
109
100
AcDbEntity
  8
1
  6
CONTINUOUS
 62
           7
100
AcDbLine
 10
-307.113235778105
 20
424.063316917148
 11
-307.513235778105
 21
423.663316917147
  0
LINE
  5
108
100
AcDbEntity
  8
1
  6
CONTINUOUS
 62
           7
100
AcDbLine
 10
-307.513235778104
 20
409.663316917147
 11
-323.213235778105
 21
409.663316917147
  0
LINE
  5
107
100
AcDbEntity
  8
1
  6
CONTINUOUS
 62
           7
100
AcDbLine
 10
-315.913235778105
 20
446.127316917147
 11
-315.913235778105
 21
429.663316917147
  0
LINE
  5
106
100
AcDbEntity
  8
0
  6
CONTINUOUS
 62
           7
100
AcDbLine
 10
-315.913235778105
 20
446.127316917147
 11
-307.113235778105
 21
446.127316917147
  0
LINE
  5
105
100
AcDbEntity
  8
1
  6
CONTINUOUS
 62
           3
100
AcDbLine
 10
-347.484860609668
 20
384.163316917147
 11
-362.913235684337
 21
384.163316917147
  0
LINE
  5
104
100
AcDbEntity
  8
1
  6
CONTINUOUS
 62
           7
100
AcDbLine
 10
-346.04351992247
 20
385.163316917147
 11
-362.913235684337
 21
385.163316917147
  0
LINE
  5
103
100
AcDbEntity
  8
1
  6
CONTINUOUS
 62
           3
100
AcDbLine
 10
-362.413235684337
 20
377.663316917147
 11
-362.413235684337
 21
378.755699869109
  0
LINE
  5
102
100
AcDbEntity
  8
1
  6
CONTINUOUS
 62
           3
100
AcDbLine
 10
-362.413235684337
 20
455.663316917147
 11
-362.413235684337
 21
431.441353208793
  0
LINE
  5
101
100
AcDbEntity
  8
1
  6
CONTINUOUS
 62
           7
100
AcDbLine
 10
-349.913235684336
 20
362.663316917147
 11
-346.413235814103
 21
362.663316917147
  0
LINE
  5
100
100
AcDbEntity
  8
1
  6
CONTINUOUS
 62
           7
100
AcDbLine
 10
-344.913235814103
 20
430.163316721943
 11
-344.913235814103
 21
432.663316917147
  0
LINE
  5
FF
100
AcDbEntity
  8
1
  6
CONTINUOUS
 62
           7
100
AcDbLine
 10
-344.913235814103
 20
403.163317112385
 11
-344.913235814103
 21
385.849295339935
  0
LINE
  5
FE
100
AcDbEntity
  8
1
  6
CONTINUOUS
 62
           7
100
AcDbLine
 10
-343.413235814103
 20
390.663317307655
 11
-343.413235814103
 21
386.640864534844
  0
LINE
  5
FD
100
AcDbEntity
  8
1
  6
CONTINUOUS
 62
           7
100
AcDbLine
 10
-355.913235814103
 20
429.663316721866
 11
-345.413235814134
 21
429.663316721909
  0
LINE
  5
FC
100
AcDbEntity
  8
1
  6
CONTINUOUS
 62
           7
100
AcDbLine
 10
-362.913235684337
 20
455.374641782552
 11
-362.413235684337
 21
455.663316917104
  0
LINE
  5
FB
100
AcDbEntity
  8
1
  6
CONTINUOUS
 62
           7
100
AcDbLine
 10
-362.913235684337
 20
455.374641782552
 11
-362.413235684337
 21
455.663316917147
  0
LINE
  5
FA
100
AcDbEntity
  8
1
  6
CONTINUOUS
 62
           7
100
AcDbLine
 10
-362.413235684337
 20
455.663316917147
 11
-361.713235684336
 21
455.663316917147
  0
LINE
  5
F9
100
AcDbEntity
  8
1
  6
CONTINUOUS
 62
           7
100
AcDbLine
 10
-346.413235814103
 20
470.663316917147
 11
-349.913235684336
 21
470.663316917147
  0
LINE
  5
F8
100
AcDbEntity
  8
1
  6
CONTINUOUS
 62
           7
100
AcDbLine
 10
-344.913235814103
 20
430.163316721943
 11
-345.413235814134
 21
429.663316721909
  0
LINE
  5
F7
100
AcDbEntity
  8
1
  6
CONTINUOUS
 62
           7
100
AcDbLine
 10
-344.913235814103
 20
403.163317112385
 11
-345.413235814103
 21
403.663317112385
  0
LINE
  5
F6
100
AcDbEntity
  8
1
  6
CONTINUOUS
 62
           7
100
AcDbLine
 10
-362.913235684337
 20
430.163316721866
 11
-362.413235684337
 21
429.663316721866
  0
LINE
  5
F5
100
AcDbEntity
  8
1
  6
CONTINUOUS
 62
           7
100
AcDbLine
 10
-362.413235684337
 20
403.663317112385
 11
-362.913235684337
 21
403.163317112385
  0
LINE
  5
F4
100
AcDbEntity
  8
1
  6
CONTINUOUS
 62
           7
100
AcDbLine
 10
-356.013235814103
 20
403.663317112385
 11
-345.413235814103
 21
403.663317112385
  0
LINE
  5
F3
100
AcDbEntity
  8
1
  6
CONTINUOUS
 62
           3
100
AcDbLine
 10
-362.913235684337
 20
394.163316917147
 11
-344.913235814103
 21
394.163316917147
  0
LINE
  5
F2
100
AcDbEntity
  8
1
  6
CONTINUOUS
 62
           7
100
AcDbLine
 10
-362.913235684337
 20
455.374641782552
 11
-362.913235684337
 21
378.163316917147
  0
LINE
  5
F1
100
AcDbEntity
  8
1
  6
CONTINUOUS
 62
           7
100
AcDbLine
 10
-362.913235684337
 20
393.163316917147
 11
-344.913235814103
 21
393.163316917147
  0
LINE
  5
F0
100
AcDbEntity
  8
1
  6
CONTINUOUS
 62
           7
100
AcDbLine
 10
-362.913235684337
 20
385.163316917147
 11
-362.913235684337
 21
377.951992051785
  0
LINE
  5
EF
100
AcDbEntity
  8
1
  6
CONTINUOUS
 62
           7
100
AcDbLine
 10
-362.913235684337
 20
382.363316917147
 11
-361.413235684337
 21
382.363316917147
  0
LINE
  5
EE
100
AcDbEntity
  8
1
  6
CONTINUOUS
 62
           7
100
AcDbLine
 10
-361.413235684337
 20
382.363316917147
 11
-361.413235684337
 21
379.663316917147
  0
LINE
  5
ED
100
AcDbEntity
  8
1
  6
CONTINUOUS
 62
           7
100
AcDbLine
 10
-362.913235684337
 20
379.663316917147
 11
-361.413235684337
 21
379.663316917147
  0
LINE
  5
EC
100
AcDbEntity
  8
1
  6
CONTINUOUS
 62
           7
100
AcDbLine
 10
-362.413235684337
 20
403.663317112385
 11
-355.913235814103
 21
403.663317112385
  0
LINE
  5
EB
100
AcDbEntity
  8
1
  6
CONTINUOUS
 62
           7
100
AcDbLine
 10
-362.413235684337
 20
429.663316721866
 11
-355.913235814103
 21
429.663316721866
  0
LINE
  5
EA
100
AcDbEntity
  8
0
  6
CONTINUOUS
 62
           7
100
AcDbLine
 10
-344.913235814135
 20
430.163316714374
 11
-344.913235814103
 21
430.163316714374
  0
LINE
  5
E9
100
AcDbEntity
  8
1
  6
CONTINUOUS
 62
           7
100
AcDbLine
 10
-345.413235814103
 20
429.663316721909
 11
-344.913235814103
 21
430.163316721909
  0
LINE
  5
E8
100
AcDbEntity
  8
1
  6
CONTINUOUS
 62
           7
100
AcDbLine
 10
-345.413235814103
 20
429.663316721909
 11
-344.913235814103
 21
430.163316721909
  0
LINE
  5
E7
100
AcDbEntity
  8
1
  6
CONTINUOUS
 62
           7
100
AcDbLine
 10
-362.413235684337
 20
377.663316917147
 11
-362.913235684337
 21
377.951992051742
  0
LINE
  5
E6
100
AcDbEntity
  8
1
  6
CONTINUOUS
 62
           7
100
AcDbLine
 10
-362.413235684337
 20
377.663316917147
 11
-361.713235684336
 21
377.663316917147
  0
LINE
  5
E5
100
AcDbEntity
  8
1
  6
CONTINUOUS
 62
           7
100
AcDbLine
 10
-362.913235684337
 20
455.374641782552
 11
-362.413235684337
 21
455.663316917147
  0
LINE
  5
E4
100
AcDbEntity
  8
1
  6
CONTINUOUS
 62
           7
100
AcDbLine
 10
-362.913235684337
 20
455.374641782552
 11
-362.413235684337
 21
455.663316917147
  0
LINE
  5
E3
100
AcDbEntity
  8
1
  6
CONTINUOUS
 62
           7
100
AcDbLine
 10
-362.913235684337
 20
455.374641782552
 11
-362.413235684337
 21
455.663316917147
  0
LINE
  5
E2
100
AcDbEntity
  8
1
  6
CONTINUOUS
 62
           3
100
AcDbLine
 10
-357.913234847405
 20
432.663316917147
 11
-360.647899640617
 21
432.663316917147
  0
LINE
  5
E1
100
AcDbEntity
  8
1
  6
CONTINUOUS
 62
           3
100
AcDbLine
 10
-361.713235684336
 20
377.663316917147
 11
-361.713235684336
 21
378.554834112556
  0
LINE
  5
E0
100
AcDbEntity
  8
1
  6
CONTINUOUS
 62
           3
100
AcDbLine
 10
-361.713235684336
 20
455.663316917147
 11
-361.713235684336
 21
431.968909330223
  0
LINE
  5
DF
100
AcDbEntity
  8
1
  6
CONTINUOUS
 62
           7
100
AcDbLine
 10
-361.713235684336
 20
377.663316917147
 11
-361.413235684336
 21
376.963316917147
  0
LINE
  5
DE
100
AcDbEntity
  8
1
  6
CONTINUOUS
 62
           7
100
AcDbLine
 10
-356.913235684336
 20
362.663316917147
 11
-356.913235684336
 21
378.383341070777
  0
LINE
  5
DD
100
AcDbEntity
  8
1
  6
CONTINUOUS
 62
           7
100
AcDbLine
 10
-361.113235684336
 20
373.663316917147
 11
-361.413235684336
 21
373.863316917147
  0
LINE
  5
DC
100
AcDbEntity
  8
1
  6
CONTINUOUS
 62
           7
100
AcDbLine
 10
-361.113235684336
 20
378.421105866002
 11
-361.113235684336
 21
371.913316917147
  0
LINE
  5
DB
100
AcDbEntity
  8
1
  6
CONTINUOUS
 62
           7
100
AcDbLine
 10
-361.413235684336
 20
373.863316917147
 11
-361.413235684336
 21
378.482159830528
  0
LINE
  5
DA
100
AcDbEntity
  8
1
  6
CONTINUOUS
 62
           7
100
AcDbLine
 10
-349.913235684336
 20
382.036062159502
 11
-349.913235684336
 21
379.761113548066
  0
LINE
  5
D9
100
AcDbEntity
  8
1
  6
CONTINUOUS
 62
           7
100
AcDbLine
 10
-355.913235684336
 20
361.663316917147
 11
-349.913235684336
 21
361.663316917147
  0
LINE
  5
D8
100
AcDbEntity
  8
1
  6
CONTINUOUS
 62
           7
100
AcDbLine
 10
-349.913235684336
 20
471.663316917147
 11
-355.913235684336
 21
471.663316917147
  0
LINE
  5
D7
100
AcDbEntity
  8
1
  6
CONTINUOUS
 62
           7
100
AcDbLine
 10
-349.913235684336
 20
471.663316917147
 11
-349.913235684336
 21
434.140323960262
  0
LINE
  5
D6
100
AcDbEntity
  8
1
  6
CONTINUOUS
 62
           7
100
AcDbLine
 10
-361.413235684336
 20
432.180719158747
 11
-361.413235684336
 21
459.463316917147
  0
LINE
  5
D5
100
AcDbEntity
  8
1
  6
CONTINUOUS
 62
           7
100
AcDbLine
 10
-361.113235684336
 20
461.413316917147
 11
-361.113235684336
 21
432.37682402096
  0
LINE
  5
D4
100
AcDbEntity
  8
1
  6
CONTINUOUS
 62
           7
100
AcDbLine
 10
-361.413235684336
 20
459.463316917147
 11
-361.113235684336
 21
459.663316917147
  0
LINE
  5
D3
100
AcDbEntity
  8
1
  6
CONTINUOUS
 62
           7
100
AcDbLine
 10
-356.913235684337
 20
434.18328882654
 11
-356.913235684336
 21
470.663316917147
  0
LINE
  5
D2
100
AcDbEntity
  8
1
  6
CONTINUOUS
 62
           7
100
AcDbLine
 10
-361.413235684336
 20
456.363316917147
 11
-361.713235684336
 21
455.663316917147
  0
LINE
  5
D1
100
AcDbEntity
  8
1
  6
CONTINUOUS
 62
           7
100
AcDbLine
 10
-349.913235684336
 20
369.974026003981
 11
-349.913235684336
 21
361.663316917147
  0
LINE
  5
D0
100
AcDbEntity
  8
1
  6
CONTINUOUS
 62
           7
100
AcDbLine
 10
-356.913235684336
 20
456.897599808261
 11
-356.913235684336
 21
463.897599808261
  0
LINE
  5
CF
100
AcDbEntity
  8
1
  6
CONTINUOUS
 62
           7
100
AcDbLine
 10
-356.913235684336
 20
463.897599808261
 11
-360.613235684336
 21
463.897599808261
  0
LINE
  5
CE
100
AcDbEntity
  8
1
  6
CONTINUOUS
 62
           7
100
AcDbLine
 10
-360.613235684336
 20
463.897599808261
 11
-360.913235684336
 21
463.597599808261
  0
LINE
  5
CD
100
AcDbEntity
  8
1
  6
CONTINUOUS
 62
           7
100
AcDbLine
 10
-360.913235684336
 20
463.597599808261
 11
-360.913235684336
 21
457.197599808261
  0
LINE
  5
CC
100
AcDbEntity
  8
1
  6
CONTINUOUS
 62
           7
100
AcDbLine
 10
-360.913235684336
 20
457.197599808261
 11
-360.613235684336
 21
456.897599808261
  0
LINE
  5
CB
100
AcDbEntity
  8
1
  6
CONTINUOUS
 62
           7
100
AcDbLine
 10
-360.613235684336
 20
456.897599808261
 11
-356.913235684336
 21
456.897599808261
  0
LINE
  5
CA
100
AcDbEntity
  8
1
  6
CONTINUOUS
 62
           7
100
AcDbLine
 10
-360.613235684336
 20
463.897599808261
 11
-360.613235684336
 21
456.897599808261
  0
LINE
  5
C9
100
AcDbEntity
  8
1
  6
CONTINUOUS
 62
           7
100
AcDbLine
 10
-360.613235684336
 20
470.663316917147
 11
-360.613235684336
 21
463.897599808261
  0
LINE
  5
C8
100
AcDbEntity
  8
1
  6
CONTINUOUS
 62
           7
100
AcDbLine
 10
-360.913235684336
 20
463.963316917147
 11
-360.730377129894
 21
463.780458362704
  0
LINE
  5
C7
100
AcDbEntity
  8
1
  6
CONTINUOUS
 62
           7
100
AcDbLine
 10
-360.913235684336
 20
470.363316917147
 11
-360.913235684336
 21
463.963316917147
  0
LINE
  5
C6
100
AcDbEntity
  8
1
  6
CONTINUOUS
 62
           7
100
AcDbLine
 10
-360.613235684336
 20
470.663316917147
 11
-360.913235684336
 21
470.363316917147
  0
LINE
  5
C5
100
AcDbEntity
  8
1
  6
CONTINUOUS
 62
           7
100
AcDbLine
 10
-356.913235684336
 20
470.663316917147
 11
-360.613235684336
 21
470.663316917147
  0
LINE
  5
C4
100
AcDbEntity
  8
1
  6
CONTINUOUS
 62
           7
100
AcDbLine
 10
-356.913235684336
 20
463.663316917147
 11
-356.913235684336
 21
470.663316917147
  0
LINE
  5
C3
100
AcDbEntity
  8
1
  6
CONTINUOUS
 62
           7
100
AcDbLine
 10
-360.613235684336
 20
445.413316917147
 11
-360.613235684336
 21
438.413316917147
  0
LINE
  5
C2
100
AcDbEntity
  8
1
  6
CONTINUOUS
 62
           7
100
AcDbLine
 10
-360.613235684336
 20
438.413316917147
 11
-356.913235684336
 21
438.413316917147
  0
LINE
  5
C1
100
AcDbEntity
  8
1
  6
CONTINUOUS
 62
           7
100
AcDbLine
 10
-360.913235684336
 20
438.713316917147
 11
-360.613235684336
 21
438.413316917147
  0
LINE
  5
C0
100
AcDbEntity
  8
1
  6
CONTINUOUS
 62
           7
100
AcDbLine
 10
-360.913235684336
 20
445.113316917147
 11
-360.913235684336
 21
438.713316917147
  0
LINE
  5
BF
100
AcDbEntity
  8
1
  6
CONTINUOUS
 62
           7
100
AcDbLine
 10
-360.613235684336
 20
445.413316917147
 11
-360.913235684336
 21
445.113316917147
  0
LINE
  5
BE
100
AcDbEntity
  8
1
  6
CONTINUOUS
 62
           7
100
AcDbLine
 10
-356.913235684336
 20
445.413316917147
 11
-360.613235684336
 21
445.413316917147
  0
LINE
  5
BD
100
AcDbEntity
  8
1
  6
CONTINUOUS
 62
           7
100
AcDbLine
 10
-356.913235684336
 20
438.413316917147
 11
-356.913235684336
 21
445.413316917147
  0
LINE
  5
BC
100
AcDbEntity
  8
1
  6
CONTINUOUS
 62
           7
100
AcDbLine
 10
-340.412499227192
 20
432.663316917147
 11
-335.413234847405
 21
432.663316917147
  0
LINE
  5
BB
100
AcDbEntity
  8
1
  6
CONTINUOUS
 62
           7
100
AcDbLine
 10
-333.913234847405
 20
434.693600152809
 11
-333.913234847405
 21
430.163316917147
  0
LINE
  5
BA
100
AcDbEntity
  8
1
  6
CONTINUOUS
 62
           7
100
AcDbLine
 10
-326.413234847405
 20
430.163316917147
 11
-326.413234847405
 21
443.163316917147
  0
LINE
  5
B9
100
AcDbEntity
  8
1
  6
CONTINUOUS
 62
           7
100
AcDbLine
 10
-325.913234847405
 20
430.663316917147
 11
-325.913234847405
 21
442.663316917147
  0
LINE
  5
B8
100
AcDbEntity
  8
1
  6
CONTINUOUS
 62
           7
100
AcDbLine
 10
-358.816457236548
 20
433.566539306291
 11
-357.913234847405
 21
432.663316917147
  0
LINE
  5
B7
100
AcDbEntity
  8
1
  6
CONTINUOUS
 62
           7
100
AcDbLine
 10
-357.913234847405
 20
433.884511737787
 11
-357.913234847405
 21
432.663316917147
  0
LINE
  5
B6
100
AcDbEntity
  8
1
  6
CONTINUOUS
 62
           7
100
AcDbLine
 10
-357.913234847405
 20
432.663316917147
 11
-344.00050598811
 21
432.663316917147
  0
LINE
  5
B5
100
AcDbEntity
  8
1
  6
CONTINUOUS
 62
           3
100
AcDbLine
 10
-348.434895359484
 20
433.663316917147
 11
-358.571656098922
 21
433.663316917147
  0
LINE
  5
B4
100
AcDbEntity
  8
1
  6
CONTINUOUS
 62
           7
100
AcDbLine
 10
-336.413234847405
 20
432.663316917147
 11
-336.413234847405
 21
433.49885343509
  0
LINE
  5
B3
100
AcDbEntity
  8
1
  6
CONTINUOUS
 62
           3
100
AcDbLine
 10
-336.237868682587
 20
433.562069214682
 11
-334.681184039836
 21
432.663316917147
  0
LINE
  5
B2
100
AcDbEntity
  8
1
  6
CONTINUOUS
 62
           7
100
AcDbLine
 10
-336.413234847405
 20
432.663316917147
 11
-334.313234847405
 21
432.663316917147
  0
LINE
  5
B1
100
AcDbEntity
  8
1
  6
CONTINUOUS
 62
           7
100
AcDbLine
 10
-333.913234847405
 20
430.163316917147
 11
-326.413234847405
 21
430.163316917147
  0
LINE
  5
B0
100
AcDbEntity
  8
1
  6
CONTINUOUS
 62
           7
100
AcDbLine
 10
-326.413234847405
 20
430.163316917147
 11
-325.913234847405
 21
430.663316917147
  0
LINE
  5
AF
100
AcDbEntity
  8
1
  6
CONTINUOUS
 62
           7
100
AcDbLine
 10
-325.913234847405
 20
442.663316917147
 11
-326.413234847405
 21
443.163316917147
  0
LINE
  5
AE
100
AcDbEntity
  8
1
  6
CONTINUOUS
 62
           7
100
AcDbLine
 10
-326.413234847405
 20
443.163316917147
 11
-327.546994294053
 21
443.163316917147
  0
LINE
  5
AD
100
AcDbEntity
  8
1
  6
CONTINUOUS
 62
           7
100
AcDbLine
 10
-356.913235684336
 20
362.663316917147
 11
-356.913235684336
 21
369.663316917147
  0
LINE
  5
AC
100
AcDbEntity
  8
1
  6
CONTINUOUS
 62
           7
100
AcDbLine
 10
-360.613235684336
 20
362.663316917147
 11
-356.913235684336
 21
362.663316917147
  0
LINE
  5
AB
100
AcDbEntity
  8
1
  6
CONTINUOUS
 62
           7
100
AcDbLine
 10
-360.913235684336
 20
362.963316917147
 11
-360.613235684336
 21
362.663316917147
  0
LINE
  5
AA
100
AcDbEntity
  8
1
  6
CONTINUOUS
 62
           7
100
AcDbLine
 10
-360.913235684336
 20
369.363316917147
 11
-360.913235684336
 21
362.963316917147
  0
LINE
  5
A9
100
AcDbEntity
  8
1
  6
CONTINUOUS
 62
           7
100
AcDbLine
 10
-360.730377129894
 20
369.54617547159
 11
-360.913235684336
 21
369.363316917147
  0
LINE
  5
A8
100
AcDbEntity
  8
1
  6
CONTINUOUS
 62
           7
100
AcDbLine
 10
-360.613235684336
 20
369.429034026033
 11
-360.613235684336
 21
362.663316917147
  0
LINE
  5
A7
100
AcDbEntity
  8
1
  6
CONTINUOUS
 62
           7
100
AcDbLine
 10
-360.613235684336
 20
376.429034026033
 11
-360.613235684336
 21
369.429034026033
  0
LINE
  5
A6
100
AcDbEntity
  8
1
  6
CONTINUOUS
 62
           7
100
AcDbLine
 10
-356.913235684336
 20
376.429034026033
 11
-360.613235684336
 21
376.429034026033
  0
LINE
  5
A5
100
AcDbEntity
  8
1
  6
CONTINUOUS
 62
           7
100
AcDbLine
 10
-360.613235684336
 20
376.429034026033
 11
-360.913235684336
 21
376.129034026033
  0
LINE
  5
A4
100
AcDbEntity
  8
1
  6
CONTINUOUS
 62
           7
100
AcDbLine
 10
-360.913235684336
 20
376.129034026033
 11
-360.913235684336
 21
369.729034026033
  0
LINE
  5
A3
100
AcDbEntity
  8
1
  6
CONTINUOUS
 62
           7
100
AcDbLine
 10
-360.913235684336
 20
369.729034026033
 11
-360.613235684336
 21
369.429034026033
  0
LINE
  5
A2
100
AcDbEntity
  8
1
  6
CONTINUOUS
 62
           7
100
AcDbLine
 10
-360.613235684336
 20
369.429034026033
 11
-356.913235684336
 21
369.429034026033
  0
LINE
  5
A1
100
AcDbEntity
  8
1
  6
CONTINUOUS
 62
           7
100
AcDbLine
 10
-356.913235684336
 20
369.429034026033
 11
-356.913235684336
 21
376.429034026033
  0
LINE
  5
A0
100
AcDbEntity
  8
1
  6
CONTINUOUS
 62
           7
100
AcDbLine
 10
-411.928952922989
 20
390.547291513362
 11
-410.428952922989
 21
389.681266109578
  0
LINE
  5
9F
100
AcDbEntity
  8
1
  6
CONTINUOUS
 62
           7
100
AcDbLine
 10
-411.928952922989
 20
392.279342320931
 11
-411.928952922989
 21
390.547291513362
  0
LINE
  5
9E
100
AcDbEntity
  8
1
  6
CONTINUOUS
 62
           7
100
AcDbLine
 10
-410.428952922989
 20
393.145367724716
 11
-411.928952922989
 21
392.279342320931
  0
LINE
  5
9D
100
AcDbEntity
  8
1
  6
CONTINUOUS
 62
           7
100
AcDbLine
 10
-408.928952922989
 20
392.279342320931
 11
-410.428952922989
 21
393.145367724716
  0
LINE
  5
9C
100
AcDbEntity
  8
1
  6
CONTINUOUS
 62
           7
100
AcDbLine
 10
-408.928952922989
 20
390.547291513363
 11
-408.928952922989
 21
392.279342320931
  0
LINE
  5
9B
100
AcDbEntity
  8
1
  6
CONTINUOUS
 62
           7
100
AcDbLine
 10
-410.428952922989
 20
389.681266109578
 11
-408.928952922989
 21
390.547291513363
  0
LINE
  5
9A
100
AcDbEntity
  8
1
  6
CONTINUOUS
 62
           7
100
AcDbLine
 10
-401.931185006534
 20
416.663316917147
 11
-402.797210410319
 21
418.163316917147
  0
LINE
  5
99
100
AcDbEntity
  8
1
  6
CONTINUOUS
 62
           7
100
AcDbLine
 10
-402.797210410319
 20
415.163316917147
 11
-401.931185006534
 21
416.663316917147
  0
LINE
  5
98
100
AcDbEntity
  8
1
  6
CONTINUOUS
 62
           7
100
AcDbLine
 10
-404.529261217888
 20
415.163316917147
 11
-402.797210410319
 21
415.163316917147
  0
LINE
  5
97
100
AcDbEntity
  8
1
  6
CONTINUOUS
 62
           7
100
AcDbLine
 10
-405.395286621672
 20
416.663316917147
 11
-404.529261217888
 21
415.163316917147
  0
LINE
  5
96
100
AcDbEntity
  8
1
  6
CONTINUOUS
 62
           7
100
AcDbLine
 10
-404.529261217888
 20
418.163316917147
 11
-405.395286621672
 21
416.663316917147
  0
LINE
  5
95
100
AcDbEntity
  8
1
  6
CONTINUOUS
 62
           7
100
AcDbLine
 10
-402.797210410319
 20
418.163316917147
 11
-404.529261217888
 21
418.163316917147
  0
LINE
  5
94
100
AcDbEntity
  8
1
  6
CONTINUOUS
 62
           7
100
AcDbLine
 10
-408.928952922989
 20
442.779342320931
 11
-410.428952922989
 21
443.645367724716
  0
LINE
  5
93
100
AcDbEntity
  8
1
  6
CONTINUOUS
 62
           7
100
AcDbLine
 10
-408.928952922989
 20
441.047291513363
 11
-408.928952922989
 21
442.779342320931
  0
LINE
  5
92
100
AcDbEntity
  8
1
  6
CONTINUOUS
 62
           7
100
AcDbLine
 10
-410.428952922989
 20
440.181266109578
 11
-408.928952922989
 21
441.047291513363
  0
LINE
  5
91
100
AcDbEntity
  8
1
  6
CONTINUOUS
 62
           7
100
AcDbLine
 10
-411.928952922989
 20
441.047291513363
 11
-410.428952922989
 21
440.181266109578
  0
LINE
  5
90
100
AcDbEntity
  8
1
  6
CONTINUOUS
 62
           7
100
AcDbLine
 10
-411.928952922989
 20
442.779342320931
 11
-411.928952922989
 21
441.047291513363
  0
LINE
  5
8F
100
AcDbEntity
  8
1
  6
CONTINUOUS
 62
           7
100
AcDbLine
 10
-410.428952922989
 20
443.645367724716
 11
-411.928952922989
 21
442.779342320931
  0
LINE
  5
8E
100
AcDbEntity
  8
1
  6
CONTINUOUS
 62
           7
100
AcDbLine
 10
-429.779261217888
 20
461.897599808261
 11
-430.645286621672
 21
460.397599808261
  0
LINE
  5
8D
100
AcDbEntity
  8
1
  6
CONTINUOUS
 62
           7
100
AcDbLine
 10
-430.645286621672
 20
460.397599808261
 11
-429.779261217888
 21
458.897599808261
  0
LINE
  5
8C
100
AcDbEntity
  8
1
  6
CONTINUOUS
 62
           7
100
AcDbLine
 10
-429.779261217888
 20
458.897599808261
 11
-428.047210410319
 21
458.897599808261
  0
LINE
  5
8B
100
AcDbEntity
  8
1
  6
CONTINUOUS
 62
           7
100
AcDbLine
 10
-428.047210410319
 20
458.897599808261
 11
-427.181185006534
 21
460.397599808261
  0
LINE
  5
8A
100
AcDbEntity
  8
1
  6
CONTINUOUS
 62
           7
100
AcDbLine
 10
-427.181185006534
 20
460.397599808261
 11
-428.047210410319
 21
461.897599808261
  0
LINE
  5
89
100
AcDbEntity
  8
1
  6
CONTINUOUS
 62
           7
100
AcDbLine
 10
-428.047210410319
 20
461.897599808261
 11
-429.779261217888
 21
461.897599808261
  0
LINE
  5
88
100
AcDbEntity
  8
1
  6
CONTINUOUS
 62
           7
100
AcDbLine
 10
-452.663235814103
 20
468.029342320931
 11
-454.163235814103
 21
468.895367724716
  0
LINE
  5
87
100
AcDbEntity
  8
1
  6
CONTINUOUS
 62
           7
100
AcDbLine
 10
-454.163235814103
 20
468.895367724716
 11
-455.663235814103
 21
468.029342320931
  0
LINE
  5
86
100
AcDbEntity
  8
1
  6
CONTINUOUS
 62
           7
100
AcDbLine
 10
-455.663235814103
 20
468.029342320931
 11
-455.663235814103
 21
466.297291513362
  0
LINE
  5
85
100
AcDbEntity
  8
1
  6
CONTINUOUS
 62
           7
100
AcDbLine
 10
-455.663235814103
 20
466.297291513362
 11
-454.163235814103
 21
465.431266109578
  0
LINE
  5
84
100
AcDbEntity
  8
1
  6
CONTINUOUS
 62
           7
100
AcDbLine
 10
-454.163235814103
 20
465.431266109578
 11
-452.663235814103
 21
466.297291513362
  0
LINE
  5
83
100
AcDbEntity
  8
1
  6
CONTINUOUS
 62
           7
100
AcDbLine
 10
-452.663235814103
 20
466.297291513362
 11
-452.663235814103
 21
468.029342320931
  0
LINE
  5
82
100
AcDbEntity
  8
1
  6
CONTINUOUS
 62
           7
100
AcDbLine
 10
-478.547210410318
 20
461.897599808261
 11
-480.279261217887
 21
461.897599808261
  0
LINE
  5
81
100
AcDbEntity
  8
1
  6
CONTINUOUS
 62
           7
100
AcDbLine
 10
-480.279261217887
 20
461.897599808261
 11
-481.145286621672
 21
460.397599808261
  0
LINE
  5
80
100
AcDbEntity
  8
1
  6
CONTINUOUS
 62
           7
100
AcDbLine
 10
-481.145286621672
 20
460.397599808261
 11
-480.279261217887
 21
458.897599808261
  0
LINE
  5
7F
100
AcDbEntity
  8
1
  6
CONTINUOUS
 62
           7
100
AcDbLine
 10
-480.279261217887
 20
458.897599808261
 11
-478.547210410318
 21
458.897599808261
  0
LINE
  5
7E
100
AcDbEntity
  8
1
  6
CONTINUOUS
 62
           7
100
AcDbLine
 10
-478.547210410318
 20
458.897599808261
 11
-477.681185006534
 21
460.397599808261
  0
LINE
  5
7D
100
AcDbEntity
  8
1
  6
CONTINUOUS
 62
           7
100
AcDbLine
 10
-477.681185006534
 20
460.397599808261
 11
-478.547210410318
 21
461.897599808261
  0
LINE
  5
7C
100
AcDbEntity
  8
1
  6
CONTINUOUS
 62
           7
100
AcDbLine
 10
-496.397518705217
 20
442.779342320931
 11
-497.897518705217
 21
443.645367724716
  0
LINE
  5
7B
100
AcDbEntity
  8
1
  6
CONTINUOUS
 62
           7
100
AcDbLine
 10
-496.397518705217
 20
441.047291513363
 11
-496.397518705217
 21
442.779342320931
  0
LINE
  5
7A
100
AcDbEntity
  8
1
  6
CONTINUOUS
 62
           7
100
AcDbLine
 10
-497.897518705217
 20
440.181266109578
 11
-496.397518705217
 21
441.047291513363
  0
LINE
  5
79
100
AcDbEntity
  8
1
  6
CONTINUOUS
 62
           7
100
AcDbLine
 10
-499.397518705217
 20
441.047291513363
 11
-497.897518705217
 21
440.181266109578
  0
LINE
  5
78
100
AcDbEntity
  8
1
  6
CONTINUOUS
 62
           7
100
AcDbLine
 10
-499.397518705217
 20
442.779342320931
 11
-499.397518705217
 21
441.047291513363
  0
LINE
  5
77
100
AcDbEntity
  8
1
  6
CONTINUOUS
 62
           7
100
AcDbLine
 10
-497.897518705217
 20
443.645367724716
 11
-499.397518705217
 21
442.779342320931
  0
LINE
  5
76
100
AcDbEntity
  8
1
  6
CONTINUOUS
 62
           7
100
AcDbLine
 10
-503.797210410318
 20
418.163316917147
 11
-505.529261217887
 21
418.163316917147
  0
LINE
  5
75
100
AcDbEntity
  8
1
  6
CONTINUOUS
 62
           7
100
AcDbLine
 10
-502.931185006534
 20
416.663316917147
 11
-503.797210410318
 21
418.163316917147
  0
LINE
  5
74
100
AcDbEntity
  8
1
  6
CONTINUOUS
 62
           7
100
AcDbLine
 10
-503.797210410318
 20
415.163316917147
 11
-502.931185006534
 21
416.663316917147
  0
LINE
  5
73
100
AcDbEntity
  8
1
  6
CONTINUOUS
 62
           7
100
AcDbLine
 10
-505.529261217887
 20
415.163316917147
 11
-503.797210410318
 21
415.163316917147
  0
LINE
  5
72
100
AcDbEntity
  8
1
  6
CONTINUOUS
 62
           7
100
AcDbLine
 10
-506.395286621672
 20
416.663316917147
 11
-505.529261217887
 21
415.163316917147
  0
LINE
  5
71
100
AcDbEntity
  8
1
  6
CONTINUOUS
 62
           7
100
AcDbLine
 10
-505.529261217887
 20
418.163316917147
 11
-506.395286621672
 21
416.663316917147
  0
LINE
  5
70
100
AcDbEntity
  8
1
  6
CONTINUOUS
 62
           7
100
AcDbLine
 10
-499.397518705217
 20
390.547291513363
 11
-497.897518705217
 21
389.681266109578
  0
LINE
  5
6F
100
AcDbEntity
  8
1
  6
CONTINUOUS
 62
           7
100
AcDbLine
 10
-499.397518705217
 20
392.279342320931
 11
-499.397518705217
 21
390.547291513363
  0
LINE
  5
6E
100
AcDbEntity
  8
1
  6
CONTINUOUS
 62
           7
100
AcDbLine
 10
-497.897518705217
 20
393.145367724716
 11
-499.397518705217
 21
392.279342320931
  0
LINE
  5
6D
100
AcDbEntity
  8
1
  6
CONTINUOUS
 62
           7
100
AcDbLine
 10
-496.397518705217
 20
392.279342320931
 11
-497.897518705217
 21
393.145367724716
  0
LINE
  5
6C
100
AcDbEntity
  8
1
  6
CONTINUOUS
 62
           7
100
AcDbLine
 10
-496.397518705217
 20
390.547291513362
 11
-496.397518705217
 21
392.279342320931
  0
LINE
  5
6B
100
AcDbEntity
  8
1
  6
CONTINUOUS
 62
           7
100
AcDbLine
 10
-497.897518705217
 20
389.681266109578
 11
-496.397518705217
 21
390.547291513362
  0
LINE
  5
6A
100
AcDbEntity
  8
1
  6
CONTINUOUS
 62
           7
100
AcDbLine
 10
-478.547210410318
 20
371.429034026033
 11
-477.681185006534
 21
372.929034026033
  0
LINE
  5
69
100
AcDbEntity
  8
1
  6
CONTINUOUS
 62
           7
100
AcDbLine
 10
-477.681185006534
 20
372.929034026033
 11
-478.547210410318
 21
374.429034026033
  0
LINE
  5
68
100
AcDbEntity
  8
1
  6
CONTINUOUS
 62
           7
100
AcDbLine
 10
-478.547210410318
 20
374.429034026033
 11
-480.279261217887
 21
374.429034026033
  0
LINE
  5
67
100
AcDbEntity
  8
1
  6
CONTINUOUS
 62
           7
100
AcDbLine
 10
-480.279261217887
 20
374.429034026033
 11
-481.145286621672
 21
372.929034026033
  0
LINE
  5
66
100
AcDbEntity
  8
1
  6
CONTINUOUS
 62
           7
100
AcDbLine
 10
-481.145286621672
 20
372.929034026033
 11
-480.279261217887
 21
371.429034026033
  0
LINE
  5
65
100
AcDbEntity
  8
1
  6
CONTINUOUS
 62
           7
100
AcDbLine
 10
-480.279261217887
 20
371.429034026033
 11
-478.547210410318
 21
371.429034026033
  0
LINE
  5
64
100
AcDbEntity
  8
1
  6
CONTINUOUS
 62
           7
100
AcDbLine
 10
-455.663235814103
 20
365.297291513362
 11
-454.163235814103
 21
364.431266109578
  0
LINE
  5
63
100
AcDbEntity
  8
1
  6
CONTINUOUS
 62
           7
100
AcDbLine
 10
-454.163235814103
 20
364.431266109578
 11
-452.663235814103
 21
365.297291513362
  0
LINE
  5
62
100
AcDbEntity
  8
1
  6
CONTINUOUS
 62
           7
100
AcDbLine
 10
-452.663235814103
 20
365.297291513362
 11
-452.663235814103
 21
367.029342320931
  0
LINE
  5
61
100
AcDbEntity
  8
1
  6
CONTINUOUS
 62
           7
100
AcDbLine
 10
-452.663235814103
 20
367.029342320931
 11
-454.163235814103
 21
367.895367724716
  0
LINE
  5
60
100
AcDbEntity
  8
1
  6
CONTINUOUS
 62
           7
100
AcDbLine
 10
-454.163235814103
 20
367.895367724716
 11
-455.663235814103
 21
367.029342320931
  0
LINE
  5
5F
100
AcDbEntity
  8
1
  6
CONTINUOUS
 62
           7
100
AcDbLine
 10
-455.663235814103
 20
367.029342320931
 11
-455.663235814103
 21
365.297291513362
  0
LINE
  5
5E
100
AcDbEntity
  8
1
  6
CONTINUOUS
 62
           7
100
AcDbLine
 10
-429.779261217888
 20
371.429034026033
 11
-428.047210410319
 21
371.429034026033
  0
LINE
  5
5D
100
AcDbEntity
  8
1
  6
CONTINUOUS
 62
           7
100
AcDbLine
 10
-428.047210410319
 20
371.429034026033
 11
-427.181185006534
 21
372.929034026033
  0
LINE
  5
5C
100
AcDbEntity
  8
1
  6
CONTINUOUS
 62
           7
100
AcDbLine
 10
-427.181185006534
 20
372.929034026033
 11
-428.047210410319
 21
374.429034026033
  0
LINE
  5
5B
100
AcDbEntity
  8
1
  6
CONTINUOUS
 62
           7
100
AcDbLine
 10
-428.047210410319
 20
374.429034026033
 11
-429.779261217888
 21
374.429034026033
  0
LINE
  5
5A
100
AcDbEntity
  8
1
  6
CONTINUOUS
 62
           7
100
AcDbLine
 10
-429.779261217888
 20
374.429034026033
 11
-430.645286621672
 21
372.929034026033
  0
LINE
  5
59
100
AcDbEntity
  8
1
  6
CONTINUOUS
 62
           7
100
AcDbLine
 10
-430.645286621672
 20
372.929034026033
 11
-429.779261217888
 21
371.429034026033
  0
LINE
  5
58
100
AcDbEntity
  8
1
  6
DASH_CENTER
 62
           3
100
AcDbLine
 10
-257.862951516415
 20
416.663316917147
 11
-109.522347076531
 21
416.663316917147
  0
LINE
  5
57
100
AcDbEntity
  8
1
  6
DASH_CENTER
 62
           3
100
AcDbLine
 10
-183.575604442771
 20
489.887472951163
 11
-183.575604442771
 21
341.546868511278
  0
LINE
  5
56
100
AcDbEntity
  8
1
  6
CONTINUOUS
 62
           7
100
AcDbLine
 10
-288.91324021512
 20
348.163316917147
 11
-288.91324021512
 21
485.163316917147
  0
LINE
  5
55
100
AcDbEntity
  8
1
  6
CONTINUOUS
 62
           7
100
AcDbLine
 10
-317.913235814103
 20
348.163357716424
 11
-317.913235814103
 21
389.978267805013
  0
LINE
  5
54
100
AcDbEntity
  8
1
  6
CONTINUOUS
 62
           7
100
AcDbLine
 10
-305.913235814103
 20
357.163316917147
 11
-305.913235814103
 21
387.301171197966
  0
LINE
  5
53
100
AcDbEntity
  8
1
  6
CONTINUOUS
 62
           7
100
AcDbLine
 10
-305.913235814103
 20
357.163316917147
 11
-313.113240215121
 21
357.163316917147
  0
LINE
  5
52
100
AcDbEntity
  8
1
  6
CONTINUOUS
 62
           7
100
AcDbLine
 10
-315.253235778105
 20
446.127316917147
 11
-311.433235778105
 21
446.127316917147
  0
LINE
  5
51
100
AcDbEntity
  8
1
  6
CONTINUOUS
 62
           7
100
AcDbLine
 10
-315.753235778105
 20
446.627316917147
 11
-315.253235778105
 21
446.127316917147
  0
LINE
  5
50
100
AcDbEntity
  8
1
  6
CONTINUOUS
 62
           7
100
AcDbLine
 10
-315.753235778105
 20
446.627316917147
 11
-315.753235778105
 21
446.943237116644
  0
LINE
  5
4F
100
AcDbEntity
  8
1
  6
CONTINUOUS
 62
           7
100
AcDbLine
 10
-307.113235778105
 20
447.683316917147
 11
-307.113235778105
 21
446.627316917147
  0
LINE
  5
4E
100
AcDbEntity
  8
1
  6
CONTINUOUS
 62
           7
100
AcDbLine
 10
-311.433235778105
 20
446.127316917147
 11
-307.613235778105
 21
446.127316917147
  0
LINE
  5
4D
100
AcDbEntity
  8
1
  6
CONTINUOUS
 62
           7
100
AcDbLine
 10
-307.113235778105
 20
447.683316917147
 11
-307.221167945668
 21
447.79124908471
  0
LINE
  5
4C
100
AcDbEntity
  8
1
  6
CONTINUOUS
 62
           7
100
AcDbLine
 10
-307.613235778105
 20
446.127316917147
 11
-307.113235778105
 21
446.627316917147
  0
LINE
  5
4B
100
AcDbEntity
  8
1
  6
CONTINUOUS
 62
           7
100
AcDbLine
 10
-307.113235778105
 20
446.127316917147
 11
-307.113235778105
 21
387.696462112655
  0
LINE
  5
4A
100
AcDbEntity
  8
1
  6
CONTINUOUS
 62
           7
100
AcDbLine
 10
-323.613235778105
 20
429.663316917147
 11
-323.613235778105
 21
403.663316917147
  0
LINE
  5
49
100
AcDbEntity
  8
1
  6
CONTINUOUS
 62
           7
100
AcDbLine
 10
-315.913235778105
 20
429.663316917147
 11
-323.613235778105
 21
429.663316917147
  0
INSERT
  5
3C
100
AcDbEntity
  8
0
100
AcDbBlockReference
  2
WBG_025_F__2
 10
0.0
 20
0.0
  0
INSERT
  5
3D
100
AcDbEntity
  8
0
100
AcDbBlockReference
  2
WBG_025_F__4
 10
0.0
 20
0.0
  0
INSERT
  5
3E
100
AcDbEntity
  8
0
100
AcDbBlockReference
  2
WBG_025_F__6
 10
0.0
 20
0.0
  0
INSERT
  5
3F
100
AcDbEntity
  8
0
100
AcDbBlockReference
  2
WBG_025_F__8
 10
0.0
 20
0.0
  0
CIRCLE
  5
27A
100
AcDbEntity
  8
0
 62
           7
100
AcDbCircle
 10
-440.021100190372
 20
402.521181293416
 40
0.5
  0
HATCH
  5
27B
100
AcDbEntity
  8
0
 62
           7
100
AcDbHatch
 10
0.0
 20
0.0
 30
0.0
210
0.0
220
0.0
230
1.0
  2
SOLID
 70
           1
 71
           1
 91
        1
 92
        1
 93
        1
 72
           2
 10
-440.02110019037173
 20
402.52118129341579
 40
0.5
 50
-180.0
 51
180.0
 73
           1
 97
        1
330
27A
 75
           0
 76
           1
 98
        1
 10
0.0
 20
0.0
  0
CIRCLE
  5
27D
100
AcDbEntity
  8
0
 62
           7
100
AcDbCircle
 10
-454.163235814103
 20
396.663316917147
 40
0.5
  0
HATCH
  5
27E
100
AcDbEntity
  8
0
 62
           7
100
AcDbHatch
 10
0.0
 20
0.0
 30
0.0
210
0.0
220
0.0
230
1.0
  2
SOLID
 70
           1
 71
           1
 91
        1
 92
        1
 93
        1
 72
           2
 10
-454.16323581410302
 20
396.66331691714709
 40
0.5
 50
-180.0
 51
180.0
 73
           1
 97
        1
330
27D
 75
           0
 76
           1
 98
        1
 10
0.0
 20
0.0
  0
CIRCLE
  5
280
100
AcDbEntity
  8
0
 62
           7
100
AcDbCircle
 10
-468.305371437834
 20
402.521181293416
 40
0.5
  0
HATCH
  5
281
100
AcDbEntity
  8
0
 62
           7
100
AcDbHatch
 10
0.0
 20
0.0
 30
0.0
210
0.0
220
0.0
230
1.0
  2
SOLID
 70
           1
 71
           1
 91
        1
 92
        1
 93
        1
 72
           2
 10
-468.30537143783408
 20
402.52118129341579
 40
0.5
 50
-180.0
 51
180.0
 73
           1
 97
        1
330
280
 75
           0
 76
           1
 98
        1
 10
0.0
 20
0.0
  0
CIRCLE
  5
283
100
AcDbEntity
  8
0
 62
           7
100
AcDbCircle
 10
-474.163235814103
 20
416.663316917147
 40
0.5
  0
HATCH
  5
284
100
AcDbEntity
  8
0
 62
           7
100
AcDbHatch
 10
0.0
 20
0.0
 30
0.0
210
0.0
220
0.0
230
1.0
  2
SOLID
 70
           1
 71
           1
 91
        1
 92
        1
 93
        1
 72
           2
 10
-474.16323581410302
 20
416.66331691714709
 40
0.5
 50
-180.0
 51
180.0
 73
           1
 97
        1
330
283
 75
           0
 76
           1
 98
        1
 10
0.0
 20
0.0
  0
CIRCLE
  5
286
100
AcDbEntity
  8
0
 62
           7
100
AcDbCircle
 10
-434.163235814103
 20
416.663316917147
 40
0.5
  0
HATCH
  5
287
100
AcDbEntity
  8
0
 62
           7
100
AcDbHatch
 10
0.0
 20
0.0
 30
0.0
210
0.0
220
0.0
230
1.0
  2
SOLID
 70
           1
 71
           1
 91
        1
 92
        1
 93
        1
 72
           2
 10
-434.1632358141029
 20
416.66331691714709
 40
0.5
 50
-180.0
 51
180.0
 73
           1
 97
        1
330
286
 75
           0
 76
           1
 98
        1
 10
0.0
 20
0.0
  0
CIRCLE
  5
289
100
AcDbEntity
  8
0
 62
           7
100
AcDbCircle
 10
-440.021100190372
 20
430.805452540878
 40
0.5
  0
HATCH
  5
28A
100
AcDbEntity
  8
0
 62
           7
100
AcDbHatch
 10
0.0
 20
0.0
 30
0.0
210
0.0
220
0.0
230
1.0
  2
SOLID
 70
           1
 71
           1
 91
        1
 92
        1
 93
        1
 72
           2
 10
-440.02110019037218
 20
430.80545254087838
 40
0.5
 50
-180.0
 51
180.0
 73
           1
 97
        1
330
289
 75
           0
 76
           1
 98
        1
 10
0.0
 20
0.0
  0
CIRCLE
  5
28C
100
AcDbEntity
  8
0
 62
           7
100
AcDbCircle
 10
-454.163235814103
 20
436.663316917147
 40
0.5
  0
HATCH
  5
28D
100
AcDbEntity
  8
0
 62
           7
100
AcDbHatch
 10
0.0
 20
0.0
 30
0.0
210
0.0
220
0.0
230
1.0
  2
SOLID
 70
           1
 71
           1
 91
        1
 92
        1
 93
        1
 72
           2
 10
-454.16323581410307
 20
436.66331691714709
 40
0.5
 50
-180.0
 51
180.0
 73
           1
 97
        1
330
28C
 75
           0
 76
           1
 98
        1
 10
0.0
 20
0.0
  0
CIRCLE
  5
28F
100
AcDbEntity
  8
0
 62
           7
100
AcDbCircle
 10
-468.305371437834
 20
430.805452540878
 40
0.5
  0
HATCH
  5
290
100
AcDbEntity
  8
0
 62
           7
100
AcDbHatch
 10
0.0
 20
0.0
 30
0.0
210
0.0
220
0.0
230
1.0
  2
SOLID
 70
           1
 71
           1
 91
        1
 92
        1
 93
        1
 72
           2
 10
-468.3053714378342
 20
430.8054525408777
 40
0.5
 50
-180.0
 51
180.0
 73
           1
 97
        1
330
28F
 75
           0
 76
           1
 98
        1
 10
0.0
 20
0.0
  0
CIRCLE
  5
292
100
AcDbEntity
  8
0
 62
           7
100
AcDbCircle
 10
-469.869187866795
 20
423.168935267353
 40
0.5
  0
HATCH
  5
293
100
AcDbEntity
  8
0
 62
           7
100
AcDbHatch
 10
0.0
 20
0.0
 30
0.0
210
0.0
220
0.0
230
1.0
  2
SOLID
 70
           1
 71
           1
 91
        1
 92
        1
 93
        1
 72
           2
 10
-469.86918786679462
 20
423.16893526735339
 40
0.5
 50
-180.0
 51
180.0
 73
           1
 97
        1
330
292
 75
           0
 76
           1
 98
        1
 10
0.0
 20
0.0
  0
CIRCLE
  5
295
100
AcDbEntity
  8
0
 62
           7
100
AcDbCircle
 10
-469.869187866795
 20
410.157698566941
 40
0.5
  0
HATCH
  5
296
100
AcDbEntity
  8
0
 62
           7
100
AcDbHatch
 10
0.0
 20
0.0
 30
0.0
210
0.0
220
0.0
230
1.0
  2
SOLID
 70
           1
 71
           1
 91
        1
 92
        1
 93
        1
 72
           2
 10
-469.86918786679468
 20
410.15769856694061
 40
0.5
 50
-180.0
 51
180.0
 73
           1
 97
        1
330
295
 75
           0
 76
           1
 98
        1
 10
0.0
 20
0.0
  0
CIRCLE
  5
298
100
AcDbEntity
  8
0
 62
           7
100
AcDbCircle
 10
-460.66885416431
 20
400.957364864456
 40
0.5
  0
HATCH
  5
299
100
AcDbEntity
  8
0
 62
           7
100
AcDbHatch
 10
0.0
 20
0.0
 30
0.0
210
0.0
220
0.0
230
1.0
  2
SOLID
 70
           1
 71
           1
 91
        1
 92
        1
 93
        1
 72
           2
 10
-460.66885416430961
 20
400.95736486445571
 40
0.5
 50
-180.0
 51
180.0
 73
           1
 97
        1
330
298
 75
           0
 76
           1
 98
        1
 10
0.0
 20
0.0
  0
CIRCLE
  5
29B
100
AcDbEntity
  8
0
 62
           7
100
AcDbCircle
 10
-447.657617463896
 20
400.957364864455
 40
0.5
  0
HATCH
  5
29C
100
AcDbEntity
  8
0
 62
           7
100
AcDbHatch
 10
0.0
 20
0.0
 30
0.0
210
0.0
220
0.0
230
1.0
  2
SOLID
 70
           1
 71
           1
 91
        1
 92
        1
 93
        1
 72
           2
 10
-447.65761746389649
 20
400.95736486445549
 40
0.5
 50
-180.0
 51
180.0
 73
           1
 97
        1
330
29B
 75
           0
 76
           1
 98
        1
 10
0.0
 20
0.0
  0
CIRCLE
  5
29E
100
AcDbEntity
  8
0
 62
           7
100
AcDbCircle
 10
-438.457283761411
 20
410.157698566941
 40
0.5
  0
HATCH
  5
29F
100
AcDbEntity
  8
0
 62
           7
100
AcDbHatch
 10
0.0
 20
0.0
 30
0.0
210
0.0
220
0.0
230
1.0
  2
SOLID
 70
           1
 71
           1
 91
        1
 92
        1
 93
        1
 72
           2
 10
-438.4572837614113
 20
410.15769856694078
 40
0.5
 50
-180.0
 51
180.0
 73
           1
 97
        1
330
29E
 75
           0
 76
           1
 98
        1
 10
0.0
 20
0.0
  0
CIRCLE
  5
2A1
100
AcDbEntity
  8
0
 62
           7
100
AcDbCircle
 10
-438.457283761411
 20
423.168935267354
 40
0.5
  0
HATCH
  5
2A2
100
AcDbEntity
  8
0
 62
           7
100
AcDbHatch
 10
0.0
 20
0.0
 30
0.0
210
0.0
220
0.0
230
1.0
  2
SOLID
 70
           1
 71
           1
 91
        1
 92
        1
 93
        1
 72
           2
 10
-438.4572837614113
 20
423.16893526735367
 40
0.5
 50
-180.0
 51
180.0
 73
           1
 97
        1
330
2A1
 75
           0
 76
           1
 98
        1
 10
0.0
 20
0.0
  0
CIRCLE
  5
2A4
100
AcDbEntity
  8
0
 62
           7
100
AcDbCircle
 10
-447.657617463896
 20
432.369268969839
 40
0.5
  0
HATCH
  5
2A5
100
AcDbEntity
  8
0
 62
           7
100
AcDbHatch
 10
0.0
 20
0.0
 30
0.0
210
0.0
220
0.0
230
1.0
  2
SOLID
 70
           1
 71
           1
 91
        1
 92
        1
 93
        1
 72
           2
 10
-447.65761746389649
 20
432.36926896983869
 40
0.5
 50
-180.0
 51
180.0
 73
           1
 97
        1
330
2A4
 75
           0
 76
           1
 98
        1
 10
0.0
 20
0.0
  0
CIRCLE
  5
2A7
100
AcDbEntity
  8
0
 62
           7
100
AcDbCircle
 10
-460.66885416431
 20
432.369268969839
 40
0.5
  0
HATCH
  5
2A8
100
AcDbEntity
  8
0
 62
           7
100
AcDbHatch
 10
0.0
 20
0.0
 30
0.0
210
0.0
220
0.0
230
1.0
  2
SOLID
 70
           1
 71
           1
 91
        1
 92
        1
 93
        1
 72
           2
 10
-460.66885416430961
 20
432.36926896983869
 40
0.5
 50
-180.0
 51
180.0
 73
           1
 97
        1
330
2A7
 75
           0
 76
           1
 98
        1
 10
0.0
 20
0.0
  0
ENDSEC
  0
SECTION
  2
OBJECTS
  0
DICTIONARY
  5
19
100
AcDbDictionary
  3
ACAD_GROUP
350
1A
  3
ACAD_MLINESTYLE
350
1B
  0
DICTIONARY
  5
1A
102
{ACAD_REACTORS
330
19
102
}
100
AcDbDictionary
  0
DICTIONARY
  5
1B
102
{ACAD_REACTORS
330
19
102
}
100
AcDbDictionary
  3
STANDARD
350
1C
  0
MLINESTYLE
  5
1C
102
{ACAD_REACTORS
330
1B
102
}
100
AcDbMlineStyle
  2
STANDARD
 70
           0
  3

 62
           0
 51
90.0
 52
90.0
 71
           2
 49
0.5
 62
         256
  6
BYLAYER
 49
-0.5
 62
         256
  6
BYLAYER
  0
ENDSEC
  0
EOF
