  0
SECTION
  2
HEADER
  9
$ACADVER
  1
AC1014
  9
$ACADMAINTVER
 70
           0
  9
$DWGCODEPAGE
  3
DOS932
  9
$INSBASE
 10
0.0
 20
0.0
 30
0.0
  9
$EXTMIN
 10
1.000000000000E+20
 20
1.000000000000E+20
 30
1.000000000000E+20
  9
$EXTMAX
 10
-1.000000000000E+20
 20
-1.000000000000E+20
 30
-1.000000000000E+20
  9
$LIMMIN
 10
0.0
 20
0.0
  9
$LIMMAX
 10
0.0
 20
0.0
  9
$ORTHOMODE
 70
           0
  9
$REGENMODE
 70
           1
  9
$FILLMODE
 70
           1
  9
$QTEXTMODE
 70
           0
  9
$MIRRTEXT
 70
           1
  9
$DRAGMODE
 70
           2
  9
$LTSCALE
 40
1.0
  9
$OSMODE
 70
           0
  9
$ATTMODE
 70
           1
  9
$TEXTSIZE
 40
0.2
  9
$TRACEWID
 40
0.05
  9
$TEXTSTYLE
  7
STANDARD
  9
$CLAYER
  8
0
  9
$CELTYPE
  6
CONTINUOUS
  9
$CECOLOR
 62
         256
  9
$CELTSCALE
 40
1.0
  9
$DELOBJ
 70
           1
  9
$DISPSILH
 70
           0
  9
$DIMSCALE
 40
1.0
  9
$DIMASZ
 40
0.18
  9
$DIMEXO
 40
0.0625
  9
$DIMDLI
 40
0.38
  9
$DIMRND
 40
0.0
  9
$DIMDLE
 40
0.0
  9
$DIMEXE
 40
0.18
  9
$DIMTP
 40
0.0
  9
$DIMTM
 40
0.0
  9
$DIMTXT
 40
0.18
  9
$DIMCEN
 40
0.09
  9
$DIMTSZ
 40
0.0
  9
$DIMTOL
 70
           0
  9
$DIMLIM
 70
           0
  9
$DIMTIH
 70
           1
  9
$DIMTOH
 70
           1
  9
$DIMSE1
 70
           0
  9
$DIMSE2
 70
           0
  9
$DIMTAD
 70
           0
  9
$DIMZIN
 70
           0
  9
$DIMBLK
  1

  9
$DIMASO
 70
           1
  9
$DIMSHO
 70
           1
  9
$DIMPOST
  1

  9
$DIMAPOST
  1

  9
$DIMALT
 70
           0
  9
$DIMALTD
 70
           2
  9
$DIMALTF
 40
25.4
  9
$DIMLFAC
 40
1.0
  9
$DIMTOFL
 70
           0
  9
$DIMTVP
 40
0.0
  9
$DIMTIX
 70
           0
  9
$DIMSOXD
 70
           0
  9
$DIMSAH
 70
           0
  9
$DIMBLK1
  1

  9
$DIMBLK2
  1

  9
$DIMSTYLE
  2
STANDARD
  9
$DIMCLRD
 70
           0
  9
$DIMCLRE
 70
           0
  9
$DIMCLRT
 70
           0
  9
$DIMTFAC
 40
1.0
  9
$DIMGAP
 40
0.09
  9
$DIMJUST
 70
           0
  9
$DIMSD1
 70
           0
  9
$DIMSD2
 70
           0
  9
$DIMTOLJ
 70
           1
  9
$DIMTZIN
 70
           0
  9
$DIMALTZ
 70
           0
  9
$DIMALTTZ
 70
           0
  9
$DIMFIT
 70
           3
  9
$DIMUPT
 70
           0
  9
$DIMUNIT
 70
           2
  9
$DIMDEC
 70
           4
  9
$DIMTDEC
 70
           4
  9
$DIMALTU
 70
           2
  9
$DIMALTTD
 70
           2
  9
$DIMTXSTY
  7
STANDARD
  9
$DIMAUNIT
 70
           0
  9
$LUNITS
 70
           2
  9
$LUPREC
 70
           4
  9
$SKETCHINC
 40
0.1
  9
$FILLETRAD
 40
0.0
  9
$AUNITS
 70
           0
  9
$AUPREC
 70
           0
  9
$MENU
  1
acad
  9
$ELEVATION
 40
0.0
  9
$PELEVATION
 40
0.0
  9
$THICKNESS
 40
0.0
  9
$LIMCHECK
 70
           0
  9
$BLIPMODE
 70
           1
  9
$CHAMFERA
 40
0.0
  9
$CHAMFERB
 40
0.0
  9
$CHAMFERC
 40
0.0
  9
$CHAMFERD
 40
0.0
  9
$SKPOLY
 70
           0
  9
$TDCREATE
 40
0.000000000
  9
$TDUPDATE
 40
0.000000000
  9
$TDINDWG
 40
0.0000000000
  9
$TDUSRTIMER
 40
0.0000000000
  9
$USRTIMER
 70
           1
  9
$ANGBASE
 50
0.0
  9
$ANGDIR
 70
           0
  9
$PDMODE
 70
           0
  9
$PDSIZE
 40
0.0
  9
$PLINEWID
 40
0.0
  9
$COORDS
 70
           0
  9
$SPLFRAME
 70
           0
  9
$SPLINETYPE
 70
           6
  9
$SPLINESEGS
 70
           8
  9
$ATTDIA
 70
           0
  9
$ATTREQ
 70
           1
  9
$HANDLING
 70
           1
  9
$HANDSEED
  5
2E5
  9
$SURFTAB1
 70
           6
  9
$SURFTAB2
 70
           6
  9
$SURFTYPE
 70
           6
  9
$SURFU
 70
           6
  9
$SURFV
 70
           6
  9
$UCSNAME
  2

  9
$UCSORG
 10
0.0
 20
0.0
 30
0.0
  9
$UCSXDIR
 10
1.0
 20
0.0
 30
0.0
  9
$UCSYDIR
 10
0.0
 20
1.0
 30
0.0
  9
$PUCSNAME
  2

  9
$PUCSORG
 10
0.0
 20
0.0
 30
0.0
  9
$PUCSXDIR
 10
1.0
 20
0.0
 30
0.0
  9
$PUCSYDIR
 10
0.0
 20
1.0
 30
0.0
  9
$USERI1
 70
           0
  9
$USERI2
 70
           0
  9
$USERI3
 70
           0
  9
$USERI4
 70
           0
  9
$USERI5
 70
           0
  9
$USERR1
 40
0.0
  9
$USERR2
 40
0.0
  9
$USERR3
 40
0.0
  9
$USERR4
 40
0.0
  9
$USERR5
 40
0.0
  9
$WORLDVIEW
 70
           1
  9
$SHADEDGE
 70
           3
  9
$SHADEDIF
 70
          70
  9
$TILEMODE
 70
           1
  9
$MAXACTVP
 70
          16
  9
$PINSBASE
 10
0.0
 20
0.0
 30
0.0
  9
$PLIMCHECK
 70
           0
  9
$PEXTMIN
 10
1.000000000000E+20
 20
1.000000000000E+20
 30
1.000000000000E+20
  9
$PEXTMAX
 10
-1.000000000000E+20
 20
-1.000000000000E+20
 30
-1.000000000000E+20
  9
$PLIMMIN
 10
0.0
 20
0.0
  9
$PLIMMAX
 10
12.0
 20
9.0
  9
$UNITMODE
 70
           0
  9
$VISRETAIN
 70
           0
  9
$PLINEGEN
 70
           1
  9
$PSLTSCALE
 70
           0
  9
$TREEDEPTH
 70
        3020
  9
$PICKSTYLE
 70
           1
  9
$CMLSTYLE
  2
STANDARD
  9
$CMLJUST
 70
           0
  9
$CMLSCALE
 40
1.0
  9
$PROXYGRAPHICS
 70
           0
  9
$MEASUREMENT
 70
           0
  0
ENDSEC
  0
SECTION
  2
CLASSES
  0
CLASS
  1
LWPOLYLINE
  2
AcDbPolyline
  3
"AutoCAD"
 90
        0
280
           0
281
           1
  0
CLASS
  1
IMAGE
  2
AcDbRasterImage
  3
ISM
 90
      127
280
           0
281
           1
  0
CLASS
  1
OLE2FRAME
  2
AcDbOle2Frame
  3
""
 90
        0
280
           0
281
           1
  0
CLASS
  1
HATCH
  2
AcDbHatch
  3
"ACAD_SEDONA"
 90
        0
280
           0
281
           1
  0
CLASS
  1
DICTIONARYVAR
  2
AcDbDictionaryVar
  3
"AutoCAD"
 90
        0
280
           0
281
           0
  0
CLASS
  1
RASTERVARIABLES
  2
AcDbRasterVariables
  3
ISM
 90
        0
280
           0
281
           0
  0
CLASS
  1
IMAGEDEF
  2
AcDbRasterImageDef
  3
ISM
 90
        0
280
           0
281
           0
  0
CLASS
  1
IMAGEDEF_REACTOR
  2
AcDbRasterImageDefReactor
  3
ISM
 90
        1
280
           0
281
           0
  0
CLASS
  1
IDBUFFER
  2
AcDbIdBuffer
  3
"Acad"
 90
        0
280
           0
281
           0
  0
CLASS
  1
SPATIAL_FILTER
  2
AcDbSpatialFilter
  3
"Acad"
 90
        0
280
           0
281
           0
  0
CLASS
  1
XRECORD
  2
AcDbXrecord
  3
"<Built In>"
 90
        0
280
           0
281
           0
  0
CLASS
  1
SORTENTSTABLE
  2
AcDbSortentsTable
  3
"AutoCAD"
 90
        0
280
           0
281
           0
  0
CLASS
  1
LAYER_INDEX
  2
AcDbLayerIndex
  3
"Acad"
 90
        0
280
           0
281
           0
  0
CLASS
  1
SPATIAL_INDEX
  2
AcDbSpatialIndex
  3
"Acad"
 90
        0
280
           0
281
           0
  0
CLASS
  1
OBJECT_PTR
  2
CAseDLPNTableRecord
  3
"ASE-LPNTableRecord"
 90
        1
280
           0
281
           0
  0
CLASS
  1
LAYOUT
  2
AcDbLayout
  3
"AutoCAD 2000"
 90
        1
280
           0
281
           0
  0
CLASS
  1
PLOTSETTINGS
  2
AcDbPlotSettings
  3
"AutoCAD 2000"
 90
        1
280
           0
281
           0
  0
CLASS
  1
ACDBDICTIONARYWDFLT
  2
AcDbDictionaryWithDefault
  3
"AutoCAD 2000"
 90
        1
280
           0
281
           0
  0
CLASS
  1
ACDBPLACEHOLDER
  2
AcDbPlaceHolder
  3
"AutoCAD 2000"
 90
        1
280
           0
281
           0
  0
CLASS
  1
VBA_PROJECT
  2
AcDbVbaProject
  3
"acadvba"
 90
        1
280
           0
281
           0
  0
CLASS
  1
WIPEOUT
  2
AcDbWipeout
  3
WipeOut|AutoCAD Express Tool|expresstools@autodesk.com
 90
      127
280
           0
281
           1
  0
CLASS
  1
WIPEOUTVARIABLES
  2
AcDbWipeoutVariables
  3
WipeOut|AutoCAD Express Tool|expresstools@autodesk.com
 90
        0
280
           0
281
           0
  0
CLASS
  1
RTEXT
  2
RText
  3
RText|AutoCAD Express Tool|expresstools@autodesk.com
 90
        0
280
           0
281
           1
  0
CLASS
  1
ARCALIGNEDTEXT
  2
AcDbArcAlignedText
  3
ATEXT|AutoCAD Express Tool|expresstools@autodesk.com
 90
        0
280
           0
281
           1
  0
ENDSEC
  0
SECTION
  2
TABLES
  0
TABLE
  2
VPORT
  5
7
100
AcDbSymbolTable
 70
           1
  0
VPORT
  5
15
100
AcDbSymbolTableRecord
100
AcDbViewportTableRecord
  2
*ACTIVE
 70
           0
 10
0.0
 20
0.0
 11
1.0
 21
1.0
 12
6.591288
 22
4.579184
 13
0.0
 23
0.0
 14
1.0
 24
1.0
 15
0.0
 25
0.0
 16
0.0
 26
0.0
 36
1.0
 17
0.0
 27
0.0
 37
0.0
 40
9.158369
 41
0.688564
 42
50.0
 43
0.0
 44
0.0
 50
0.0
 51
0.0
 71
           0
 72
         100
 73
           1
 74
           1
 75
           0
 76
           0
 77
           0
 78
           0
  0
ENDTAB
  0
TABLE
  2
LTYPE
  5
4
100
AcDbSymbolTable
 70
          10
  0
LTYPE
  5
11
100
AcDbSymbolTableRecord
100
AcDbLinetypeTableRecord
  2
BYBLOCK
 70
          64
  3

 72
          65
 73
           0
 40
0.0
  0
LTYPE
  5
12
100
AcDbSymbolTableRecord
100
AcDbLinetypeTableRecord
  2
BYLAYER
 70
          64
  3

 72
          65
 73
           0
 40
0.0
  0
LTYPE
  5
13
100
AcDbSymbolTableRecord
100
AcDbLinetypeTableRecord
  2
CONTINUOUS
 70
          64
  3
Solid line
 72
          65
 73
           0
 40
0.0
  0
LTYPE
  5
1D
100
AcDbSymbolTableRecord
100
AcDbLinetypeTableRecord
  2
DASHED
 70
          64
  3
Dashed
 72
          65
 73
           2
 40
15.0
 49
12.0
 74
           0
 49
-3.0
 74
           0
  0
LTYPE
  5
1E
100
AcDbSymbolTableRecord
100
AcDbLinetypeTableRecord
  2
DOTTED
 70
          64
  3
Dotted
 72
          65
 73
           2
 40
3.5
 49
0.5
 74
           0
 49
-3.0
 74
           0
  0
LTYPE
  5
1F
100
AcDbSymbolTableRecord
100
AcDbLinetypeTableRecord
  2
DOT_CENTER
 70
          64
  3
Dot_Center
 72
          65
 73
           4
 40
2.0
 49
1.25
 74
           0
 49
-0.25
 74
           0
 49
0.25
 74
           0
 49
-0.25
 74
           0
  0
LTYPE
  5
20
100
AcDbSymbolTableRecord
100
AcDbLinetypeTableRecord
  2
LONG_DASHED
 70
          64
  3
Long_Dashed
 72
          65
 73
           2
 40
2.0
 49
1.5
 74
           0
 49
-0.5
 74
           0
  0
LTYPE
  5
21
100
AcDbSymbolTableRecord
100
AcDbLinetypeTableRecord
  2
DASH_CENTER
 70
          64
  3
Dash_Center
 72
          65
 73
           4
 40
36.0
 49
24.0
 74
           0
 49
-3.0
 74
           0
 49
6.0
 74
           0
 49
-3.0
 74
           0
  0
LTYPE
  5
22
100
AcDbSymbolTableRecord
100
AcDbLinetypeTableRecord
  2
PHANTOM
 70
          64
  3
Phantom
 72
          65
 73
           6
 40
2.5
 49
1.25
 74
           0
 49
-0.25
 74
           0
 49
0.25
 74
           0
 49
-0.25
 74
           0
 49
0.25
 74
           0
 49
-0.25
 74
           0
  0
LTYPE
  5
23
100
AcDbSymbolTableRecord
100
AcDbLinetypeTableRecord
  2
CENTER_DASH_DASH
 70
          64
  3
Center_Dash_Dash
 72
          65
 73
           6
 40
22.0
 49
12.0
 74
           0
 49
-3.0
 74
           0
 49
0.5
 74
           0
 49
-3.0
 74
           0
 49
0.5
 74
           0
 49
-3.0
 74
           0
  0
ENDTAB
  0
TABLE
  2
LAYER
  5
2
100
AcDbSymbolTable
 70
           3
  0
LAYER
  5
14
100
AcDbSymbolTableRecord
100
AcDbLayerTableRecord
  2
0
 70
           0
 62
           7
  6
CONTINUOUS
  0
LAYER
  5
24
100
AcDbSymbolTableRecord
100
AcDbLayerTableRecord
  2
1
 70
           0
 62
           7
  6
CONTINUOUS
  0
LAYER
  5
25
100
AcDbSymbolTableRecord
100
AcDbLayerTableRecord
  2
2
 70
           0
 62
           7
  6
CONTINUOUS
  0
ENDTAB
  0
TABLE
  2
STYLE
  5
3
100
AcDbSymbolTable
 70
           3
  0
STYLE
  5
17
100
AcDbSymbolTableRecord
100
AcDbTextStyleTableRecord
  2
STANDARD
 70
           0
 40
0.0
 41
1.0
 50
0.0
 71
           0
 42
0.0
  3
txt
  4

  0
STYLE
  5
2D7
100
AcDbSymbolTableRecord
100
AcDbTextStyleTableRecord
  2
CONVERTER_1
 70
           0
 40
0.0
 41
0.9
 50
0.0
 71
           0
 42
0.0
  3
txt.shx
  4

  0
STYLE
  5
2DA
100
AcDbSymbolTableRecord
100
AcDbTextStyleTableRecord
  2
CONVERTER_2
 70
           0
 40
0.0
 41
0.81
 50
0.0
 71
           0
 42
0.0
  3
txt.shx
  4

  0
ENDTAB
  0
TABLE
  2
VIEW
  5
5
100
AcDbSymbolTable
 70
           0
  0
ENDTAB
  0
TABLE
  2
UCS
  5
6
100
AcDbSymbolTable
 70
           0
  0
ENDTAB
  0
TABLE
  2
APPID
  5
8
100
AcDbSymbolTable
 70
           1
  0
APPID
  5
16
100
AcDbSymbolTableRecord
100
AcDbRegAppTableRecord
  2
ACAD
 70
           0
  0
ENDTAB
  0
TABLE
  2
DIMSTYLE
  5
9
100
AcDbSymbolTable
 70
           1
  0
DIMSTYLE
105
18
100
AcDbSymbolTableRecord
100
AcDbDimStyleTableRecord
  2
STANDARD
 70
           0
  3

  4

  5

  6

  7

 40
1.0
 41
0.18
 42
0.0625
 43
0.38
 44
0.18
 45
0.0
 46
0.0
 47
0.0
 48
0.0
 71
           0
 72
           0
 73
           1
 74
           1
 75
           0
 76
           0
 77
           0
 78
           0
140
0.18
141
0.09
142
0.0
143
25.4
144
1.0
145
0.0
146
1.0
147
0.09
170
           0
171
           2
172
           0
173
           0
174
           0
175
           0
176
           0
177
           0
178
           0
270
           2
271
           4
272
           4
273
           2
274
           2
275
           0
280
           0
281
           0
282
           0
283
           1
284
           0
285
           0
286
           0
287
           0
288
           0
340
17
  0
ENDTAB
  0
TABLE
  2
BLOCK_RECORD
  5
1
100
AcDbSymbolTable
 70
           0
  0
BLOCK_RECORD
  5
A
100
AcDbSymbolTableRecord
100
AcDbBlockTableRecord
  2
*MODEL_SPACE
  0
BLOCK_RECORD
  5
B
100
AcDbSymbolTableRecord
100
AcDbBlockTableRecord
  2
*PAPER_SPACE
  0
ENDTAB
  0
ENDSEC
  0
SECTION
  2
BLOCKS
  0
BLOCK
  5
D
100
AcDbEntity
  8
0
100
AcDbBlockBegin
  2
*MODEL_SPACE
 70
           0
 10
0.0
 20
0.0
 30
0.0
  3
*MODEL_SPACE
  1

  0
ENDBLK
  5
E
100
AcDbEntity
  8
0
100
AcDbBlockEnd
  0
BLOCK
  5
F
100
AcDbEntity
 67
           1
  8
0
100
AcDbBlockBegin
  2
*PAPER_SPACE
 70
           0
 10
0.0
 20
0.0
 30
0.0
  3
*PAPER_SPACE
  1

  0
ENDBLK
  5
10
100
AcDbEntity
 67
           1
  8
0
100
AcDbBlockEnd
  0
ENDSEC
  0
SECTION
  2
ENTITIES
  0
TEXT
  5
2E3
100
AcDbEntity
  8
1
 62
           7
100
AcDbText
 10
-474.813214124662
 20
311.577818596133
 40
5.0
  1
The reference drawing
 41
0.81
  7
CONVERTER_2
100
AcDbText
  0
TEXT
  5
2E2
100
AcDbEntity
  8
1
 62
           3
100
AcDbText
 10
-476.324414931926
 20
303.558542922429
 40
3.5
  1
All speciffcations and dimensions mentioned in the drawing are
 41
0.81
  7
CONVERTER_2
100
AcDbText
  0
TEXT
  5
2E1
100
AcDbEntity
  8
1
 62
           3
100
AcDbText
 10
-476.324414931926
 20
296.598542922429
 40
3.5
  1
subject to change without notification.
 41
0.81
  7
CONVERTER_2
100
AcDbText
  0
TEXT
  5
2E0
100
AcDbEntity
  8
1
 62
           3
100
AcDbText
 10
-476.324414931926
 20
289.638542922429
 40
3.5
  1
This drawing itself is also a property of Harmonic Drive Systems,Ins.
 41
0.81
  7
CONVERTER_2
100
AcDbText
  0
TEXT
  5
2DF
100
AcDbEntity
  8
1
 62
           3
100
AcDbText
 10
-476.324414931926
 20
278.718542922429
 40
3.5
  1
Harmonic Drive Systems,Inc.
 41
0.81
  7
CONVERTER_2
100
AcDbText
  0
TEXT
  5
2DE
100
AcDbEntity
  8
1
 62
           3
100
AcDbText
 10
-476.324414931926
 20
271.758542922429
 40
3.5
  1
Ichigo Omori Bldg.,4F 6-25-3 Minami-Oi, Shinagawa-ku, Tokyo 140-0013
 41
0.81
  7
CONVERTER_2
100
AcDbText
  0
TEXT
  5
2DD
100
AcDbEntity
  8
1
 62
           3
100
AcDbText
 10
-476.324414931926
 20
264.798542922429
 40
3.5
  1
JAPAN
 41
0.81
  7
CONVERTER_2
100
AcDbText
  0
TEXT
  5
2DC
100
AcDbEntity
  8
1
 62
           3
100
AcDbText
 10
-476.324414931926
 20
257.838542922429
 40
3.5
  1
Tel.03-5471-7800 Fax.03-5471-7811
 41
0.81
  7
CONVERTER_2
100
AcDbText
  0
TEXT
  5
2DB
100
AcDbEntity
  8
1
 62
           3
100
AcDbText
 10
-476.324414931926
 20
250.878542922429
 40
3.5
  1
http://www.hds.co.jp
 41
0.81
  7
CONVERTER_2
100
AcDbText
  0
MTEXT
  5
2D9
100
AcDbEntity
  8
1
 62
           3
100
AcDbMText
 10
-244.109084939462
 20
314.438085803856
 30
0.0
 40
4.5
 41
0.0
 71
           6
 72
           1
  1
C007653
  7
CONVERTER_1
  0
MTEXT
  5
2D8
100
AcDbEntity
  8
1
 62
           3
100
AcDbMText
 10
-236.609084939462
 20
322.188085803856
 30
0.0
 40
3.5
 41
0.0
 71
           5
 72
           1
  1
CSG-20-160-2UH-LW-SP-A
  7
CONVERTER_1
  0
LEADER
  5
2D6
100
AcDbEntity
  8
1
  6
CONTINUOUS
 62
           7
100
AcDbLeader
  3
Standard
 71
           0
 73
           3
 74
           0
 75
           0
 40
0.0
 76
           2
 10
-444.414446935651
 20
407.874640193991
 30
0.0
 10
-444.314446935651
 20
407.874640193991
 30
0.0
 77
           7
  0
LEADER
  5
2D3
100
AcDbEntity
  8
1
  6
CONTINUOUS
 62
           7
100
AcDbLeader
  3
Standard
 71
           0
 73
           3
 74
           0
 75
           0
 40
0.0
 76
           2
 10
-446.639760168542
 20
403.505600225128
 30
0.0
 10
-446.539760168541
 20
403.505600225128
 30
0.0
 77
           7
  0
LEADER
  5
2D0
100
AcDbEntity
  8
1
  6
CONTINUOUS
 62
           7
100
AcDbLeader
  3
Standard
 71
           0
 73
           3
 74
           0
 75
           0
 40
0.0
 76
           2
 10
-450.908800137405
 20
401.380286992237
 30
0.0
 10
-450.838089459286
 20
401.450997670355
 30
0.0
 77
           7
  0
LEADER
  5
2CD
100
AcDbEntity
  8
1
  6
CONTINUOUS
 62
           7
100
AcDbLeader
  3
Standard
 71
           0
 73
           3
 74
           0
 75
           0
 40
0.0
 76
           2
 10
-450.908800137405
 20
392.195884615475
 30
0.0
 10
-450.908800137405
 20
392.295884615475
 30
0.0
 77
           7
  0
LEADER
  5
2CA
100
AcDbEntity
  8
1
  6
CONTINUOUS
 62
           7
100
AcDbLeader
  3
Standard
 71
           0
 73
           3
 74
           0
 75
           0
 40
0.0
 76
           2
 10
-444.41444693565
 20
385.701531413721
 30
0.0
 10
-444.485157613769
 20
385.772242091839
 30
0.0
 77
           7
  0
LEADER
  5
2C7
100
AcDbEntity
  8
1
  6
CONTINUOUS
 62
           7
100
AcDbLeader
  3
Standard
 71
           0
 73
           3
 74
           0
 75
           0
 40
0.0
 76
           2
 10
-435.230044558888
 20
385.701531413721
 30
0.0
 10
-435.330044558888
 20
385.701531413721
 30
0.0
 77
           7
  0
LEADER
  5
2C4
100
AcDbEntity
  8
1
  6
CONTINUOUS
 62
           7
100
AcDbLeader
  3
Standard
 71
           0
 73
           3
 74
           0
 75
           0
 40
0.0
 76
           2
 10
-428.735691357134
 20
392.195884615475
 30
0.0
 10
-428.806402035253
 20
392.125173937357
 30
0.0
 77
           7
  0
LEADER
  5
2C1
100
AcDbEntity
  8
1
  6
CONTINUOUS
 62
           7
100
AcDbLeader
  3
Standard
 71
           0
 73
           3
 74
           0
 75
           0
 40
0.0
 76
           2
 10
-428.735691357134
 20
401.380286992237
 30
0.0
 10
-428.735691357134
 20
401.280286992237
 30
0.0
 77
           7
  0
LEADER
  5
2BE
100
AcDbEntity
  8
1
  6
CONTINUOUS
 62
           7
100
AcDbLeader
  3
Standard
 71
           0
 73
           3
 74
           0
 75
           0
 40
0.0
 76
           2
 10
-435.230044558889
 20
407.874640193991
 30
0.0
 10
-435.15933388077
 20
407.803929515872
 30
0.0
 77
           7
  0
LEADER
  5
2BB
100
AcDbEntity
  8
1
  6
CONTINUOUS
 62
           7
100
AcDbLeader
  3
Standard
 71
           0
 73
           3
 74
           0
 75
           0
 40
0.0
 76
           2
 10
-449.392956425388
 20
396.717375125737
 30
0.0
 10
-449.322245747269
 20
396.788085803856
 30
0.0
 77
           7
  0
LEADER
  5
2B8
100
AcDbEntity
  8
1
  6
CONTINUOUS
 62
           7
100
AcDbLeader
  3
Standard
 71
           0
 73
           3
 74
           0
 75
           0
 40
0.0
 76
           2
 10
-446.539760168541
 20
389.970571382584
 30
0.0
 10
-446.539760168541
 20
390.070571382584
 30
0.0
 77
           7
  0
LEADER
  5
2B5
100
AcDbEntity
  8
1
  6
CONTINUOUS
 62
           7
100
AcDbLeader
  3
Standard
 71
           0
 73
           3
 74
           0
 75
           0
 40
0.0
 76
           2
 10
-439.751535069151
 20
387.217375125737
 30
0.0
 10
-439.822245747269
 20
387.288085803856
 30
0.0
 77
           7
  0
LEADER
  5
2B2
100
AcDbEntity
  8
1
  6
CONTINUOUS
 62
           7
100
AcDbLeader
  3
Standard
 71
           0
 73
           3
 74
           0
 75
           0
 40
0.0
 76
           2
 10
-433.004731325997
 20
390.070571382584
 30
0.0
 10
-433.104731325997
 20
390.070571382584
 30
0.0
 77
           7
  0
LEADER
  5
2AF
100
AcDbEntity
  8
1
  6
CONTINUOUS
 62
           7
100
AcDbLeader
  3
Standard
 71
           0
 73
           3
 74
           0
 75
           0
 40
0.0
 76
           2
 10
-430.251535069151
 20
396.858796481975
 30
0.0
 10
-430.32224574727
 20
396.788085803856
 30
0.0
 77
           7
  0
LEADER
  5
2AC
100
AcDbEntity
  8
1
  6
CONTINUOUS
 62
           7
100
AcDbLeader
  3
Standard
 71
           0
 73
           3
 74
           0
 75
           0
 40
0.0
 76
           2
 10
-433.104731325997
 20
403.605600225128
 30
0.0
 10
-433.104731325997
 20
403.505600225128
 30
0.0
 77
           7
  0
LEADER
  5
2A9
100
AcDbEntity
  8
1
  6
CONTINUOUS
 62
           7
100
AcDbLeader
  3
Standard
 71
           0
 73
           3
 74
           0
 75
           0
 40
0.0
 76
           2
 10
-439.892956425388
 20
406.358796481974
 30
0.0
 10
-439.822245747269
 20
406.288085803856
 30
0.0
 77
           7
  0
ARC
  5
2A6
100
AcDbEntity
  8
1
  6
CONTINUOUS
 62
           7
100
AcDbCircle
 10
-328.018541177417
 20
353.088085803856
 40
0.2
100
AcDbArc
 50
0.0
 51
90.0
  0
ARC
  5
2A5
100
AcDbEntity
  8
1
  6
CONTINUOUS
 62
           7
100
AcDbCircle
 10
-341.118541177695
 20
385.888085803856
 40
0.1
100
AcDbArc
 50
180.0
 51
-90.0
  0
ARC
  5
2A4
100
AcDbEntity
  8
1
  6
CONTINUOUS
 62
           7
100
AcDbCircle
 10
-341.118541177695
 20
383.188085803856
 40
0.1
100
AcDbArc
 50
90.0
 51
180.0
  0
ARC
  5
2A3
100
AcDbEntity
  8
1
  6
CONTINUOUS
 62
           7
100
AcDbCircle
 10
-370.018541179469
 20
406.088085803856
 40
0.2
100
AcDbArc
 50
0.0
 51
90.0
  0
ARC
  5
2A2
100
AcDbEntity
  8
1
  6
CONTINUOUS
 62
           7
100
AcDbCircle
 10
-370.018541179469
 20
411.488085803856
 40
0.2
100
AcDbArc
 50
-90.0
 51
0.0
  0
ARC
  5
2A1
100
AcDbEntity
  8
1
  6
CONTINUOUS
 62
           7
100
AcDbCircle
 10
-385.218541179469
 20
369.938085803856
 40
0.905538513814
100
AcDbArc
 50
173.659808254119
 51
-123.515161713833
  0
ARC
  5
2A0
100
AcDbEntity
  8
1
  6
CONTINUOUS
 62
           7
100
AcDbCircle
 10
-381.918541179469
 20
362.788085803856
 40
0.8
100
AcDbArc
 50
180.0
 51
-90.0
  0
ARC
  5
29F
100
AcDbEntity
  8
1
  6
CONTINUOUS
 62
           7
100
AcDbCircle
 10
-385.218541179469
 20
423.638085803856
 40
0.905538513814
100
AcDbArc
 50
123.515161713835
 51
-173.659808254112
  0
ARC
  5
29E
100
AcDbEntity
  8
1
  6
CONTINUOUS
 62
           7
100
AcDbCircle
 10
-381.918541179469
 20
430.788085803856
 40
0.8
100
AcDbArc
 50
90.0
 51
180.0
  0
SPLINE
  5
29D
100
AcDbEntity
  8
1
  6
CONTINUOUS
 62
           3
100
AcDbSpline
210
0.0
220
0.0
230
1.0
 70
           0
 71
           4
 72
          20
 73
          16
 74
          27
 42
0.00000000001
 43
0.00000000001
 44
0.00000000001
 40
0.0
 40
0.0
 40
0.0
 40
0.0
 40
2.5258345497148254
 40
6.1394138392777853
 40
10.006536378672243
 40
12.189865497068537
 40
13.847867159851976
 40
15.190851820589378
 40
16.42902336086344
 40
19.798931941126362
 40
24.627302526533665
 40
30.077683968428275
 40
34.438942997280179
 40
38.598994160273222
 40
42.197597923900361
 40
42.197597923900361
 40
42.197597923900361
 40
42.197597923900361
 10
-386.72103616173467
 20
374.28808580385601
 30
0.0
 10
-386.53110066736872
 20
374.68203031408302
 30
0.0
 10
-385.56472929319762
 20
376.53349695406843
 30
0.0
 10
-383.40884534535769
 20
379.43351758940958
 30
0.0
 10
-379.60322742809058
 20
380.1204739216958
 30
0.0
 10
-377.46724485009679
 20
379.66825222192438
 30
0.0
 10
-375.8730222416641
 20
379.2128142035786
 30
0.0
 10
-374.60831287180542
 20
378.76101999293883
 30
0.0
 10
-373.44790054076168
 20
378.32914965926648
 30
0.0
 10
-370.29504271414561
 20
377.13928774943179
 30
0.0
 10
-365.47202218740392
 20
376.91205326997323
 30
0.0
 10
-360.55932324699558
 20
379.27257164165769
 30
0.0
 10
-357.10831714242983
 20
381.93924319679758
 30
0.0
 10
-353.12751227764528
 20
383.14722428407811
 30
0.0
 10
-350.55673733636769
 20
382.20190331933992
 30
0.0
 10
-349.81854117947148
 20
381.76160653985312
 30
0.0
 11
-386.72103616173467
 21
374.28808580385601
 31
0.0
 11
-386.29881701169023
 21
375.10733332994795
 31
0.0
 11
-385.67562911121547
 21
376.19324672203709
 31
0.0
 11
-384.57693073579486
 21
377.73829484615806
 31
0.0
 11
-383.15216114495945
 21
378.97823502054302
 31
0.0
 11
-381.21591392814418
 21
379.73308509219299
 31
0.0
 11
-379.22859511610903
 21
379.9194682039178
 31
0.0
 11
-378.23594165656647
 21
379.81225823637868
 31
0.0
 11
-377.2839378340318
 21
379.60121802934179
 31
0.0
 11
-376.53925624296681
 21
379.39886652496205
 31
0.0
 11
-375.78455077590149
 21
379.16798568520409
 31
0.0
 11
-375.18775724771456
 21
378.96610847823951
 31
0.0
 11
-374.64925792834163
 21
378.77361150823401
 31
0.0
 11
-374.22761132158314
 21
378.61893097330358
 31
0.0
 11
-373.81728820237356
 21
378.46604411850808
 31
0.0
 11
-372.42504982747852
 21
377.96302912954127
 31
0.0
 11
-370.75566476060703
 21
377.47478945353407
 31
0.0
 11
-368.24932337251818
 21
377.13232458031985
 31
0.0
 11
-365.73220048066617
 21
377.32587169983924
 31
0.0
 11
-362.97724985963555
 21
378.20544606797273
 31
0.0
 11
-360.46200322353229
 21
379.53787444958868
 31
0.0
 11
-358.67319988111763
 21
380.71077970235086
 31
0.0
 11
-356.87680891477157
 21
381.77409178699583
 31
0.0
 11
-354.97118325635432
 21
382.49632864940912
 31
0.0
 11
-352.93665485200358
 21
382.70909544163391
 31
0.0
 11
-351.2090918847469
 21
382.37468656474618
 31
0.0
 11
-349.81854117947148
 21
381.76160653985312
 31
0.0
  0
SPLINE
  5
29C
100
AcDbEntity
  8
1
  6
CONTINUOUS
 62
           3
100
AcDbSpline
210
0.0
220
0.0
230
1.0
 70
           0
 71
           4
 72
          23
 73
          19
 74
          33
 42
0.00000000001
 43
0.00000000001
 44
0.00000000001
 40
40.84234097198587
 40
40.84234097198587
 40
40.84234097198587
 40
40.84234097198587
 40
43.961609161004311
 40
45.393054601075377
 40
46.252586345734827
 40
48.991658364696043
 40
53.151709527685796
 40
57.512968556537736
 40
62.963349998432321
 40
67.79172058383962
 40
71.161629164102564
 40
72.399800704376602
 40
73.74278536511396
 40
75.400787027897451
 40
77.584116146293709
 40
81.451238685688139
 40
85.064817975251131
 40
87.590652524966075
 40
87.590652524966075
 40
87.590652524966075
 40
87.590652524966075
 10
-346.81854117945147
 20
415.08066837282672
 30
0.0
 10
-347.53610774077691
 20
413.68454983944122
 30
0.0
 10
-348.5891653836116
 20
412.54782573121702
 30
0.0
 10
-349.8185411794791
 20
411.81456506785412
 30
0.0
 10
-350.5567373363732
 20
411.37426828836999
 30
0.0
 10
-353.12751227764841
 20
410.42894732363487
 30
0.0
 10
-357.10831714242983
 20
411.63692841091438
 30
0.0
 10
-360.55932324699558
 20
414.30359996605432
 30
0.0
 10
-365.47202218740392
 20
416.66411833773873
 30
0.0
 10
-370.29504271414561
 20
416.43688385828023
 30
0.0
 10
-373.44790054076168
 20
415.24702194844548
 30
0.0
 10
-374.60831287180542
 20
414.81515161477319
 30
0.0
 10
-375.8730222416641
 20
414.36335740413352
 30
0.0
 10
-377.46724485009679
 20
413.90791938578758
 30
0.0
 10
-379.60322742809058
 20
413.45569768601632
 30
0.0
 10
-383.40884534535769
 20
414.14265401830238
 30
0.0
 10
-385.56472929319813
 20
417.04267465364319
 30
0.0
 10
-386.53110066736872
 20
418.89414129362888
 30
0.0
 10
-386.72103616173467
 20
419.28808580385601
 30
0.0
 11
-346.81854117945147
 21
415.08066837282672
 31
0.0
 11
-347.89643020773127
 21
413.40262467329472
 31
0.0
 11
-348.97081177468215
 21
412.37051875741815
 31
0.0
 11
-349.45136260445332
 21
412.03985930205783
 31
0.0
 11
-349.87652244302768
 21
411.77998216821084
 31
0.0
 11
-350.09318045778696
 21
411.65270151438051
 31
0.0
 11
-350.31879668929798
 21
411.53174728995697
 31
0.0
 11
-351.34644198908097
 21
411.12488065390716
 31
0.0
 11
-352.68080104786111
 21
410.8512370179825
 31
0.0
 11
-354.8110867603894
 21
411.03898644939324
 31
0.0
 11
-356.82084636030493
 21
411.78509790130823
 31
0.0
 11
-358.66620456180902
 21
412.86326916543487
 31
0.0
 11
-360.46200322353212
 21
414.03829715812316
 31
0.0
 11
-362.97724985963555
 21
415.37072553973923
 31
0.0
 11
-365.73220048066611
 21
416.25029990787266
 31
0.0
 11
-368.24932337251829
 21
416.44384702739217
 31
0.0
 11
-370.75566476060703
 21
416.10138215417794
 31
0.0
 11
-372.42504982747857
 21
415.61314247817069
 31
0.0
 11
-373.81728820237356
 21
415.11012748920382
 31
0.0
 11
-374.22761132158325
 21
414.95724063440844
 31
0.0
 11
-374.64925792834168
 21
414.80256009947789
 31
0.0
 11
-375.18775724771456
 21
414.61006312947268
 31
0.0
 11
-375.78455077590149
 21
414.40818592250798
 31
0.0
 11
-376.53925624296681
 21
414.17730508274997
 31
0.0
 11
-377.2839378340318
 21
413.97495357837028
 31
0.0
 11
-378.23594165656652
 21
413.76391337133333
 31
0.0
 11
-379.22859511610903
 21
413.65670340379421
 31
0.0
 11
-381.21591392814423
 21
413.84308651551896
 31
0.0
 11
-383.15216114495951
 21
414.59793658716899
 31
0.0
 11
-384.57693073579497
 21
415.83787676155373
 31
0.0
 11
-385.67562911121587
 21
417.3829248856747
 31
0.0
 11
-386.29881701169029
 21
418.46883827776389
 31
0.0
 11
-386.72103616173467
 21
419.28808580385601
 31
0.0
  0
SPLINE
  5
29B
100
AcDbEntity
  8
1
  6
CONTINUOUS
 62
           3
100
AcDbSpline
210
0.0
220
0.0
230
1.0
 70
           0
 71
           4
 72
           9
 73
           5
 74
           5
 42
0.00000000001
 43
0.00000000001
 44
0.00000000001
 40
52.228736756606366
 40
52.228736756606366
 40
52.228736756606366
 40
52.228736756606366
 40
53.597081841885341
 40
55.648922554763125
 40
55.648922554763125
 40
55.648922554763125
 40
55.648922554763125
 10
-346.81854117945022
 20
370.97449907425619
 30
0.0
 10
-347.02396920068901
 20
370.73867702417903
 30
0.0
 10
-347.83718536040408
 20
370.06565402330313
 30
0.0
 10
-349.06443085508488
 20
369.93743575324481
 30
0.0
 10
-349.81854117948097
 20
369.62072865655318
 30
0.0
 11
-346.81854117945022
 21
370.97449907425619
 31
0.0
 11
-347.20991884018673
 21
370.61076613754312
 31
0.0
 11
-347.74094180648189
 21
370.28735532580021
 31
0.0
 11
-348.71716471228234
 21
369.97043261699264
 31
0.0
 11
-349.81854117948097
 21
369.62072865655318
 31
0.0
  0
SPLINE
  5
29A
100
AcDbEntity
  8
1
  6
CONTINUOUS
 62
           3
100
AcDbSpline
210
0.0
220
0.0
230
1.0
 70
           0
 71
           4
 72
           8
 73
           4
 74
           3
 42
0.00000000001
 43
0.00000000001
 44
0.00000000001
 40
40.842340971994638
 40
40.842340971994638
 40
40.842340971994638
 40
40.842340971994638
 40
45.393054601078376
 40
45.393054601078376
 40
45.393054601078376
 40
45.393054601078376
 10
-349.81854117947148
 20
381.76160653985312
 30
0.0
 10
-348.58916538360683
 20
381.02834587648988
 30
0.0
 10
-347.53610774077481
 20
379.89162176826721
 30
0.0
 10
-346.81854117944982
 20
378.49550323488211
 30
0.0
 11
-349.81854117947148
 21
381.76160653985312
 31
0.0
 11
-348.1266127165083
 21
380.3771265886258
 31
0.0
 11
-346.81854117944982
 21
378.49550323488211
 31
0.0
  0
SPLINE
  5
299
100
AcDbEntity
  8
1
  6
CONTINUOUS
 62
           3
100
AcDbSpline
210
0.0
220
0.0
230
1.0
 70
           0
 71
           4
 72
          11
 73
           7
 74
           9
 42
0.00000000001
 43
0.00000000001
 44
0.00000000001
 40
55.640263954921302
 40
55.640263954921302
 40
55.640263954921302
 40
55.640263954921302
 40
56.957084016471306
 40
59.781694604950403
 40
65.098769708124479
 40
72.905390357047438
 40
72.905390357047438
 40
72.905390357047438
 40
72.905390357047438
 10
-349.81854117948097
 20
369.62072865655318
 30
0.0
 10
-349.85196075236792
 20
369.60669328857148
 30
0.0
 10
-351.02575101693589
 20
369.09475259656688
 30
0.0
 10
-352.74926018479221
 20
366.85690963405511
 30
0.0
 10
-352.61491920240519
 20
361.5415319284499
 30
0.0
 10
-357.39034100923851
 20
359.2910846582518
 30
0.0
 10
-359.81854117948899
 20
359.99256560261199
 30
0.0
 11
-349.81854117948097
 21
369.62072865655318
 31
0.0
 11
-350.07574969745133
 21
369.50079830751281
 31
0.0
 11
-350.55602766909595
 21
369.23383205415979
 31
0.0
 11
-351.47532210081187
 21
368.41000160186417
 31
0.0
 11
-352.10826989423407
 21
367.35186315550692
 31
0.0
 11
-352.72057677012145
 21
365.03104454948306
 31
0.0
 11
-353.4379078226271
 21
362.71983737468241
 31
0.0
 11
-356.13456584207017
 21
360.30936769714663
 31
0.0
 11
-359.81854117948899
 21
359.99256560261199
 31
0.0
  0
CIRCLE
  5
298
100
AcDbEntity
  8
1
  6
CONTINUOUS
 62
           7
100
AcDbCircle
 10
-439.822245747269
 20
396.788085803856
 40
6.999999879871
  0
CIRCLE
  5
297
100
AcDbEntity
  8
1
  6
CONTINUOUS
 62
           7
100
AcDbCircle
 10
-439.822245747269
 20
396.788085803856
 40
4.999999879871
  0
CIRCLE
  5
296
100
AcDbEntity
  8
1
  6
DASH_CENTER
 62
           3
100
AcDbCircle
 10
-439.822245747269
 20
396.788085803856
 40
16.0
  0
CIRCLE
  5
295
100
AcDbEntity
  8
1
  6
CONTINUOUS
 62
           3
100
AcDbCircle
 10
-439.822245747269
 20
412.788085803856
 40
3.0
  0
CIRCLE
  5
294
100
AcDbEntity
  8
1
  6
CONTINUOUS
 62
           7
100
AcDbCircle
 10
-439.822245747269
 20
412.788085803856
 40
2.4
  0
CIRCLE
  5
293
100
AcDbEntity
  8
1
  6
CONTINUOUS
 62
           3
100
AcDbCircle
 10
-451.135954246254
 20
408.101794302841
 40
3.0
  0
CIRCLE
  5
292
100
AcDbEntity
  8
1
  6
CONTINUOUS
 62
           7
100
AcDbCircle
 10
-451.135954246254
 20
408.101794302841
 40
2.4
  0
CIRCLE
  5
291
100
AcDbEntity
  8
1
  6
CONTINUOUS
 62
           3
100
AcDbCircle
 10
-455.822245747269
 20
396.788085803856
 40
3.0
  0
CIRCLE
  5
290
100
AcDbEntity
  8
1
  6
CONTINUOUS
 62
           7
100
AcDbCircle
 10
-455.822245747269
 20
396.788085803856
 40
2.4
  0
CIRCLE
  5
28F
100
AcDbEntity
  8
1
  6
CONTINUOUS
 62
           3
100
AcDbCircle
 10
-451.135954246254
 20
385.474377304871
 40
3.0
  0
CIRCLE
  5
28E
100
AcDbEntity
  8
1
  6
CONTINUOUS
 62
           7
100
AcDbCircle
 10
-451.135954246254
 20
385.474377304871
 40
2.4
  0
CIRCLE
  5
28D
100
AcDbEntity
  8
1
  6
CONTINUOUS
 62
           3
100
AcDbCircle
 10
-439.822245747269
 20
380.788085803856
 40
3.0
  0
CIRCLE
  5
28C
100
AcDbEntity
  8
1
  6
CONTINUOUS
 62
           7
100
AcDbCircle
 10
-439.822245747269
 20
380.788085803856
 40
2.4
  0
CIRCLE
  5
28B
100
AcDbEntity
  8
1
  6
CONTINUOUS
 62
           3
100
AcDbCircle
 10
-428.508537248284
 20
385.474377304871
 40
3.0
  0
CIRCLE
  5
28A
100
AcDbEntity
  8
1
  6
CONTINUOUS
 62
           7
100
AcDbCircle
 10
-428.508537248284
 20
385.474377304871
 40
2.4
  0
CIRCLE
  5
289
100
AcDbEntity
  8
1
  6
CONTINUOUS
 62
           3
100
AcDbCircle
 10
-423.822245747269
 20
396.788085803856
 40
3.0
  0
CIRCLE
  5
288
100
AcDbEntity
  8
1
  6
CONTINUOUS
 62
           7
100
AcDbCircle
 10
-423.822245747269
 20
396.788085803856
 40
2.4
  0
CIRCLE
  5
287
100
AcDbEntity
  8
1
  6
CONTINUOUS
 62
           3
100
AcDbCircle
 10
-428.508537248284
 20
408.101794302841
 40
3.0
  0
CIRCLE
  5
286
100
AcDbEntity
  8
1
  6
CONTINUOUS
 62
           7
100
AcDbCircle
 10
-428.508537248284
 20
408.101794302841
 40
2.4
  0
CIRCLE
  5
285
100
AcDbEntity
  8
1
  6
CONTINUOUS
 62
           7
100
AcDbCircle
 10
-439.822245747269
 20
396.788085803856
 40
20.1
  0
CIRCLE
  5
284
100
AcDbEntity
  8
1
  6
CONTINUOUS
 62
           7
100
AcDbCircle
 10
-439.822245747269
 20
396.788085803856
 40
21.5
  0
CIRCLE
  5
283
100
AcDbEntity
  8
1
  6
CONTINUOUS
 62
           7
100
AcDbCircle
 10
-439.822245747269
 20
396.788085803856
 40
22.5
  0
CIRCLE
  5
282
100
AcDbEntity
  8
1
  6
CONTINUOUS
 62
           7
100
AcDbCircle
 10
-439.822245747269
 20
396.788085803856
 40
35.0
  0
CIRCLE
  5
281
100
AcDbEntity
  8
1
  6
DASH_CENTER
 62
           3
100
AcDbCircle
 10
-439.822245747269
 20
396.788085803856
 40
31.0
  0
CIRCLE
  5
280
100
AcDbEntity
  8
1
  6
CONTINUOUS
 62
           7
100
AcDbCircle
 10
-439.822245747269
 20
396.788085803856
 40
28.0
  0
CIRCLE
  5
27F
100
AcDbEntity
  8
1
  6
DASH_CENTER
 62
           3
100
AcDbCircle
 10
-439.822245747269
 20
396.788085803856
 40
12.0
  0
CIRCLE
  5
27E
100
AcDbEntity
  8
1
  6
DASH_CENTER
 62
           3
100
AcDbCircle
 10
-439.822245747269
 20
396.788085803856
 40
9.5
  0
CIRCLE
  5
27D
100
AcDbEntity
  8
1
  6
CONTINUOUS
 62
           7
100
AcDbCircle
 10
-262.24085389253
 20
396.788085803856
 40
46.5
  0
CIRCLE
  5
27C
100
AcDbEntity
  8
1
  6
CONTINUOUS
 62
           7
100
AcDbCircle
 10
-221.24085389253
 20
396.788085803856
 40
2.75
  0
CIRCLE
  5
27B
100
AcDbEntity
  8
1
  6
CONTINUOUS
 62
           7
100
AcDbCircle
 10
-233.249475863882
 20
367.796707775208
 40
2.75
  0
CIRCLE
  5
27A
100
AcDbEntity
  8
1
  6
CONTINUOUS
 62
           7
100
AcDbCircle
 10
-262.24085389253
 20
355.788085803856
 40
2.75
  0
CIRCLE
  5
279
100
AcDbEntity
  8
1
  6
CONTINUOUS
 62
           7
100
AcDbCircle
 10
-291.232231921179
 20
367.796707775208
 40
2.75
  0
CIRCLE
  5
278
100
AcDbEntity
  8
1
  6
CONTINUOUS
 62
           7
100
AcDbCircle
 10
-303.24085389253
 20
396.788085803856
 40
2.75
  0
CIRCLE
  5
277
100
AcDbEntity
  8
1
  6
CONTINUOUS
 62
           7
100
AcDbCircle
 10
-291.232231921179
 20
425.779463832505
 40
2.75
  0
CIRCLE
  5
276
100
AcDbEntity
  8
1
  6
DASH_CENTER
 62
           3
100
AcDbCircle
 10
-262.24085389253
 20
396.788085803856
 40
41.0
  0
CIRCLE
  5
275
100
AcDbEntity
  8
1
  6
CONTINUOUS
 62
           7
100
AcDbCircle
 10
-224.361793059568
 20
381.098065076888
 40
4.25
  0
CIRCLE
  5
274
100
AcDbEntity
  8
1
  6
CONTINUOUS
 62
           7
100
AcDbCircle
 10
-224.361793059568
 20
381.098065076888
 40
3.730384757729
  0
CIRCLE
  5
273
100
AcDbEntity
  8
1
  6
CONTINUOUS
 62
           7
100
AcDbCircle
 10
-246.550833165562
 20
434.667146636819
 40
3.730384757729
  0
CIRCLE
  5
272
100
AcDbEntity
  8
1
  6
CONTINUOUS
 62
           7
100
AcDbCircle
 10
-246.550833165562
 20
434.667146636819
 40
4.25
  0
CIRCLE
  5
271
100
AcDbEntity
  8
1
  6
CONTINUOUS
 62
           7
100
AcDbCircle
 10
-300.119914725493
 20
412.478106530825
 40
4.25
  0
CIRCLE
  5
270
100
AcDbEntity
  8
1
  6
CONTINUOUS
 62
           7
100
AcDbCircle
 10
-300.119914725493
 20
412.478106530825
 40
3.730384757729
  0
CIRCLE
  5
26F
100
AcDbEntity
  8
1
  6
CONTINUOUS
 62
           7
100
AcDbCircle
 10
-277.930874619499
 20
358.909024970893
 40
4.25
  0
CIRCLE
  5
26E
100
AcDbEntity
  8
1
  6
CONTINUOUS
 62
           7
100
AcDbCircle
 10
-277.930874619499
 20
358.909024970893
 40
3.730384757729
  0
CIRCLE
  5
26D
100
AcDbEntity
  8
1
  6
CONTINUOUS
 62
           3
100
AcDbCircle
 10
-341.51854117947
 20
396.788085803856
 40
1.5
  0
CIRCLE
  5
26C
100
AcDbEntity
  8
1
  6
CONTINUOUS
 62
           7
100
AcDbCircle
 10
-341.51854117947
 20
396.788085803856
 40
1.2
  0
CIRCLE
  5
26B
100
AcDbEntity
  8
1
  6
CONTINUOUS
 62
           7
100
AcDbCircle
 10
-439.822245747269
 20
427.788085803856
 40
2.75
  0
CIRCLE
  5
26A
100
AcDbEntity
  8
1
  6
CONTINUOUS
 62
           7
100
AcDbCircle
 10
-439.822245747269
 20
427.788085803856
 40
2.403589838487
  0
CIRCLE
  5
269
100
AcDbEntity
  8
1
  6
CONTINUOUS
 62
           7
100
AcDbCircle
 10
-458.043588568336
 20
421.86761262948
 40
2.403589838486
  0
CIRCLE
  5
268
100
AcDbEntity
  8
1
  6
CONTINUOUS
 62
           7
100
AcDbCircle
 10
-458.043588568336
 20
421.86761262948
 40
2.75
  0
CIRCLE
  5
267
100
AcDbEntity
  8
1
  6
CONTINUOUS
 62
           7
100
AcDbCircle
 10
-469.304997752419
 20
406.36761262948
 40
2.75
  0
CIRCLE
  5
266
100
AcDbEntity
  8
1
  6
CONTINUOUS
 62
           7
100
AcDbCircle
 10
-469.304997752419
 20
406.36761262948
 40
2.403589838487
  0
CIRCLE
  5
265
100
AcDbEntity
  8
1
  6
CONTINUOUS
 62
           7
100
AcDbCircle
 10
-469.304997752421
 20
387.208558978237
 40
2.75
  0
CIRCLE
  5
264
100
AcDbEntity
  8
1
  6
CONTINUOUS
 62
           7
100
AcDbCircle
 10
-469.304997752421
 20
387.208558978237
 40
2.403589838486
  0
CIRCLE
  5
263
100
AcDbEntity
  8
1
  6
CONTINUOUS
 62
           7
100
AcDbCircle
 10
-458.043588568337
 20
371.708558978233
 40
2.403589838486
  0
CIRCLE
  5
262
100
AcDbEntity
  8
1
  6
CONTINUOUS
 62
           7
100
AcDbCircle
 10
-458.043588568337
 20
371.708558978233
 40
2.75
  0
CIRCLE
  5
261
100
AcDbEntity
  8
1
  6
CONTINUOUS
 62
           7
100
AcDbCircle
 10
-439.822245747267
 20
365.788085803856
 40
2.75
  0
CIRCLE
  5
260
100
AcDbEntity
  8
1
  6
CONTINUOUS
 62
           7
100
AcDbCircle
 10
-439.822245747267
 20
365.788085803856
 40
2.403589838486
  0
CIRCLE
  5
25F
100
AcDbEntity
  8
1
  6
CONTINUOUS
 62
           7
100
AcDbCircle
 10
-421.600902926201
 20
371.708558978233
 40
2.403589838486
  0
CIRCLE
  5
25E
100
AcDbEntity
  8
1
  6
CONTINUOUS
 62
           7
100
AcDbCircle
 10
-421.600902926201
 20
371.708558978233
 40
2.75
  0
CIRCLE
  5
25D
100
AcDbEntity
  8
1
  6
CONTINUOUS
 62
           7
100
AcDbCircle
 10
-410.339493742119
 20
387.208558978233
 40
2.75
  0
CIRCLE
  5
25C
100
AcDbEntity
  8
1
  6
CONTINUOUS
 62
           7
100
AcDbCircle
 10
-410.339493742119
 20
387.208558978233
 40
2.403589838486
  0
CIRCLE
  5
25B
100
AcDbEntity
  8
1
  6
CONTINUOUS
 62
           7
100
AcDbCircle
 10
-410.339493742119
 20
406.367612629476
 40
2.75
  0
CIRCLE
  5
25A
100
AcDbEntity
  8
1
  6
CONTINUOUS
 62
           7
100
AcDbCircle
 10
-410.339493742119
 20
406.367612629476
 40
2.403589838486
  0
CIRCLE
  5
259
100
AcDbEntity
  8
1
  6
CONTINUOUS
 62
           7
100
AcDbCircle
 10
-421.600902926203
 20
421.867612629479
 40
2.403589838486
  0
CIRCLE
  5
258
100
AcDbEntity
  8
1
  6
CONTINUOUS
 62
           7
100
AcDbCircle
 10
-421.600902926203
 20
421.867612629479
 40
2.75
  0
CIRCLE
  5
257
100
AcDbEntity
  8
1
  6
CONTINUOUS
 62
           7
100
AcDbCircle
 10
-262.24085389253
 20
437.788085803856
 40
2.75
  0
CIRCLE
  5
256
100
AcDbEntity
  8
1
  6
CONTINUOUS
 62
           7
100
AcDbCircle
 10
-233.249475863882
 20
425.779463832505
 40
2.75
  0
CIRCLE
  5
255
100
AcDbEntity
  8
1
  6
CONTINUOUS
 62
           7
100
AcDbCircle
 10
-262.24085389253
 20
396.788085803856
 40
5.0
  0
CIRCLE
  5
254
100
AcDbEntity
  8
1
  6
CONTINUOUS
 62
           7
100
AcDbCircle
 10
-262.24085389253
 20
396.788085803856
 40
16.8
  0
CIRCLE
  5
253
100
AcDbEntity
  8
1
  6
DASHED
 62
           4
100
AcDbCircle
 10
-270.629274729973
 20
376.536646451209
 40
3.25
  0
CIRCLE
  5
252
100
AcDbEntity
  8
1
  6
DASHED
 62
           4
100
AcDbCircle
 10
-241.989414539883
 20
388.399664966413
 40
3.25
  0
CIRCLE
  5
251
100
AcDbEntity
  8
1
  6
CONTINUOUS
 62
           7
100
AcDbCircle
 10
-270.629274729973
 20
376.536646451209
 40
1.7
  0
CIRCLE
  5
250
100
AcDbEntity
  8
1
  6
CONTINUOUS
 62
           7
100
AcDbCircle
 10
-241.989414539883
 20
388.399664966413
 40
1.7
  0
CIRCLE
  5
24F
100
AcDbEntity
  8
1
  6
DASHED
 62
           4
100
AcDbCircle
 10
-282.492293245178
 20
405.176506641299
 40
3.25
  0
CIRCLE
  5
24E
100
AcDbEntity
  8
1
  6
DASHED
 62
           4
100
AcDbCircle
 10
-253.852433055088
 20
417.039525156503
 40
3.25
  0
CIRCLE
  5
24D
100
AcDbEntity
  8
1
  6
CONTINUOUS
 62
           7
100
AcDbCircle
 10
-282.492293245178
 20
405.176506641299
 40
1.7
  0
CIRCLE
  5
24C
100
AcDbEntity
  8
1
  6
CONTINUOUS
 62
           7
100
AcDbCircle
 10
-253.852433055088
 20
417.039525156503
 40
1.7
  0
CIRCLE
  5
24B
100
AcDbEntity
  8
1
  6
DASHED
 62
           4
100
AcDbCircle
 10
-274.49085389253
 20
396.788085803856
 40
1.45
  0
CIRCLE
  5
24A
100
AcDbEntity
  8
1
  6
DASHED
 62
           4
100
AcDbCircle
 10
-249.990853892529
 20
396.788085803856
 40
1.45
  0
CIRCLE
  5
249
100
AcDbEntity
  8
1
  6
DASH_CENTER
 62
           3
100
AcDbCircle
 10
-262.24085389253
 20
396.788085803856
 40
21.92
  0
ARC
  5
248
100
AcDbEntity
  8
1
  6
PHANTOM
 62
           7
100
AcDbCircle
 10
-300.324414931926
 20
252.890248337061
 40
12.0
100
AcDbArc
 50
-90.0
 51
0.0
  0
ARC
  5
247
100
AcDbEntity
  8
1
  6
PHANTOM
 62
           7
100
AcDbCircle
 10
-300.324414931926
 20
312.890248337061
 40
12.0
100
AcDbArc
 50
0.0
 51
90.0
  0
ARC
  5
246
100
AcDbEntity
  8
1
  6
PHANTOM
 62
           7
100
AcDbCircle
 10
-472.324414931926
 20
312.890248337061
 40
12.0
100
AcDbArc
 50
90.0
 51
180.0
  0
ARC
  5
245
100
AcDbEntity
  8
1
  6
PHANTOM
 62
           7
100
AcDbCircle
 10
-472.324414931926
 20
252.890248337061
 40
12.0
100
AcDbArc
 50
180.0
 51
-90.0
  0
ARC
  5
244
100
AcDbEntity
  8
1
  6
CONTINUOUS
 62
           7
100
AcDbCircle
 10
-371.318541179469
 20
412.288085803856
 40
1.5
100
AcDbArc
 50
90.0
 51
180.0
  0
ARC
  5
243
100
AcDbEntity
  8
1
  6
CONTINUOUS
 62
           7
100
AcDbCircle
 10
-371.318541179469
 20
381.288085803856
 40
1.5
100
AcDbArc
 50
180.0
 51
-90.0
  0
ARC
  5
242
100
AcDbEntity
  8
1
  6
DASHED
 62
           4
100
AcDbCircle
 10
-274.49085389253
 20
396.788085803856
 40
2.75
100
AcDbArc
 50
89.999999999993
 51
-89.999999999993
  0
ARC
  5
241
100
AcDbEntity
  8
1
  6
CONTINUOUS
 62
           7
100
AcDbCircle
 10
-262.24085389253
 20
396.788085803856
 40
11.0
100
AcDbArc
 50
18.193978088997
 51
161.880619342101
  0
ARC
  5
240
100
AcDbEntity
  8
1
  6
DASHED
 62
           4
100
AcDbCircle
 10
-262.24085389253
 20
396.788085803856
 40
9.5
100
AcDbArc
 50
-23.44574987033
 51
21.434438237762
  0
ARC
  5
23F
100
AcDbEntity
  8
1
  6
DASHED
 62
           4
100
AcDbCircle
 10
-262.24085389253
 20
396.788085803856
 40
9.5
100
AcDbArc
 50
156.366695286337
 51
-154.796924309114
  0
ARC
  5
23E
100
AcDbEntity
  8
1
  6
DASHED
 62
           4
100
AcDbCircle
 10
-262.24085389253
 20
396.788085803856
 40
9.5
100
AcDbArc
 50
81.317696808416
 51
124.038968585837
  0
ARC
  5
23D
100
AcDbEntity
  8
1
  6
CONTINUOUS
 62
           7
100
AcDbCircle
 10
-262.24085389253
 20
396.788085803856
 40
14.4
100
AcDbArc
 50
10.456394244001
 51
168.997903270226
  0
ARC
  5
23C
100
AcDbEntity
  8
1
  6
DASHED
 62
           4
100
AcDbCircle
 10
-249.990853892529
 20
396.788085803856
 40
2.75
100
AcDbArc
 50
-90.0
 51
90.0
  0
ARC
  5
23B
100
AcDbEntity
  8
1
  6
CONTINUOUS
 62
           7
100
AcDbCircle
 10
-262.24085389253
 20
396.788085803856
 40
11.0
100
AcDbArc
 50
-160.07342669518
 51
-21.447752633478
  0
ARC
  5
23A
100
AcDbEntity
  8
1
  6
CONTINUOUS
 62
           7
100
AcDbCircle
 10
-262.24085389253
 20
396.788085803856
 40
14.4
100
AcDbArc
 50
-167.796020379417
 51
-12.753346944063
  0
ARC
  5
239
100
AcDbEntity
  8
1
  6
CONTINUOUS
 62
           7
100
AcDbCircle
 10
-373.508541098525
 20
380.488086041194
 40
0.3
100
AcDbArc
 50
0.0
 51
90.0
  0
ARC
  5
238
100
AcDbEntity
  8
1
  6
CONTINUOUS
 62
           7
100
AcDbCircle
 10
-373.508541098525
 20
413.088085566518
 40
0.3
100
AcDbArc
 50
-90.0
 51
0.0
  0
LINE
  5
237
100
AcDbEntity
  8
1
  6
PHANTOM
 62
           7
100
AcDbLine
 10
-300.324414931926
 20
324.890248337061
 11
-472.324414931926
 21
324.890248337061
  0
LINE
  5
236
100
AcDbEntity
  8
1
  6
PHANTOM
 62
           7
100
AcDbLine
 10
-288.324414931926
 20
252.890248337061
 11
-288.324414931926
 21
312.890248337061
  0
LINE
  5
235
100
AcDbEntity
  8
1
  6
PHANTOM
 62
           7
100
AcDbLine
 10
-472.324414931926
 20
240.890248337061
 11
-300.324414931926
 21
240.890248337061
  0
LINE
  5
234
100
AcDbEntity
  8
1
  6
PHANTOM
 62
           7
100
AcDbLine
 10
-484.324414931926
 20
312.890248337061
 11
-484.324414931926
 21
252.890248337061
  0
LINE
  5
233
100
AcDbEntity
  8
1
  6
CONTINUOUS
 62
           7
100
AcDbLine
 10
-376.318541179468
 20
370.374308195509
 11
-376.318541179469
 21
361.681359054478
  0
LINE
  5
232
100
AcDbEntity
  8
1
  6
CONTINUOUS
 62
           7
100
AcDbLine
 10
-359.818541179489
 20
358.538085803856
 11
-349.81854117947
 21
358.538085803856
  0
LINE
  5
231
100
AcDbEntity
  8
1
  6
DASH_CENTER
 62
           3
100
AcDbLine
 10
-381.018541179469
 20
371.788085803856
 11
-375.018541179469
 21
371.788085803856
  0
LINE
  5
230
100
AcDbEntity
  8
1
  6
DASH_CENTER
 62
           3
100
AcDbLine
 10
-378.018541179469
 20
374.788085803856
 11
-378.018541179469
 21
368.788085803856
  0
LINE
  5
22F
100
AcDbEntity
  8
1
  6
PHANTOM
 62
           3
100
AcDbLine
 10
-378.018541179469
 20
369.666765460296
 11
-380.139861523029
 21
371.788085803856
  0
LINE
  5
22E
100
AcDbEntity
  8
1
  6
PHANTOM
 62
           3
100
AcDbLine
 10
-375.897220835909
 20
371.788085803856
 11
-378.018541179469
 21
369.666765460296
  0
LINE
  5
22D
100
AcDbEntity
  8
1
  6
PHANTOM
 62
           3
100
AcDbLine
 10
-380.139861523029
 20
371.788085803856
 11
-378.018541179469
 21
373.909406147416
  0
LINE
  5
22C
100
AcDbEntity
  8
1
  6
PHANTOM
 62
           3
100
AcDbLine
 10
-378.018541179469
 20
373.909406147416
 11
-375.897220835909
 21
371.788085803856
  0
LINE
  5
22B
100
AcDbEntity
  8
1
  6
CONTINUOUS
 62
           7
100
AcDbLine
 10
-349.81854117947
 20
353.288085803856
 11
-349.81854117947
 21
350.788086285951
  0
LINE
  5
22A
100
AcDbEntity
  8
1
  6
CONTINUOUS
 62
           7
100
AcDbLine
 10
-359.818541179489
 20
350.78808609124
 11
-359.318541179489
 21
350.288086100975
  0
LINE
  5
229
100
AcDbEntity
  8
1
  6
CONTINUOUS
 62
           7
100
AcDbLine
 10
-349.81854117947
 20
350.788086285951
 11
-350.31854117947
 21
350.288086276216
  0
LINE
  5
228
100
AcDbEntity
  8
1
  6
CONTINUOUS
 62
           7
100
AcDbLine
 10
-359.318541179489
 20
443.288085506736
 11
-359.818541179489
 21
442.788085516472
  0
LINE
  5
227
100
AcDbEntity
  8
1
  6
CONTINUOUS
 62
           7
100
AcDbLine
 10
-349.81854117947
 20
442.788085321761
 11
-350.31854117947
 21
443.288085331496
  0
LINE
  5
226
100
AcDbEntity
  8
1
  6
CONTINUOUS
 62
           7
100
AcDbLine
 10
-359.818541179489
 20
379.909141850142
 11
-359.818541179489
 21
350.78808609124
  0
LINE
  5
225
100
AcDbEntity
  8
1
  6
CONTINUOUS
 62
           7
100
AcDbLine
 10
-359.818541179489
 20
353.988085803856
 11
-357.818545580488
 21
353.988085803856
  0
LINE
  5
224
100
AcDbEntity
  8
1
  6
CONTINUOUS
 62
         250
100
AcDbLine
 10
-447.600420340321
 20
402.444940053349
 11
-445.479099996762
 21
404.566260396908
  0
LINE
  5
223
100
AcDbEntity
  8
1
  6
CONTINUOUS
 62
         250
100
AcDbLine
 10
-446.539760168541
 20
403.505600225128
 11
-445.479099996762
 21
402.444940053349
  0
LINE
  5
222
100
AcDbEntity
  8
1
  6
DASH_CENTER
 62
           3
100
AcDbLine
 10
-459.799935034786
 20
424.285016151986
 11
-456.273223521032
 21
419.430914185736
  0
LINE
  5
221
100
AcDbEntity
  8
1
  6
DASH_CENTER
 62
           3
100
AcDbLine
 10
-472.146826031157
 20
407.290978610554
 11
-466.440486933386
 21
405.436876644304
  0
LINE
  5
220
100
AcDbEntity
  8
1
  6
DASH_CENTER
 62
           3
100
AcDbLine
 10
-423.371267973504
 20
419.430914185734
 11
-419.844556459749
 21
424.285016151983
  0
LINE
  5
21F
100
AcDbEntity
  8
1
  6
DASH_CENTER
 62
           3
100
AcDbLine
 10
-413.20400456115
 20
405.436876644298
 11
-407.497665463379
 21
407.290978610546
  0
LINE
  5
21E
100
AcDbEntity
  8
1
  6
DASH_CENTER
 62
           3
100
AcDbLine
 10
-419.844556459752
 20
369.291155455726
 11
-423.371267973507
 21
374.145257421975
  0
LINE
  5
21D
100
AcDbEntity
  8
1
  6
DASH_CENTER
 62
           3
100
AcDbLine
 10
-407.497665463382
 20
386.285192997159
 11
-413.204004561152
 21
388.139294963408
  0
LINE
  5
21C
100
AcDbEntity
  8
1
  6
DASH_CENTER
 62
           3
100
AcDbLine
 10
-466.440486933388
 20
388.139294963414
 11
-472.146826031159
 21
386.285192997166
  0
LINE
  5
21B
100
AcDbEntity
  8
1
  6
DASH_CENTER
 62
           3
100
AcDbLine
 10
-456.273223521034
 20
374.145257421977
 11
-459.79993503479
 21
369.291155455728
  0
LINE
  5
21A
100
AcDbEntity
  8
1
  6
DASH_CENTER
 62
           3
100
AcDbLine
 10
-445.849509807019
 20
411.339188440909
 11
-442.979384064281
 21
404.410091947074
  0
LINE
  5
219
100
AcDbEntity
  8
1
  6
DASH_CENTER
 62
           3
100
AcDbLine
 10
-454.373348384322
 20
402.815349863606
 11
-447.444251890487
 21
399.945224120868
  0
LINE
  5
218
100
AcDbEntity
  8
1
  6
DASH_CENTER
 62
           3
100
AcDbLine
 10
-454.373348384322
 20
390.760821744106
 11
-447.444251890487
 21
393.630947486844
  0
LINE
  5
217
100
AcDbEntity
  8
1
  6
DASH_CENTER
 62
           3
100
AcDbLine
 10
-445.84950980702
 20
382.236983166804
 11
-442.979384064281
 21
389.166079660638
  0
LINE
  5
216
100
AcDbEntity
  8
1
  6
DASH_CENTER
 62
           3
100
AcDbLine
 10
-433.79498168752
 20
382.236983166804
 11
-436.665107430258
 21
389.166079660638
  0
LINE
  5
215
100
AcDbEntity
  8
1
  6
DASH_CENTER
 62
           3
100
AcDbLine
 10
-425.271143110217
 20
390.760821744106
 11
-432.200239604052
 21
393.630947486844
  0
LINE
  5
214
100
AcDbEntity
  8
1
  6
DASH_CENTER
 62
           3
100
AcDbLine
 10
-425.271143110217
 20
402.815349863606
 11
-432.200239604052
 21
399.945224120868
  0
LINE
  5
213
100
AcDbEntity
  8
1
  6
DASH_CENTER
 62
           3
100
AcDbLine
 10
-433.794981687519
 20
411.339188440908
 11
-436.665107430257
 21
404.410091947074
  0
LINE
  5
212
100
AcDbEntity
  8
1
  6
CONTINUOUS
 62
         250
100
AcDbLine
 10
-449.322245747269
 20
396.788085803856
 11
-449.322245747269
 21
398.288085803856
  0
LINE
  5
211
100
AcDbEntity
  8
1
  6
CONTINUOUS
 62
         250
100
AcDbLine
 10
-446.539760168541
 20
390.070571382584
 11
-447.600420340321
 21
391.131231554364
  0
LINE
  5
210
100
AcDbEntity
  8
1
  6
CONTINUOUS
 62
         250
100
AcDbLine
 10
-439.822245747269
 20
387.288085803856
 11
-441.322245747269
 21
387.288085803856
  0
LINE
  5
20F
100
AcDbEntity
  8
1
  6
CONTINUOUS
 62
         250
100
AcDbLine
 10
-433.104731325997
 20
390.070571382584
 11
-434.165391497777
 21
389.009911210804
  0
LINE
  5
20E
100
AcDbEntity
  8
1
  6
CONTINUOUS
 62
         250
100
AcDbLine
 10
-430.32224574727
 20
396.788085803856
 11
-430.32224574727
 21
395.288085803856
  0
LINE
  5
20D
100
AcDbEntity
  8
1
  6
CONTINUOUS
 62
         250
100
AcDbLine
 10
-433.104731325997
 20
403.505600225128
 11
-432.044071154217
 21
402.444940053348
  0
LINE
  5
20C
100
AcDbEntity
  8
1
  6
DASH_CENTER
 62
           3
100
AcDbLine
 10
-454.317934761593
 20
382.292396789532
 11
-445.479099996762
 21
391.131231554364
  0
LINE
  5
20B
100
AcDbEntity
  8
1
  6
DASH_CENTER
 62
           3
100
AcDbLine
 10
-425.326556732945
 20
382.292396789532
 11
-434.165391497777
 21
391.131231554364
  0
LINE
  5
20A
100
AcDbEntity
  8
1
  6
DASH_CENTER
 62
           3
100
AcDbLine
 10
-425.326556732945
 20
411.28377481818
 11
-434.165391497777
 21
402.444940053348
  0
LINE
  5
209
100
AcDbEntity
  8
1
  6
DASH_CENTER
 62
           3
100
AcDbLine
 10
-445.479099996762
 20
402.444940053349
 11
-454.317934761594
 21
411.28377481818
  0
LINE
  5
208
100
AcDbEntity
  8
1
  6
DASH_CENTER
 62
           3
100
AcDbLine
 10
-439.822245747269
 20
435.147588218824
 11
-439.822245747269
 21
357.710439641364
  0
LINE
  5
207
100
AcDbEntity
  8
1
  6
DASH_CENTER
 62
           3
100
AcDbLine
 10
-477.901984347745
 20
396.788085803856
 11
-401.742507146793
 21
396.788085803856
  0
LINE
  5
206
100
AcDbEntity
  8
1
  6
CONTINUOUS
 62
           7
100
AcDbLine
 10
-386.968541179469
 20
376.788085803856
 11
-386.968541179469
 21
375.288085803856
  0
LINE
  5
205
100
AcDbEntity
  8
1
  6
CONTINUOUS
 62
           7
100
AcDbLine
 10
-387.818541179469
 20
375.288085803856
 11
-386.968541179469
 21
375.288085803856
  0
LINE
  5
204
100
AcDbEntity
  8
1
  6
CONTINUOUS
 62
           7
100
AcDbLine
 10
-387.818541179469
 20
376.788085803856
 11
-386.968541179469
 21
376.788085803856
  0
LINE
  5
203
100
AcDbEntity
  8
1
  6
CONTINUOUS
 62
           7
100
AcDbLine
 10
-387.818541179469
 20
376.788085803856
 11
-386.968541179469
 21
376.788085803856
  0
LINE
  5
202
100
AcDbEntity
  8
1
  6
CONTINUOUS
 62
           7
100
AcDbLine
 10
-365.218541179489
 20
432.388085511911
 11
-364.818541179489
 21
432.788085511911
  0
LINE
  5
201
100
AcDbEntity
  8
1
  6
CONTINUOUS
 62
           7
100
AcDbLine
 10
-365.218541179489
 20
432.388085511911
 11
-376.118541179503
 21
432.09481196931
  0
LINE
  5
200
100
AcDbEntity
  8
1
  6
CONTINUOUS
 62
           7
100
AcDbLine
 10
-376.118541179503
 20
432.09481196931
 11
-376.318541179469
 21
431.894811969344
  0
LINE
  5
1FF
100
AcDbEntity
  8
1
  6
CONTINUOUS
 62
           7
100
AcDbLine
 10
-376.318541179469
 20
361.681359054478
 11
-376.118541179503
 21
361.481359054512
  0
LINE
  5
1FE
100
AcDbEntity
  8
1
  6
CONTINUOUS
 62
           7
100
AcDbLine
 10
-376.118541179503
 20
361.481359054512
 11
-365.218541179489
 21
361.188085511911
  0
LINE
  5
1FD
100
AcDbEntity
  8
1
  6
CONTINUOUS
 62
           7
100
AcDbLine
 10
-364.818541763379
 20
360.788086095801
 11
-365.218541179489
 21
361.188085511911
  0
LINE
  5
1FC
100
AcDbEntity
  8
1
  6
CONTINUOUS
 62
           7
100
AcDbLine
 10
-387.318541179469
 20
419.288085803856
 11
-386.318541179469
 21
419.288085803856
  0
LINE
  5
1FB
100
AcDbEntity
  8
1
  6
CONTINUOUS
 62
           7
100
AcDbLine
 10
-378.018541179469
 20
413.038085803856
 11
-378.018541179469
 21
413.808463562578
  0
LINE
  5
1FA
100
AcDbEntity
  8
1
  6
CONTINUOUS
 62
           7
100
AcDbLine
 10
-374.318541179469
 20
414.288085803856
 11
-374.318541179469
 21
414.924990996557
  0
LINE
  5
1F9
100
AcDbEntity
  8
1
  6
CONTINUOUS
 62
           7
100
AcDbLine
 10
-375.818541179469
 20
413.038085803856
 11
-378.018541179469
 21
413.038085803856
  0
LINE
  5
1F8
100
AcDbEntity
  8
1
  6
CONTINUOUS
 62
           7
100
AcDbLine
 10
-374.818541179469
 20
413.788085803856
 11
-375.818541179469
 21
413.788085803856
  0
LINE
  5
1F7
100
AcDbEntity
  8
1
  6
DASH_CENTER
 62
           7
100
AcDbLine
 10
-374.318541179469
 20
414.288085803856
 11
-374.818541179469
 21
413.788085803856
  0
LINE
  5
1F6
100
AcDbEntity
  8
1
  6
CONTINUOUS
 62
           7
100
AcDbLine
 10
-374.818541179469
 20
379.788085803856
 11
-374.318541179469
 21
379.288085803856
  0
LINE
  5
1F5
100
AcDbEntity
  8
0
  6
CONTINUOUS
 62
           7
100
AcDbLine
 10
-373.508541098525
 20
380.788086041193
 11
-375.818541179469
 21
380.788086041193
  0
LINE
  5
1F4
100
AcDbEntity
  8
1
  6
CONTINUOUS
 62
           7
100
AcDbLine
 10
-378.818541179469
 20
383.788086041193
 11
-378.818541179469
 21
383.188086041193
  0
LINE
  5
1F3
100
AcDbEntity
  8
1
  6
CONTINUOUS
 62
           7
100
AcDbLine
 10
-387.818541179469
 20
383.188086041193
 11
-375.818541179469
 21
383.188086041193
  0
LINE
  5
1F2
100
AcDbEntity
  8
1
  6
CONTINUOUS
 62
           7
100
AcDbLine
 10
-378.818541179469
 20
383.188086041193
 11
-378.818541179469
 21
379.885718348151
  0
LINE
  5
1F1
100
AcDbEntity
  8
1
  6
CONTINUOUS
 62
           7
100
AcDbLine
 10
-383.837022905135
 20
378.388086041194
 11
-387.818541179469
 21
378.388086041194
  0
LINE
  5
1F0
100
AcDbEntity
  8
1
  6
CONTINUOUS
 62
           3
100
AcDbLine
 10
-387.818541179469
 20
383.788086041193
 11
-378.818541179469
 21
383.788086041193
  0
LINE
  5
1EF
100
AcDbEntity
  8
1
  6
CONTINUOUS
 62
           3
100
AcDbLine
 10
-378.818541179469
 20
383.788086041193
 11
-377.779310694928
 21
383.188086041193
  0
LINE
  5
1EE
100
AcDbEntity
  8
1
  6
CONTINUOUS
 62
           3
100
AcDbLine
 10
-384.453912813617
 20
377.788086041193
 11
-387.818541179469
 21
377.788086041193
  0
LINE
  5
1ED
100
AcDbEntity
  8
1
  6
CONTINUOUS
 62
           3
100
AcDbLine
 10
-387.818541179469
 20
411.288085803856
 11
-383.118541179469
 21
411.288085803856
  0
LINE
  5
1EC
100
AcDbEntity
  8
1
  6
CONTINUOUS
 62
           7
100
AcDbLine
 10
-387.818541179469
 20
410.588085803856
 11
-383.818541179469
 21
410.588085803856
  0
LINE
  5
1EB
100
AcDbEntity
  8
1
  6
CONTINUOUS
 62
           7
100
AcDbLine
 10
-387.818541179469
 20
406.988085803856
 11
-383.818541179469
 21
406.988085803856
  0
LINE
  5
1EA
100
AcDbEntity
  8
1
  6
CONTINUOUS
 62
           3
100
AcDbLine
 10
-387.818541179469
 20
406.288085803856
 11
-383.118541179469
 21
406.288085803856
  0
LINE
  5
1E9
100
AcDbEntity
  8
1
  6
CONTINUOUS
 62
           7
100
AcDbLine
 10
-346.81854117945
 20
370.974499074256
 11
-346.818541179453
 21
369.288085803856
  0
LINE
  5
1E8
100
AcDbEntity
  8
1
  6
CONTINUOUS
 62
           7
100
AcDbLine
 10
-347.318541179455
 20
368.788085803856
 11
-346.818541179453
 21
369.288085803856
  0
LINE
  5
1E7
100
AcDbEntity
  8
1
  6
CONTINUOUS
 62
           7
100
AcDbLine
 10
-347.318541179455
 20
368.788085803856
 11
-349.818541179455
 21
368.788085803856
  0
LINE
  5
1E6
100
AcDbEntity
  8
1
  6
CONTINUOUS
 62
           7
100
AcDbLine
 10
-351.31854117947
 20
364.488085803856
 11
-351.31854117947
 21
361.788085803856
  0
LINE
  5
1E5
100
AcDbEntity
  8
1
  6
CONTINUOUS
 62
           7
100
AcDbLine
 10
-349.81854117947
 20
364.488085803856
 11
-351.31854117947
 21
364.488085803856
  0
LINE
  5
1E4
100
AcDbEntity
  8
1
  6
CONTINUOUS
 62
           7
100
AcDbLine
 10
-351.31854117947
 20
361.788085803856
 11
-349.81854117947
 21
361.788085803856
  0
LINE
  5
1E3
100
AcDbEntity
  8
1
  6
CONTINUOUS
 62
           7
100
AcDbLine
 10
-349.818541179455
 20
368.788085803856
 11
-349.81854117947
 21
368.78808607996
  0
LINE
  5
1E2
100
AcDbEntity
  8
1
  6
CONTINUOUS
 62
           7
100
AcDbLine
 10
-346.818541179453
 20
424.288085803856
 11
-347.318541179455
 21
424.788085803856
  0
LINE
  5
1E1
100
AcDbEntity
  8
1
  6
CONTINUOUS
 62
           7
100
AcDbLine
 10
-346.818541179453
 20
424.288085803856
 11
-346.81854117945
 21
422.601672533456
  0
LINE
  5
1E0
100
AcDbEntity
  8
1
  6
CONTINUOUS
 62
           7
100
AcDbLine
 10
-350.31854117947
 20
350.288086276216
 11
-359.318541179489
 21
350.288086100975
  0
LINE
  5
1DF
100
AcDbEntity
  8
1
  6
CONTINUOUS
 62
           7
100
AcDbLine
 10
-359.818541179489
 20
360.788086095801
 11
-364.818541763379
 21
360.788086095801
  0
LINE
  5
1DE
100
AcDbEntity
  8
1
  6
CONTINUOUS
 62
           7
100
AcDbLine
 10
-387.818541179469
 20
374.788085803856
 11
-387.318541179469
 21
374.288085803856
  0
LINE
  5
1DD
100
AcDbEntity
  8
1
  6
CONTINUOUS
 62
           7
100
AcDbLine
 10
-387.818541179469
 20
418.788085803856
 11
-387.318541179469
 21
419.288085803856
  0
LINE
  5
1DC
100
AcDbEntity
  8
1
  6
CONTINUOUS
 62
           7
100
AcDbLine
 10
-364.818541179489
 20
432.788085511911
 11
-359.818541179489
 21
432.788085511911
  0
LINE
  5
1DB
100
AcDbEntity
  8
1
  6
CONTINUOUS
 62
           7
100
AcDbLine
 10
-387.318541179469
 20
403.788085683727
 11
-378.318541179469
 21
403.788085683727
  0
LINE
  5
1DA
100
AcDbEntity
  8
0
  6
CONTINUOUS
 62
           7
100
AcDbLine
 10
-375.818541179469
 20
380.788086041193
 11
-375.818541179469
 21
389.788085923985
  0
LINE
  5
1D9
100
AcDbEntity
  8
1
  6
CONTINUOUS
 62
           7
100
AcDbLine
 10
-373.208541098525
 20
378.23864100509
 11
-373.208541098525
 21
380.488086041194
  0
LINE
  5
1D8
100
AcDbEntity
  8
0
  6
CONTINUOUS
 62
           7
100
AcDbLine
 10
-372.818541179469
 20
389.288085931506
 11
-373.318541171945
 21
389.788085924008
  0
LINE
  5
1D7
100
AcDbEntity
  8
0
  6
CONTINUOUS
 62
           7
100
AcDbLine
 10
-373.318541171945
 20
389.788085924008
 11
-375.318541186967
 21
389.78808592399
  0
LINE
  5
1D6
100
AcDbEntity
  8
0
  6
CONTINUOUS
 62
           7
100
AcDbLine
 10
-375.318541186967
 20
389.788085923985
 11
-375.318541186967
 21
389.78808592399
  0
LINE
  5
1D5
100
AcDbEntity
  8
0
  6
CONTINUOUS
 62
           7
100
AcDbLine
 10
-373.318541171945
 20
403.788085683704
 11
-372.818541179469
 21
404.288085676205
  0
LINE
  5
1D4
100
AcDbEntity
  8
0
  6
CONTINUOUS
 62
           7
100
AcDbLine
 10
-375.318541186967
 20
403.788085683727
 11
-373.318541171945
 21
403.788085683704
  0
LINE
  5
1D3
100
AcDbEntity
  8
0
  6
CONTINUOUS
 62
           7
100
AcDbLine
 10
-375.818541179469
 20
404.288085676205
 11
-375.318541186967
 21
403.788085683727
  0
LINE
  5
1D2
100
AcDbEntity
  8
2
  6
DASH_CENTER
 62
           3
100
AcDbLine
 10
-389.980417255022
 20
396.788085803856
 11
-330.318545580488
 21
396.788085803856
  0
LINE
  5
1D1
100
AcDbEntity
  8
0
  6
CONTINUOUS
 62
           7
100
AcDbLine
 10
-372.818541179469
 20
411.288085803856
 11
-372.818541179469
 21
412.288085803856
  0
LINE
  5
1D0
100
AcDbEntity
  8
0
  6
CONTINUOUS
 62
           7
100
AcDbLine
 10
-375.818541179469
 20
404.288085676205
 11
-375.818541179469
 21
406.288085803856
  0
LINE
  5
1CF
100
AcDbEntity
  8
0
  6
CONTINUOUS
 62
           7
100
AcDbLine
 10
-372.818541179469
 20
404.288085676205
 11
-372.818541179469
 21
406.288085803856
  0
LINE
  5
1CE
100
AcDbEntity
  8
0
  6
CONTINUOUS
 62
           7
100
AcDbLine
 10
-375.318541186967
 20
389.78808592399
 11
-375.318541186967
 21
389.788085923985
  0
LINE
  5
1CD
100
AcDbEntity
  8
0
  6
CONTINUOUS
 62
           7
100
AcDbLine
 10
-375.318541186967
 20
389.78808592399
 11
-375.818541179469
 21
389.288085931506
  0
LINE
  5
1CC
100
AcDbEntity
  8
1
  6
CONTINUOUS
 62
           7
100
AcDbLine
 10
-369.818541179469
 20
391.788085923985
 11
-378.818541179469
 21
391.788085923985
  0
LINE
  5
1CB
100
AcDbEntity
  8
1
  6
CONTINUOUS
 62
           7
100
AcDbLine
 10
-378.818541179469
 20
403.288085683722
 11
-378.818541179469
 21
396.788085803856
  0
LINE
  5
1CA
100
AcDbEntity
  8
1
  6
CONTINUOUS
 62
           7
100
AcDbLine
 10
-369.818541179469
 20
401.788085683767
 11
-378.818541179469
 21
401.788085683767
  0
LINE
  5
1C9
100
AcDbEntity
  8
1
  6
CONTINUOUS
 62
           7
100
AcDbLine
 10
-373.318541171945
 20
403.788085683704
 11
-372.818541179469
 21
403.788085683727
  0
LINE
  5
1C8
100
AcDbEntity
  8
1
  6
CONTINUOUS
 62
           7
100
AcDbLine
 10
-373.318541171945
 20
389.788085924008
 11
-372.818541179469
 21
389.788085924008
  0
LINE
  5
1C7
100
AcDbEntity
  8
1
  6
CONTINUOUS
 62
           7
100
AcDbLine
 10
-372.818541179469
 20
404.288085676205
 11
-372.818541179469
 21
403.788085683704
  0
LINE
  5
1C6
100
AcDbEntity
  8
1
  6
CONTINUOUS
 62
           7
100
AcDbLine
 10
-375.818541179469
 20
411.538085803856
 11
-369.818541179469
 21
411.538085803856
  0
LINE
  5
1C5
100
AcDbEntity
  8
1
  6
CONTINUOUS
 62
           7
100
AcDbLine
 10
-375.818541179469
 20
406.038085803856
 11
-369.818541179469
 21
406.038085803856
  0
LINE
  5
1C4
100
AcDbEntity
  8
1
  6
CONTINUOUS
 62
           7
100
AcDbLine
 10
-371.318541179469
 20
413.788085803856
 11
-369.818541179469
 21
413.788085803856
  0
LINE
  5
1C3
100
AcDbEntity
  8
1
  6
CONTINUOUS
 62
           7
100
AcDbLine
 10
-369.818541179469
 20
379.788085803856
 11
-371.318541179469
 21
379.788085803856
  0
LINE
  5
1C2
100
AcDbEntity
  8
1
  6
CONTINUOUS
 62
           7
100
AcDbLine
 10
-378.318541179469
 20
403.788085683722
 11
-378.818541179469
 21
403.288085683722
  0
LINE
  5
1C1
100
AcDbEntity
  8
1
  6
CONTINUOUS
 62
           7
100
AcDbLine
 10
-378.818541179469
 20
390.288085923985
 11
-378.318541179469
 21
389.788085923985
  0
LINE
  5
1C0
100
AcDbEntity
  8
1
  6
CONTINUOUS
 62
           7
100
AcDbLine
 10
-375.318541186967
 20
389.788085923985
 11
-387.318541179469
 21
389.788085923985
  0
LINE
  5
1BF
100
AcDbEntity
  8
1
  6
CONTINUOUS
 62
           7
100
AcDbLine
 10
-375.818541179469
 20
403.788085683722
 11
-375.818541179469
 21
404.288085676205
  0
LINE
  5
1BE
100
AcDbEntity
  8
1
  6
CONTINUOUS
 62
           7
100
AcDbLine
 10
-375.318541186967
 20
403.788085683722
 11
-378.318541179469
 21
403.788085683722
  0
LINE
  5
1BD
100
AcDbEntity
  8
1
  6
CONTINUOUS
 62
           7
100
AcDbLine
 10
-376.318541179469
 20
431.894811969344
 11
-376.318541179466
 21
414.240272180388
  0
LINE
  5
1BC
100
AcDbEntity
  8
1
  6
CONTINUOUS
 62
           7
100
AcDbLine
 10
-374.318541179469
 20
379.288085803856
 11
-374.318541179469
 21
378.651180611155
  0
LINE
  5
1BB
100
AcDbEntity
  8
1
  6
CONTINUOUS
 62
           7
100
AcDbLine
 10
-375.818541179469
 20
379.788085803856
 11
-374.818541179469
 21
379.788085803856
  0
LINE
  5
1BA
100
AcDbEntity
  8
1
  6
CONTINUOUS
 62
           7
100
AcDbLine
 10
-387.818541179469
 20
389.288085923985
 11
-387.318541179469
 21
389.788085923985
  0
LINE
  5
1B9
100
AcDbEntity
  8
1
  6
CONTINUOUS
 62
           7
100
AcDbLine
 10
-387.318541179469
 20
403.788085683727
 11
-387.818541179469
 21
404.288085683727
  0
LINE
  5
1B8
100
AcDbEntity
  8
1
  6
CONTINUOUS
 62
           7
100
AcDbLine
 10
-386.968541179469
 20
418.288085803856
 11
-387.818541179469
 21
418.288085803856
  0
LINE
  5
1B7
100
AcDbEntity
  8
1
  6
CONTINUOUS
 62
           7
100
AcDbLine
 10
-386.968541179469
 20
416.788085803856
 11
-387.818541179469
 21
416.788085803856
  0
LINE
  5
1B6
100
AcDbEntity
  8
1
  6
CONTINUOUS
 62
           7
100
AcDbLine
 10
-387.818541179469
 20
418.788085803856
 11
-387.818541179469
 21
396.788085803856
  0
LINE
  5
1B5
100
AcDbEntity
  8
1
  6
CONTINUOUS
 62
           7
100
AcDbLine
 10
-386.968541179469
 20
418.288085803856
 11
-386.968541179469
 21
416.788085803856
  0
LINE
  5
1B4
100
AcDbEntity
  8
1
  6
CONTINUOUS
 62
           7
100
AcDbLine
 10
-375.818541179469
 20
380.788086041193
 11
-375.818541179469
 21
379.788085803856
  0
LINE
  5
1B3
100
AcDbEntity
  8
1
  6
DASH_CENTER
 62
           3
100
AcDbLine
 10
-363.477242930465
 20
408.788085803856
 11
-389.595350711004
 21
408.788085803856
  0
LINE
  5
1B2
100
AcDbEntity
  8
1
  6
CONTINUOUS
 62
           7
100
AcDbLine
 10
-359.318541179489
 20
443.288085506736
 11
-350.31854117947
 21
443.288085331496
  0
LINE
  5
1B1
100
AcDbEntity
  8
1
  6
CONTINUOUS
 62
           7
100
AcDbLine
 10
-369.818541179469
 20
406.288085803856
 11
-369.818541179469
 21
379.788085803856
  0
LINE
  5
1B0
100
AcDbEntity
  8
1
  6
CONTINUOUS
 62
           7
100
AcDbLine
 10
-369.818541179469
 20
413.038085803856
 11
-369.218541179469
 21
413.038085803856
  0
LINE
  5
1AF
100
AcDbEntity
  8
1
  6
CONTINUOUS
 62
           7
100
AcDbLine
 10
-369.818541179469
 20
411.288085803856
 11
-369.818541179469
 21
413.788085803856
  0
LINE
  5
1AE
100
AcDbEntity
  8
1
  6
CONTINUOUS
 62
           7
100
AcDbLine
 10
-359.818541179489
 20
442.788085516472
 11
-359.818541179489
 21
413.66702975757
  0
LINE
  5
1AD
100
AcDbEntity
  8
0
  6
CONTINUOUS
 62
           7
100
AcDbLine
 10
-372.818541179469
 20
411.288085803856
 11
-372.818541179469
 21
415.482227019734
  0
LINE
  5
1AC
100
AcDbEntity
  8
1
  6
CONTINUOUS
 62
           7
100
AcDbLine
 10
-376.318541179467
 20
379.335899427324
 11
-376.318541179468
 21
373.010893741885
  0
LINE
  5
1AB
100
AcDbEntity
  8
1
  6
CONTINUOUS
 62
           7
100
AcDbLine
 10
-376.318541179469
 20
362.788085803856
 11
-377.018541179469
 21
362.788085803856
  0
LINE
  5
1AA
100
AcDbEntity
  8
1
  6
CONTINUOUS
 62
           7
100
AcDbLine
 10
-375.818541179469
 20
413.788085803856
 11
-375.818541179469
 21
410.588085803856
  0
LINE
  5
1A9
100
AcDbEntity
  8
1
  6
CONTINUOUS
 62
           7
100
AcDbLine
 10
-375.818541179469
 20
406.288085803856
 11
-375.818541179469
 21
406.988085803856
  0
LINE
  5
1A8
100
AcDbEntity
  8
1
  6
CONTINUOUS
 62
           7
100
AcDbLine
 10
-387.818541179469
 20
396.788085803856
 11
-387.818541179469
 21
374.788085803856
  0
LINE
  5
1A7
100
AcDbEntity
  8
1
  6
CONTINUOUS
 62
           7
100
AcDbLine
 10
-378.818541179469
 20
396.788085803856
 11
-378.818541179469
 21
390.288085923985
  0
LINE
  5
1A6
100
AcDbEntity
  8
1
  6
DASH_CENTER
 62
           3
100
AcDbLine
 10
-230.138206026661
 20
428.890733669725
 11
-236.360745701103
 21
422.668193995284
  0
LINE
  5
1A5
100
AcDbEntity
  8
1
  6
DASH_CENTER
 62
           3
100
AcDbLine
 10
-236.360745701103
 20
370.907977612429
 11
-230.138206026661
 21
364.685437937987
  0
LINE
  5
1A4
100
AcDbEntity
  8
1
  6
DASH_CENTER
 62
           3
100
AcDbLine
 10
-288.120962083958
 20
370.907977612429
 11
-294.343501758399
 21
364.685437937987
  0
LINE
  5
1A3
100
AcDbEntity
  8
1
  6
DASH_CENTER
 62
           3
100
AcDbLine
 10
-288.120962083958
 20
422.668193995284
 11
-294.343501758399
 21
428.890733669725
  0
LINE
  5
1A2
100
AcDbEntity
  8
1
  6
DASH_CENTER
 62
           3
100
AcDbLine
 10
-220.666274929522
 20
379.567331347427
 11
-228.057311189613
 21
382.628798806348
  0
LINE
  5
1A1
100
AcDbEntity
  8
1
  6
DASH_CENTER
 62
           3
100
AcDbLine
 10
-303.815432855538
 20
414.008840260285
 11
-296.424396595448
 21
410.947372801364
  0
LINE
  5
1A0
100
AcDbEntity
  8
1
  6
DASH_CENTER
 62
           3
100
AcDbLine
 10
-276.400140890039
 20
362.604543100938
 11
-279.461608348959
 21
355.213506840848
  0
LINE
  5
19F
100
AcDbEntity
  8
1
  6
CONTINUOUS
 62
           7
100
AcDbLine
 10
-364.818541179489
 20
432.788085511911
 11
-364.818541179489
 21
415.948033250345
  0
LINE
  5
19E
100
AcDbEntity
  8
1
  6
CONTINUOUS
 62
           7
100
AcDbLine
 10
-365.218541179489
 20
432.388085511911
 11
-365.218541179489
 21
416.035919577619
  0
LINE
  5
19D
100
AcDbEntity
  8
1
  6
CONTINUOUS
 62
           7
100
AcDbLine
 10
-386.318541179469
 20
374.288085803856
 11
-387.318541179469
 21
374.288085803856
  0
LINE
  5
19C
100
AcDbEntity
  8
1
  6
CONTINUOUS
 62
           7
100
AcDbLine
 10
-365.218541179489
 20
361.188085511911
 11
-365.218541179489
 21
377.540252030093
  0
LINE
  5
19B
100
AcDbEntity
  8
1
  6
CONTINUOUS
 62
           7
100
AcDbLine
 10
-364.818541763379
 20
360.788086095801
 11
-364.818541763379
 21
377.628138219509
  0
LINE
  5
19A
100
AcDbEntity
  8
1
  6
CONTINUOUS
 62
           7
100
AcDbLine
 10
-337.318541177559
 20
387.288085803856
 11
-337.818541177559
 21
387.788085803856
  0
LINE
  5
199
100
AcDbEntity
  8
1
  6
CONTINUOUS
 62
           7
100
AcDbLine
 10
-337.318541177559
 20
406.288085803856
 11
-337.818541177559
 21
405.788085803856
  0
LINE
  5
198
100
AcDbEntity
  8
1
  6
DASH_CENTER
 62
           3
100
AcDbLine
 10
-279.039314622261
 20
403.746236065102
 11
-285.895285755997
 21
406.586072291934
  0
LINE
  5
197
100
AcDbEntity
  8
1
  6
CONTINUOUS
 62
           7
100
AcDbLine
 10
-335.818541177559
 20
411.588085803856
 11
-334.318541177559
 21
411.588085803856
  0
LINE
  5
196
100
AcDbEntity
  8
1
  6
CONTINUOUS
 62
           7
100
AcDbLine
 10
-334.318541177559
 20
414.288085803856
 11
-335.818541177559
 21
414.288085803856
  0
LINE
  5
195
100
AcDbEntity
  8
1
  6
CONTINUOUS
 62
           7
100
AcDbLine
 10
-334.318541177559
 20
411.588085803856
 11
-334.318541177559
 21
414.288085803856
  0
LINE
  5
194
100
AcDbEntity
  8
1
  6
CONTINUOUS
 62
           7
100
AcDbLine
 10
-327.818541177229
 20
414.288085803856
 11
-329.31854117704
 21
414.288085803856
  0
LINE
  5
193
100
AcDbEntity
  8
1
  6
CONTINUOUS
 62
           7
100
AcDbLine
 10
-329.31854117704
 20
411.588085803856
 11
-327.818541177229
 21
411.588085803856
  0
LINE
  5
192
100
AcDbEntity
  8
1
  6
CONTINUOUS
 62
           7
100
AcDbLine
 10
-329.31854117704
 20
414.288085803856
 11
-329.31854117704
 21
411.588085803856
  0
LINE
  5
191
100
AcDbEntity
  8
1
  6
CONTINUOUS
 62
           7
100
AcDbLine
 10
-335.818541177559
 20
385.538085803856
 11
-332.818541177559
 21
385.538085803856
  0
LINE
  5
190
100
AcDbEntity
  8
1
  6
DASH_CENTER
 62
           3
100
AcDbLine
 10
-337.118541177559
 20
384.538085803856
 11
-332.818541177559
 21
384.538085803856
  0
LINE
  5
18F
100
AcDbEntity
  8
1
  6
CONTINUOUS
 62
           7
100
AcDbLine
 10
-331.241190908369
 20
384.538085803856
 11
-331.818541177559
 21
383.538085803856
  0
LINE
  5
18E
100
AcDbEntity
  8
1
  6
CONTINUOUS
 62
           7
100
AcDbLine
 10
-331.818541177559
 20
385.538085803856
 11
-331.241190908369
 21
384.538085803856
  0
LINE
  5
18D
100
AcDbEntity
  8
1
  6
CONTINUOUS
 62
           7
100
AcDbLine
 10
-332.818541177559
 20
383.538085803856
 11
-335.818541177559
 21
383.538085803856
  0
LINE
  5
18C
100
AcDbEntity
  8
1
  6
CONTINUOUS
 62
           7
100
AcDbLine
 10
-332.818541177559
 20
383.538085803856
 11
-332.818541177559
 21
383.288085803856
  0
LINE
  5
18B
100
AcDbEntity
  8
1
  6
CONTINUOUS
 62
           7
100
AcDbLine
 10
-331.818541177559
 20
383.538085803856
 11
-332.385528475667
 21
383.538085803856
  0
LINE
  5
18A
100
AcDbEntity
  8
1
  6
CONTINUOUS
 62
           7
100
AcDbLine
 10
-331.818541177559
 20
385.538085803856
 11
-331.818541177559
 21
384.538085803856
  0
LINE
  5
189
100
AcDbEntity
  8
1
  6
CONTINUOUS
 62
           7
100
AcDbLine
 10
-332.818541177559
 20
385.538085803856
 11
-332.385528475667
 21
385.538085803856
  0
LINE
  5
188
100
AcDbEntity
  8
1
  6
CONTINUOUS
 62
           7
100
AcDbLine
 10
-332.818541177559
 20
385.538085803856
 11
-332.818541177559
 21
384.538085803856
  0
LINE
  5
187
100
AcDbEntity
  8
1
  6
CONTINUOUS
 62
           3
100
AcDbLine
 10
-332.818541177559
 20
383.288085803856
 11
-335.818541177559
 21
383.288085803856
  0
LINE
  5
186
100
AcDbEntity
  8
1
  6
CONTINUOUS
 62
           3
100
AcDbLine
 10
-332.385528475667
 20
383.538085803856
 11
-332.818541177559
 21
383.288085803856
  0
LINE
  5
185
100
AcDbEntity
  8
1
  6
CONTINUOUS
 62
           7
100
AcDbLine
 10
-332.818541177559
 20
385.788085803856
 11
-332.818541177559
 21
385.538085803856
  0
LINE
  5
184
100
AcDbEntity
  8
1
  6
CONTINUOUS
 62
           3
100
AcDbLine
 10
-332.818541177559
 20
385.788085803856
 11
-332.385528475667
 21
385.538085803856
  0
LINE
  5
183
100
AcDbEntity
  8
1
  6
CONTINUOUS
 62
           3
100
AcDbLine
 10
-335.818541177559
 20
385.788085803856
 11
-332.818541177559
 21
385.788085803856
  0
LINE
  5
182
100
AcDbEntity
  8
1
  6
CONTINUOUS
 62
           7
100
AcDbLine
 10
-335.818541177559
 20
387.288085803856
 11
-335.818541177559
 21
385.788085803856
  0
LINE
  5
181
100
AcDbEntity
  8
1
  6
CONTINUOUS
 62
           7
100
AcDbLine
 10
-330.318541177385
 20
391.788085803856
 11
-330.318541177385
 21
385.788085803856
  0
LINE
  5
180
100
AcDbEntity
  8
1
  6
CONTINUOUS
 62
           7
100
AcDbLine
 10
-334.318541177559
 20
381.988085803856
 11
-335.818541177559
 21
381.988085803856
  0
LINE
  5
17F
100
AcDbEntity
  8
1
  6
CONTINUOUS
 62
           7
100
AcDbLine
 10
-334.318541177559
 20
379.288085803856
 11
-334.318541177559
 21
381.988085803856
  0
LINE
  5
17E
100
AcDbEntity
  8
1
  6
CONTINUOUS
 62
           7
100
AcDbLine
 10
-335.818541177559
 20
379.288085803856
 11
-334.318541177559
 21
379.288085803856
  0
LINE
  5
17D
100
AcDbEntity
  8
1
  6
CONTINUOUS
 62
           7
100
AcDbLine
 10
-329.318541177229
 20
379.288085803856
 11
-327.818541177418
 21
379.288085803856
  0
LINE
  5
17C
100
AcDbEntity
  8
1
  6
CONTINUOUS
 62
           7
100
AcDbLine
 10
-329.318541177229
 20
381.988085803856
 11
-329.318541177229
 21
379.288085803856
  0
LINE
  5
17B
100
AcDbEntity
  8
1
  6
CONTINUOUS
 62
           7
100
AcDbLine
 10
-327.818541177418
 20
381.988085803856
 11
-329.318541177229
 21
381.988085803856
  0
LINE
  5
17A
100
AcDbEntity
  8
1
  6
CONTINUOUS
 62
           7
100
AcDbLine
 10
-327.818541177418
 20
353.038085803856
 11
-335.818541177559
 21
353.038085803856
  0
LINE
  5
179
100
AcDbEntity
  8
1
  6
CONTINUOUS
 62
           7
100
AcDbLine
 10
-327.818541177418
 20
358.538085803856
 11
-335.818541177559
 21
358.538085803856
  0
LINE
  5
178
100
AcDbEntity
  8
1
  6
CONTINUOUS
 62
           7
100
AcDbLine
 10
-328.318541177229
 20
407.788085803856
 11
-327.818541177229
 21
408.288085803856
  0
LINE
  5
177
100
AcDbEntity
  8
1
  6
CONTINUOUS
 62
           7
100
AcDbLine
 10
-328.318541177418
 20
385.788085803856
 11
-327.818541177418
 21
385.288085803856
  0
LINE
  5
176
100
AcDbEntity
  8
1
  6
CONTINUOUS
 62
           7
100
AcDbLine
 10
-328.318541177229
 20
443.288085381425
 11
-327.818541177229
 21
442.788085381425
  0
LINE
  5
175
100
AcDbEntity
  8
1
  6
CONTINUOUS
 62
           7
100
AcDbLine
 10
-335.818541177559
 20
442.788085381425
 11
-335.318541177559
 21
443.288085381425
  0
LINE
  5
174
100
AcDbEntity
  8
1
  6
CONTINUOUS
 62
           7
100
AcDbLine
 10
-328.318541177229
 20
443.288085381425
 11
-335.318541177559
 21
443.288085381425
  0
LINE
  5
173
100
AcDbEntity
  8
1
  6
CONTINUOUS
 62
           7
100
AcDbLine
 10
-328.318541177229
 20
407.788085803856
 11
-330.318541177385
 21
407.788085803856
  0
LINE
  5
172
100
AcDbEntity
  8
1
  6
CONTINUOUS
 62
           7
100
AcDbLine
 10
-330.318541177385
 20
407.788085803856
 11
-330.318541177385
 21
401.788085803856
  0
LINE
  5
171
100
AcDbEntity
  8
1
  6
CONTINUOUS
 62
           7
100
AcDbLine
 10
-330.318541177385
 20
401.788085803856
 11
-337.818541177559
 21
401.788085803856
  0
LINE
  5
170
100
AcDbEntity
  8
1
  6
CONTINUOUS
 62
           7
100
AcDbLine
 10
-328.318541177418
 20
350.288086188596
 11
-327.818541177418
 21
350.788086188596
  0
LINE
  5
16F
100
AcDbEntity
  8
1
  6
CONTINUOUS
 62
           7
100
AcDbLine
 10
-335.818541177559
 20
350.788086188596
 11
-335.318541177559
 21
350.288086188596
  0
LINE
  5
16E
100
AcDbEntity
  8
1
  6
CONTINUOUS
 62
           7
100
AcDbLine
 10
-335.318541177559
 20
350.288086188596
 11
-328.318541177418
 21
350.288086188596
  0
LINE
  5
16D
100
AcDbEntity
  8
1
  6
CONTINUOUS
 62
           7
100
AcDbLine
 10
-330.318541177385
 20
385.788085803856
 11
-328.318541177418
 21
385.788085803856
  0
LINE
  5
16C
100
AcDbEntity
  8
1
  6
CONTINUOUS
 62
           7
100
AcDbLine
 10
-337.818541177559
 20
391.788085803856
 11
-330.318541177385
 21
391.788085803856
  0
LINE
  5
16B
100
AcDbEntity
  8
1
  6
DASH_CENTER
 62
           3
100
AcDbLine
 10
-340.57452490309
 20
396.788085803856
 11
-338.818541177559
 21
396.788085803856
  0
LINE
  5
16A
100
AcDbEntity
  8
1
  6
CONTINUOUS
 62
           7
100
AcDbLine
 10
-337.818541177559
 20
391.788085803856
 11
-337.818541177559
 21
387.788085803856
  0
LINE
  5
169
100
AcDbEntity
  8
1
  6
CONTINUOUS
 62
           7
100
AcDbLine
 10
-337.818541177559
 20
405.788085803856
 11
-337.818541177559
 21
401.788085803856
  0
LINE
  5
168
100
AcDbEntity
  8
1
  6
CONTINUOUS
 62
           7
100
AcDbLine
 10
-337.318541177559
 20
387.288085803856
 11
-335.818541177559
 21
387.288085803856
  0
LINE
  5
167
100
AcDbEntity
  8
1
  6
CONTINUOUS
 62
           7
100
AcDbLine
 10
-330.318541177385
 20
401.788085803856
 11
-330.318541177385
 21
396.788085803856
  0
LINE
  5
166
100
AcDbEntity
  8
1
  6
CONTINUOUS
 62
           7
100
AcDbLine
 10
-337.818541177559
 20
391.788085803856
 11
-337.818541177559
 21
396.788085803856
  0
LINE
  5
165
100
AcDbEntity
  8
1
  6
DASHED
 62
           4
100
AcDbLine
 10
-253.147587152794
 20
399.538085803856
 11
-249.990853892529
 21
399.538085803856
  0
LINE
  5
164
100
AcDbEntity
  8
1
  6
DASHED
 62
           4
100
AcDbLine
 10
-253.147587152794
 20
394.038085803856
 11
-249.990853892529
 21
394.038085803856
  0
LINE
  5
163
100
AcDbEntity
  8
1
  6
DASHED
 62
           4
100
AcDbLine
 10
-274.490853892529
 20
399.538085803856
 11
-271.334120632265
 21
399.538085803856
  0
LINE
  5
162
100
AcDbEntity
  8
1
  6
DASHED
 62
           4
100
AcDbLine
 10
-274.490853892529
 20
394.038085803856
 11
-271.334120632265
 21
394.038085803856
  0
LINE
  5
161
100
AcDbEntity
  8
1
  6
CONTINUOUS
 62
           7
100
AcDbLine
 10
-335.818541177559
 20
385.538085803856
 11
-335.818541177559
 21
385.788085803856
  0
LINE
  5
160
100
AcDbEntity
  8
1
  6
DASH_CENTER
 62
           3
100
AcDbLine
 10
-272.038840380609
 20
373.13365394039
 11
-269.199004153777
 21
379.989625074125
  0
LINE
  5
15F
100
AcDbEntity
  8
1
  6
DASH_CENTER
 62
           3
100
AcDbLine
 10
-245.442393162799
 20
389.82993554261
 11
-238.586422029064
 21
386.990099315778
  0
LINE
  5
15E
100
AcDbEntity
  8
1
  6
DASH_CENTER
 62
           3
100
AcDbLine
 10
-331.241190908369
 20
384.538085803856
 11
-330.941190908369
 21
384.538085803856
  0
LINE
  5
15D
100
AcDbEntity
  8
1
  6
CONTINUOUS
 62
           7
100
AcDbLine
 10
-331.818541177559
 20
384.538085803856
 11
-331.818541177559
 21
383.538085803856
  0
LINE
  5
15C
100
AcDbEntity
  8
1
  6
DASH_CENTER
 62
           3
100
AcDbLine
 10
-331.818541177559
 20
384.538085803856
 11
-331.241190908369
 21
384.538085803856
  0
LINE
  5
15B
100
AcDbEntity
  8
1
  6
CONTINUOUS
 62
           7
100
AcDbLine
 10
-332.818541177559
 20
384.538085803856
 11
-332.818541177559
 21
383.538085803856
  0
LINE
  5
15A
100
AcDbEntity
  8
1
  6
DASH_CENTER
 62
           3
100
AcDbLine
 10
-332.818541177559
 20
384.538085803856
 11
-331.818541177559
 21
384.538085803856
  0
LINE
  5
159
100
AcDbEntity
  8
1
  6
CONTINUOUS
 62
           7
100
AcDbLine
 10
-332.385528475667
 20
383.538085803856
 11
-332.818541177559
 21
383.538085803856
  0
LINE
  5
158
100
AcDbEntity
  8
1
  6
CONTINUOUS
 62
           7
100
AcDbLine
 10
-332.385528475667
 20
385.538085803856
 11
-331.818541177559
 21
385.538085803856
  0
LINE
  5
157
100
AcDbEntity
  8
1
  6
DASH_CENTER
 62
           3
100
AcDbLine
 10
-271.992866147633
 20
445.814762141624
 11
-263.787817792913
 21
404.565198513142
  0
LINE
  5
156
100
AcDbEntity
  8
1
  6
CONTINUOUS
 62
           7
100
AcDbLine
 10
-337.818541177559
 20
396.788085803856
 11
-337.818541177559
 21
401.788085803856
  0
LINE
  5
155
100
AcDbEntity
  8
1
  6
DASH_CENTER
 62
           3
100
AcDbLine
 10
-337.818541177559
 20
396.788085803856
 11
-330.318541177385
 21
396.788085803856
  0
LINE
  5
154
100
AcDbEntity
  8
1
  6
CONTINUOUS
 62
           7
100
AcDbLine
 10
-330.318541177385
 20
396.788085803856
 11
-330.318541177385
 21
391.788085803856
  0
LINE
  5
153
100
AcDbEntity
  8
1
  6
DASH_CENTER
 62
           3
100
AcDbLine
 10
-330.318541177385
 20
396.788085803856
 11
-325.890544365981
 21
396.788085803856
  0
LINE
  5
152
100
AcDbEntity
  8
1
  6
DASH_CENTER
 62
           3
100
AcDbLine
 10
-340.57452490309
 20
396.788085803856
 11
-339.092604828059
 21
396.788085803856
  0
LINE
  5
151
100
AcDbEntity
  8
1
  6
DASH_CENTER
 62
           3
100
AcDbLine
 10
-244.789788310246
 20
438.91868501047
 11
-248.331151892262
 21
430.369077021472
  0
LINE
  5
150
100
AcDbEntity
  8
1
  6
CONTINUOUS
 62
           7
100
AcDbLine
 10
-346.818541179451
 20
415.080668372827
 11
-346.81854117945
 21
422.601672533456
  0
LINE
  5
14F
100
AcDbEntity
  8
1
  6
CONTINUOUS
 62
           7
100
AcDbLine
 10
-346.81854117945
 20
370.974499074256
 11
-346.818541179451
 21
378.495503234885
  0
LINE
  5
14E
100
AcDbEntity
  8
1
  6
CONTINUOUS
 62
           7
100
AcDbLine
 10
-349.81854117947
 20
381.761606539852
 11
-349.81854117947
 21
369.620728656558
  0
LINE
  5
14D
100
AcDbEntity
  8
1
  6
CONTINUOUS
 62
           7
100
AcDbLine
 10
-226.651436889971
 20
380.796627748029
 11
-225.245562590329
 21
378.964456689711
  0
LINE
  5
14C
100
AcDbEntity
  8
1
  6
CONTINUOUS
 62
           7
100
AcDbLine
 10
-225.245562590329
 20
378.964456689711
 11
-222.955918759926
 21
379.265894018569
  0
LINE
  5
14B
100
AcDbEntity
  8
1
  6
CONTINUOUS
 62
           7
100
AcDbLine
 10
-222.955918759926
 20
379.265894018569
 11
-222.072149229164
 21
381.399502405746
  0
LINE
  5
14A
100
AcDbEntity
  8
1
  6
CONTINUOUS
 62
           7
100
AcDbLine
 10
-222.072149229164
 20
381.399502405746
 11
-223.478023528806
 21
383.231673464064
  0
LINE
  5
149
100
AcDbEntity
  8
1
  6
CONTINUOUS
 62
           7
100
AcDbLine
 10
-223.478023528806
 20
383.231673464064
 11
-225.76766735921
 21
382.930236135206
  0
LINE
  5
148
100
AcDbEntity
  8
1
  6
CONTINUOUS
 62
           7
100
AcDbLine
 10
-225.76766735921
 20
382.930236135206
 11
-226.651436889971
 21
380.796627748029
  0
LINE
  5
147
100
AcDbEntity
  8
1
  6
CONTINUOUS
 62
           7
100
AcDbLine
 10
-245.14495886592
 20
432.8349755785
 11
-244.261189335158
 21
434.968583965677
  0
LINE
  5
146
100
AcDbEntity
  8
1
  6
CONTINUOUS
 62
           7
100
AcDbLine
 10
-247.434602696324
 20
432.533538249642
 11
-245.14495886592
 21
432.8349755785
  0
LINE
  5
145
100
AcDbEntity
  8
1
  6
CONTINUOUS
 62
           7
100
AcDbLine
 10
-248.840476995965
 20
434.36570930796
 11
-247.434602696324
 21
432.533538249642
  0
LINE
  5
144
100
AcDbEntity
  8
1
  6
CONTINUOUS
 62
           7
100
AcDbLine
 10
-247.956707465204
 20
436.499317695137
 11
-248.840476995965
 21
434.36570930796
  0
LINE
  5
143
100
AcDbEntity
  8
1
  6
CONTINUOUS
 62
           7
100
AcDbLine
 10
-245.6670636348
 20
436.800755023995
 11
-247.956707465204
 21
436.499317695137
  0
LINE
  5
142
100
AcDbEntity
  8
1
  6
CONTINUOUS
 62
           7
100
AcDbLine
 10
-244.261189335158
 20
434.968583965677
 11
-245.6670636348
 21
436.800755023995
  0
LINE
  5
141
100
AcDbEntity
  8
1
  6
DASHED
 62
           4
100
AcDbLine
 10
-268.946578122125
 20
442.802032195755
 11
-261.680209066616
 21
406.271528078641
  0
LINE
  5
140
100
AcDbEntity
  8
1
  6
DASHED
 62
           4
100
AcDbLine
 10
-266.387978412552
 20
405.335094532964
 11
-273.654347468061
 21
441.865598650078
  0
LINE
  5
13F
100
AcDbEntity
  8
1
  6
DASHED
 62
           4
100
AcDbLine
 10
-266.788740686394
 20
435.029349374806
 11
-272.673452368813
 21
433.858807442709
  0
LINE
  5
13E
100
AcDbEntity
  8
1
  6
DASHED
 62
           3
100
AcDbLine
 10
-271.882237390693
 20
432.956599673734
 11
-272.673452368813
 21
433.858807442709
  0
LINE
  5
13D
100
AcDbEntity
  8
1
  6
DASHED
 62
           3
100
AcDbLine
 10
-272.673452368813
 20
433.858807442709
 11
-274.236010312018
 21
441.714316699314
  0
LINE
  5
13C
100
AcDbEntity
  8
1
  6
DASHED
 62
           3
100
AcDbLine
 10
-268.351298629598
 20
442.884858631411
 11
-266.788740686394
 21
435.029349374806
  0
LINE
  5
13B
100
AcDbEntity
  8
1
  6
DASHED
 62
           3
100
AcDbLine
 10
-266.788740686394
 20
435.029349374806
 11
-267.174468044758
 21
433.893033219412
  0
LINE
  5
13A
100
AcDbEntity
  8
1
  6
CONTINUOUS
 62
           7
100
AcDbLine
 10
-302.409558555896
 20
412.176669201967
 11
-301.003684256254
 21
410.344498143648
  0
LINE
  5
139
100
AcDbEntity
  8
1
  6
CONTINUOUS
 62
           7
100
AcDbLine
 10
-301.003684256254
 20
410.344498143648
 11
-298.714040425851
 21
410.645935472506
  0
LINE
  5
138
100
AcDbEntity
  8
1
  6
CONTINUOUS
 62
           7
100
AcDbLine
 10
-298.714040425851
 20
410.645935472506
 11
-297.83027089509
 21
412.779543859683
  0
LINE
  5
137
100
AcDbEntity
  8
1
  6
CONTINUOUS
 62
           7
100
AcDbLine
 10
-297.83027089509
 20
412.779543859683
 11
-299.236145194731
 21
414.611714918002
  0
LINE
  5
136
100
AcDbEntity
  8
1
  6
CONTINUOUS
 62
           7
100
AcDbLine
 10
-299.236145194731
 20
414.611714918002
 11
-301.525789025135
 21
414.310277589143
  0
LINE
  5
135
100
AcDbEntity
  8
1
  6
CONTINUOUS
 62
           7
100
AcDbLine
 10
-301.525789025135
 20
414.310277589143
 11
-302.409558555896
 21
412.176669201967
  0
LINE
  5
134
100
AcDbEntity
  8
1
  6
CONTINUOUS
 62
           7
100
AcDbLine
 10
-280.220518449902
 20
358.607587642035
 11
-278.814644150261
 21
356.775416583717
  0
LINE
  5
133
100
AcDbEntity
  8
1
  6
CONTINUOUS
 62
           7
100
AcDbLine
 10
-278.814644150261
 20
356.775416583717
 11
-276.525000319857
 21
357.076853912575
  0
LINE
  5
132
100
AcDbEntity
  8
1
  6
CONTINUOUS
 62
           7
100
AcDbLine
 10
-276.525000319857
 20
357.076853912575
 11
-275.641230789096
 21
359.210462299752
  0
LINE
  5
131
100
AcDbEntity
  8
1
  6
CONTINUOUS
 62
           7
100
AcDbLine
 10
-275.641230789096
 20
359.210462299752
 11
-277.047105088737
 21
361.04263335807
  0
LINE
  5
130
100
AcDbEntity
  8
1
  6
CONTINUOUS
 62
           7
100
AcDbLine
 10
-277.047105088737
 20
361.04263335807
 11
-279.336748919141
 21
360.741196029212
  0
LINE
  5
12F
100
AcDbEntity
  8
1
  6
CONTINUOUS
 62
           7
100
AcDbLine
 10
-279.336748919141
 20
360.741196029212
 11
-280.220518449902
 21
358.607587642035
  0
LINE
  5
12E
100
AcDbEntity
  8
1
  6
CONTINUOUS
 62
           3
100
AcDbLine
 10
-335.818541177418
 20
353.988085803856
 11
-357.818541177418
 21
353.988085803856
  0
LINE
  5
12D
100
AcDbEntity
  8
1
  6
CONTINUOUS
 62
           3
100
AcDbLine
 10
-335.818541177418
 20
353.988085803856
 11
-334.606105612119
 21
353.288085803856
  0
LINE
  5
12C
100
AcDbEntity
  8
1
  6
CONTINUOUS
 62
           7
100
AcDbLine
 10
-327.818541177418
 20
351.538085803856
 11
-323.118541177418
 21
351.538085803856
  0
LINE
  5
12B
100
AcDbEntity
  8
1
  6
CONTINUOUS
 62
           7
100
AcDbLine
 10
-323.118541177418
 20
351.538085803856
 11
-322.818541177418
 21
351.838085803856
  0
LINE
  5
12A
100
AcDbEntity
  8
1
  6
CONTINUOUS
 62
           7
100
AcDbLine
 10
-322.818541177418
 20
351.838085803856
 11
-322.818541177418
 21
355.788085803856
  0
LINE
  5
129
100
AcDbEntity
  8
1
  6
CONTINUOUS
 62
           7
100
AcDbLine
 10
-357.818541177418
 20
353.988085803856
 11
-357.118541177418
 21
353.288085803856
  0
LINE
  5
128
100
AcDbEntity
  8
1
  6
CONTINUOUS
 62
           7
100
AcDbLine
 10
-357.118541177418
 20
353.288085803856
 11
-328.018541177417
 21
353.288085803856
  0
LINE
  5
127
100
AcDbEntity
  8
1
  6
CONTINUOUS
 62
           7
100
AcDbLine
 10
-323.118541177418
 20
351.538085803856
 11
-323.118541177418
 21
355.788085803856
  0
LINE
  5
126
100
AcDbEntity
  8
1
  6
CONTINUOUS
 62
           7
100
AcDbLine
 10
-357.118541177418
 20
355.788085803856
 11
-357.118541177418
 21
353.288085803856
  0
LINE
  5
125
100
AcDbEntity
  8
1
  6
CONTINUOUS
 62
           7
100
AcDbLine
 10
-357.818541177418
 20
355.788085803856
 11
-357.818541177418
 21
353.988085803856
  0
LINE
  5
124
100
AcDbEntity
  8
1
  6
CONTINUOUS
 62
           7
100
AcDbLine
 10
-339.168541179606
 20
434.688085803772
 11
-339.168541179606
 21
406.288085803856
  0
LINE
  5
123
100
AcDbEntity
  8
1
  6
CONTINUOUS
 62
           7
100
AcDbLine
 10
-343.968541179606
 20
438.788085803772
 11
-343.968541179606
 21
443.288085381425
  0
LINE
  5
122
100
AcDbEntity
  8
1
  6
CONTINUOUS
 62
           7
100
AcDbLine
 10
-341.218541177695
 20
387.775585803856
 11
-345.818541179606
 21
387.775585803856
  0
LINE
  5
121
100
AcDbEntity
  8
1
  6
CONTINUOUS
 62
           7
100
AcDbLine
 10
-345.818541179606
 20
381.788085803856
 11
-345.818541179606
 21
387.775585803856
  0
LINE
  5
120
100
AcDbEntity
  8
1
  6
DASH_CENTER
 62
           3
100
AcDbLine
 10
-352.710871017018
 20
396.788085803856
 11
-333.010871015107
 21
396.788085803856
  0
LINE
  5
11F
100
AcDbEntity
  8
1
  6
CONTINUOUS
 62
           7
100
AcDbLine
 10
-345.818541179606
 20
368.788085803856
 11
-345.818541179606
 21
381.788085803856
  0
LINE
  5
11E
100
AcDbEntity
  8
1
  6
CONTINUOUS
 62
           7
100
AcDbLine
 10
-336.318541177559
 20
406.288085803856
 11
-335.818541177559
 21
406.788085803856
  0
LINE
  5
11D
100
AcDbEntity
  8
1
  6
DASH_CENTER
 62
           3
100
AcDbLine
 10
-341.568541179606
 20
445.088085381425
 11
-341.568541179606
 21
404.588085803856
  0
LINE
  5
11C
100
AcDbEntity
  8
1
  6
CONTINUOUS
 62
           3
100
AcDbLine
 10
-338.568541179606
 20
435.288085381425
 11
-339.168541179606
 21
434.248854896883
  0
LINE
  5
11B
100
AcDbEntity
  8
1
  6
CONTINUOUS
 62
           3
100
AcDbLine
 10
-338.568541179606
 20
443.288085381425
 11
-338.568541179606
 21
435.288085381425
  0
LINE
  5
11A
100
AcDbEntity
  8
1
  6
CONTINUOUS
 62
           3
100
AcDbLine
 10
-344.568541179606
 20
435.288085381425
 11
-344.568541179606
 21
443.288085381425
  0
LINE
  5
119
100
AcDbEntity
  8
1
  6
CONTINUOUS
 62
           3
100
AcDbLine
 10
-343.968541179606
 20
434.248854896883
 11
-344.568541179606
 21
435.288085381425
  0
LINE
  5
118
100
AcDbEntity
  8
1
  6
CONTINUOUS
 62
           7
100
AcDbLine
 10
-343.968541179606
 20
406.288085803856
 11
-343.968541179606
 21
434.688085803772
  0
LINE
  5
117
100
AcDbEntity
  8
1
  6
CONTINUOUS
 62
           7
100
AcDbLine
 10
-339.168541179606
 20
443.288085381425
 11
-339.168541179606
 21
438.788085803772
  0
LINE
  5
116
100
AcDbEntity
  8
1
  6
CONTINUOUS
 62
           7
100
AcDbLine
 10
-349.81854117947
 20
368.288085803856
 11
-349.31854117947
 21
368.788085803856
  0
LINE
  5
115
100
AcDbEntity
  8
1
  6
CONTINUOUS
 62
           7
100
AcDbLine
 10
-335.818541177559
 20
350.788086244845
 11
-336.318541177559
 21
350.288086244845
  0
LINE
  5
114
100
AcDbEntity
  8
1
  6
CONTINUOUS
 62
           7
100
AcDbLine
 10
-349.81854117947
 20
350.788086244845
 11
-349.31854117947
 21
350.288086244845
  0
LINE
  5
113
100
AcDbEntity
  8
1
  6
CONTINUOUS
 62
           7
100
AcDbLine
 10
-335.818541177559
 20
386.788085803856
 11
-336.318541177559
 21
387.288085803856
  0
LINE
  5
112
100
AcDbEntity
  8
1
  6
CONTINUOUS
 62
           7
100
AcDbLine
 10
-349.31854117947
 20
424.788085803856
 11
-349.81854117947
 21
425.288085803856
  0
LINE
  5
111
100
AcDbEntity
  8
1
  6
CONTINUOUS
 62
           7
100
AcDbLine
 10
-349.31854117947
 20
443.288085381509
 11
-349.81854117947
 21
442.788085381509
  0
LINE
  5
110
100
AcDbEntity
  8
1
  6
CONTINUOUS
 62
           7
100
AcDbLine
 10
-336.318541177559
 20
443.288085381509
 11
-335.818541177559
 21
442.788085381509
  0
LINE
  5
10F
100
AcDbEntity
  8
1
  6
CONTINUOUS
 62
           7
100
AcDbLine
 10
-336.318541177559
 20
443.288085381509
 11
-343.115667099268
 21
443.288085381509
  0
LINE
  5
10E
100
AcDbEntity
  8
1
  6
CONTINUOUS
 62
           7
100
AcDbLine
 10
-349.81854117947
 20
353.038085803856
 11
-335.818541177559
 21
353.038085803856
  0
LINE
  5
10D
100
AcDbEntity
  8
1
  6
CONTINUOUS
 62
           7
100
AcDbLine
 10
-349.81854117947
 20
358.538085803856
 11
-335.818541177559
 21
358.538085803856
  0
LINE
  5
10C
100
AcDbEntity
  8
1
  6
CONTINUOUS
 62
           7
100
AcDbLine
 10
-349.31854117947
 20
424.788085803856
 11
-345.818541179606
 21
424.788085803856
  0
LINE
  5
10B
100
AcDbEntity
  8
1
  6
CONTINUOUS
 62
           7
100
AcDbLine
 10
-349.31854117947
 20
368.788085803856
 11
-345.818541179606
 21
368.788085803856
  0
LINE
  5
10A
100
AcDbEntity
  8
1
  6
CONTINUOUS
 62
           7
100
AcDbLine
 10
-349.31854117947
 20
350.288086244845
 11
-336.318541177559
 21
350.288086244845
  0
LINE
  5
109
100
AcDbEntity
  8
1
  6
CONTINUOUS
 62
           7
100
AcDbLine
 10
-336.318541177559
 20
387.288085803856
 11
-341.218541177695
 21
387.288085803856
  0
LINE
  5
108
100
AcDbEntity
  8
1
  6
CONTINUOUS
 62
           7
100
AcDbLine
 10
-341.218541177695
 20
387.775585803856
 11
-341.218541177695
 21
383.088085803856
  0
LINE
  5
107
100
AcDbEntity
  8
1
  6
CONTINUOUS
 62
           7
100
AcDbLine
 10
-341.218541177695
 20
381.788085803856
 11
-345.818541179606
 21
381.788085803856
  0
LINE
  5
106
100
AcDbEntity
  8
1
  6
CONTINUOUS
 62
           7
100
AcDbLine
 10
-341.218541177695
 20
383.088085803856
 11
-335.818541177423
 21
383.088085803856
  0
LINE
  5
105
100
AcDbEntity
  8
1
  6
CONTINUOUS
 62
           7
100
AcDbLine
 10
-341.218541177695
 20
383.088085803856
 11
-341.218541177695
 21
381.788085803856
  0
LINE
  5
104
100
AcDbEntity
  8
1
  6
CONTINUOUS
 62
           7
100
AcDbLine
 10
-341.218541177695
 20
385.988085803856
 11
-335.818541177423
 21
385.988085803856
  0
LINE
  5
103
100
AcDbEntity
  8
1
  6
CONTINUOUS
 62
           7
100
AcDbLine
 10
-335.818541177559
 20
386.788085803856
 11
-335.818541177423
 21
385.988085803856
  0
LINE
  5
102
100
AcDbEntity
  8
1
  6
DASH_CENTER
 62
           3
100
AcDbLine
 10
-347.888717484893
 20
384.538085803856
 11
-335.31773457754
 21
384.538085803856
  0
LINE
  5
101
100
AcDbEntity
  8
1
  6
CONTINUOUS
 62
           7
100
AcDbLine
 10
-335.818541177559
 20
385.538085803856
 11
-335.818541177423
 21
385.988085803856
  0
LINE
  5
100
100
AcDbEntity
  8
1
  6
CONTINUOUS
 62
           7
100
AcDbLine
 10
-344.568541179606
 20
443.288085381425
 11
-349.31854117947
 21
443.288085381509
  0
LINE
  5
FF
100
AcDbEntity
  8
1
  6
CONTINUOUS
 62
           7
100
AcDbLine
 10
-349.81854117947
 20
353.038085803856
 11
-349.81854117947
 21
350.788086244845
  0
LINE
  5
FE
100
AcDbEntity
  8
1
  6
CONTINUOUS
 62
           7
100
AcDbLine
 10
-343.115667099268
 20
443.288085381509
 11
-344.568541179606
 21
443.288085381425
  0
LINE
  5
FD
100
AcDbEntity
  8
1
  6
DASH_CENTER
 62
           3
100
AcDbLine
 10
-343.91854117947
 20
396.788085803856
 11
-339.11854117947
 21
396.788085803856
  0
LINE
  5
FC
100
AcDbEntity
  8
1
  6
CONTINUOUS
 62
           7
100
AcDbLine
 10
-340.31854117947
 20
400.788085803856
 11
-340.01854117947
 21
400.788085803856
  0
LINE
  5
FB
100
AcDbEntity
  8
0
  6
CONTINUOUS
 62
           7
100
AcDbLine
 10
-340.31854117947
 20
404.788085803856
 11
-340.01854117947
 21
404.788085803856
  0
LINE
  5
FA
100
AcDbEntity
  8
1
  6
CONTINUOUS
 62
           7
100
AcDbLine
 10
-340.31854117947
 20
404.788085803856
 11
-340.31854117947
 21
400.788085803856
  0
LINE
  5
F9
100
AcDbEntity
  8
1
  6
CONTINUOUS
 62
           7
100
AcDbLine
 10
-342.71854117947
 20
400.788085803856
 11
-340.31854117947
 21
400.788085803856
  0
LINE
  5
F8
100
AcDbEntity
  8
0
  6
CONTINUOUS
 62
           7
100
AcDbLine
 10
-342.71854117947
 20
404.788085803856
 11
-340.31854117947
 21
404.788085803856
  0
LINE
  5
F7
100
AcDbEntity
  8
1
  6
CONTINUOUS
 62
           7
100
AcDbLine
 10
-342.71854117947
 20
404.788085803856
 11
-342.71854117947
 21
400.788085803856
  0
LINE
  5
F6
100
AcDbEntity
  8
1
  6
DASH_CENTER
 62
           3
100
AcDbLine
 10
-341.51854117947
 20
405.588085803856
 11
-341.51854117947
 21
393.988085803856
  0
LINE
  5
F5
100
AcDbEntity
  8
1
  6
CONTINUOUS
 62
           7
100
AcDbLine
 10
-340.01854117947
 20
400.788085803856
 11
-339.41854117947
 21
400.788085803856
  0
LINE
  5
F4
100
AcDbEntity
  8
0
  6
CONTINUOUS
 62
           7
100
AcDbLine
 10
-340.01854117947
 20
404.788085803856
 11
-339.41854117947
 21
404.788085803856
  0
LINE
  5
F3
100
AcDbEntity
  8
1
  6
CONTINUOUS
 62
           3
100
AcDbLine
 10
-340.01854117947
 20
404.788085803856
 11
-340.01854117947
 21
400.788085803856
  0
LINE
  5
F2
100
AcDbEntity
  8
1
  6
CONTINUOUS
 62
           7
100
AcDbLine
 10
-343.01854117947
 20
400.788085803856
 11
-342.71854117947
 21
400.788085803856
  0
LINE
  5
F1
100
AcDbEntity
  8
0
  6
CONTINUOUS
 62
           7
100
AcDbLine
 10
-343.01854117947
 20
404.788085803856
 11
-342.71854117947
 21
404.788085803856
  0
LINE
  5
F0
100
AcDbEntity
  8
1
  6
CONTINUOUS
 62
           3
100
AcDbLine
 10
-343.01854117947
 20
404.788085803856
 11
-343.01854117947
 21
400.788085803856
  0
LINE
  5
EF
100
AcDbEntity
  8
0
  6
CONTINUOUS
 62
           7
100
AcDbLine
 10
-348.318541143441
 20
380.578557424262
 11
-348.318541143441
 21
388.788085803856
  0
LINE
  5
EE
100
AcDbEntity
  8
1
  6
CONTINUOUS
 62
           7
100
AcDbLine
 10
-356.618541143441
 20
392.388085803856
 11
-356.618541143441
 21
381.856270600022
  0
LINE
  5
ED
100
AcDbEntity
  8
1
  6
CONTINUOUS
 62
           7
100
AcDbLine
 10
-356.618541143441
 20
411.71990100769
 11
-356.618541143441
 21
392.388085803856
  0
LINE
  5
EC
100
AcDbEntity
  8
0
  6
CONTINUOUS
 62
           7
100
AcDbLine
 10
-348.318541143441
 20
412.99761418345
 11
-348.318541143441
 21
404.788085803856
  0
LINE
  5
EB
100
AcDbEntity
  8
1
  6
CONTINUOUS
 62
           7
100
AcDbLine
 10
-341.718541143441
 20
404.788085803856
 11
-341.718541143441
 21
403.788085610206
  0
LINE
  5
EA
100
AcDbEntity
  8
1
  6
CONTINUOUS
 62
           7
100
AcDbLine
 10
-356.218541143441
 20
392.788085803856
 11
-339.41854117947
 21
392.788085803856
  0
LINE
  5
E9
100
AcDbEntity
  8
1
  6
CONTINUOUS
 62
           7
100
AcDbLine
 10
-356.218541143441
 20
400.788085803856
 11
-343.01854117947
 21
400.788085803856
  0
LINE
  5
E8
100
AcDbEntity
  8
0
  6
CONTINUOUS
 62
           7
100
AcDbLine
 10
-348.318541143441
 20
404.788085803856
 11
-343.01854117947
 21
404.788085803856
  0
LINE
  5
E7
100
AcDbEntity
  8
0
  6
CONTINUOUS
 62
           7
100
AcDbLine
 10
-348.318541143441
 20
388.788085803856
 11
-339.41854117947
 21
388.788085803856
  0
LINE
  5
E6
100
AcDbEntity
  8
0
  6
CONTINUOUS
 62
           7
100
AcDbLine
 10
-339.01854117947
 20
404.388085803856
 11
-339.01854117947
 21
401.188085803856
  0
LINE
  5
E5
100
AcDbEntity
  8
0
  6
CONTINUOUS
 62
           7
100
AcDbLine
 10
-339.01854117947
 20
392.388085803856
 11
-339.01854117947
 21
389.188085803856
  0
LINE
  5
E4
100
AcDbEntity
  8
1
  6
CONTINUOUS
 62
           7
100
AcDbLine
 10
-356.218541143441
 20
400.788085803856
 11
-356.618541143441
 21
401.188085803856
  0
LINE
  5
E3
100
AcDbEntity
  8
1
  6
CONTINUOUS
 62
           7
100
AcDbLine
 10
-339.01854117947
 20
401.188085803856
 11
-339.41854117947
 21
400.788085803856
  0
LINE
  5
E2
100
AcDbEntity
  8
1
  6
CONTINUOUS
 62
           7
100
AcDbLine
 10
-339.01854117947
 20
392.388085803856
 11
-339.41854117947
 21
392.788085803856
  0
LINE
  5
E1
100
AcDbEntity
  8
1
  6
CONTINUOUS
 62
           7
100
AcDbLine
 10
-356.618541143441
 20
392.388085803856
 11
-356.218541143441
 21
392.788085803856
  0
LINE
  5
E0
100
AcDbEntity
  8
1
  6
CONTINUOUS
 62
           7
100
AcDbLine
 10
-339.01854117947
 20
401.188085803856
 11
-339.01854117947
 21
392.388085803856
  0
LINE
  5
DF
100
AcDbEntity
  8
1
  6
CONTINUOUS
 62
           7
100
AcDbLine
 10
-339.01854117947
 20
404.388085803856
 11
-339.41854117947
 21
404.788085803856
  0
LINE
  5
DE
100
AcDbEntity
  8
1
  6
CONTINUOUS
 62
           7
100
AcDbLine
 10
-339.01854117947
 20
389.188085803856
 11
-339.41854117947
 21
388.788085803856
  0
LINE
  5
DD
100
AcDbEntity
  8
1
  6
CONTINUOUS
 62
           3
100
AcDbLine
 10
-340.418541177695
 20
385.428085803856
 11
-333.218541177695
 21
385.428085803856
  0
LINE
  5
DC
100
AcDbEntity
  8
1
  6
CONTINUOUS
 62
           3
100
AcDbLine
 10
-340.418541177695
 20
383.648085803856
 11
-333.218541177695
 21
383.648085803856
  0
LINE
  5
DB
100
AcDbEntity
  8
1
  6
CONTINUOUS
 62
           3
100
AcDbLine
 10
-340.418541177695
 20
385.428085803856
 11
-341.04207946842
 21
385.788085803856
  0
LINE
  5
DA
100
AcDbEntity
  8
1
  6
CONTINUOUS
 62
           3
100
AcDbLine
 10
-340.418541177695
 20
383.648085803856
 11
-341.04207946842
 21
383.288085803856
  0
LINE
  5
D9
100
AcDbEntity
  8
1
  6
CONTINUOUS
 62
           7
100
AcDbLine
 10
-341.218541177695
 20
384.538085803856
 11
-341.218541177695
 21
385.788085803856
  0
LINE
  5
D8
100
AcDbEntity
  8
1
  6
CONTINUOUS
 62
           7
100
AcDbLine
 10
-341.218541177695
 20
386.788085803856
 11
-343.518541177695
 21
386.788085803856
  0
LINE
  5
D7
100
AcDbEntity
  8
1
  6
CONTINUOUS
 62
           7
100
AcDbLine
 10
-343.518541177695
 20
386.788085803856
 11
-343.718541177695
 21
386.588085803856
  0
LINE
  5
D6
100
AcDbEntity
  8
1
  6
CONTINUOUS
 62
           7
100
AcDbLine
 10
-343.718541177695
 20
386.588085803856
 11
-343.718541177695
 21
382.488085803856
  0
LINE
  5
D5
100
AcDbEntity
  8
1
  6
CONTINUOUS
 62
           7
100
AcDbLine
 10
-343.718541177695
 20
382.488085803856
 11
-343.518541177695
 21
382.288085803856
  0
LINE
  5
D4
100
AcDbEntity
  8
1
  6
CONTINUOUS
 62
           7
100
AcDbLine
 10
-343.518541177695
 20
382.288085803856
 11
-341.218541177695
 21
382.288085803856
  0
LINE
  5
D3
100
AcDbEntity
  8
1
  6
CONTINUOUS
 62
           7
100
AcDbLine
 10
-341.218541177695
 20
382.288085803856
 11
-341.218541177695
 21
383.188085803856
  0
LINE
  5
D2
100
AcDbEntity
  8
1
  6
CONTINUOUS
 62
           7
100
AcDbLine
 10
-341.118541177695
 20
383.288085803856
 11
-340.418541177695
 21
383.288085803856
  0
LINE
  5
D1
100
AcDbEntity
  8
1
  6
CONTINUOUS
 62
           7
100
AcDbLine
 10
-341.218541177695
 20
383.288085803856
 11
-341.218541177695
 21
384.538085803856
  0
LINE
  5
D0
100
AcDbEntity
  8
1
  6
CONTINUOUS
 62
           7
100
AcDbLine
 10
-333.578541177695
 20
383.288085803856
 11
-333.218541177695
 21
383.648085803856
  0
LINE
  5
CF
100
AcDbEntity
  8
1
  6
CONTINUOUS
 62
           7
100
AcDbLine
 10
-333.218541177695
 20
383.648085803856
 11
-333.218541177695
 21
385.428085803856
  0
LINE
  5
CE
100
AcDbEntity
  8
1
  6
CONTINUOUS
 62
           7
100
AcDbLine
 10
-333.218541177695
 20
385.428085803856
 11
-333.578541177695
 21
385.788085803856
  0
LINE
  5
CD
100
AcDbEntity
  8
1
  6
CONTINUOUS
 62
           7
100
AcDbLine
 10
-333.578541177695
 20
385.788085803856
 11
-340.418541177695
 21
385.788085803856
  0
LINE
  5
CC
100
AcDbEntity
  8
1
  6
CONTINUOUS
 62
           7
100
AcDbLine
 10
-341.218541177695
 20
385.888085803856
 11
-341.218541177695
 21
386.788085803856
  0
LINE
  5
CB
100
AcDbEntity
  8
1
  6
CONTINUOUS
 62
           7
100
AcDbLine
 10
-340.418541177695
 20
385.788085803856
 11
-340.418541177695
 21
383.288085803856
  0
LINE
  5
CA
100
AcDbEntity
  8
1
  6
CONTINUOUS
 62
           7
100
AcDbLine
 10
-340.418541177695
 20
383.288085803856
 11
-333.578541177695
 21
383.288085803856
  0
LINE
  5
C9
100
AcDbEntity
  8
1
  6
CONTINUOUS
 62
           7
100
AcDbLine
 10
-340.418541177695
 20
385.788085803856
 11
-341.118541177695
 21
385.788085803856
  0
LINE
  5
C8
100
AcDbEntity
  8
1
  6
CONTINUOUS
 62
           7
100
AcDbLine
 10
-333.578541177695
 20
383.288085803856
 11
-333.578541177695
 21
385.788085803856
  0
LINE
  5
C7
100
AcDbEntity
  8
1
  6
CONTINUOUS
 62
           7
100
AcDbLine
 10
-343.518541177695
 20
386.788085803856
 11
-343.518541177695
 21
382.288085803856
  0
LINE
  5
C6
100
AcDbEntity
  8
1
  6
CONTINUOUS
 62
           7
100
AcDbLine
 10
-341.218541177695
 20
385.788085803856
 11
-341.218541177695
 21
385.888085803856
  0
LINE
  5
C5
100
AcDbEntity
  8
1
  6
CONTINUOUS
 62
           7
100
AcDbLine
 10
-341.218541177695
 20
383.288085803856
 11
-341.218541177695
 21
383.188085803856
  0
LINE
  5
C4
100
AcDbEntity
  8
0
  6
CONTINUOUS
 62
           3
100
AcDbLine
 10
-344.193541179606
 20
438.788085803772
 11
-344.193541179606
 21
434.913085803772
  0
LINE
  5
C3
100
AcDbEntity
  8
0
  6
CONTINUOUS
 62
           3
100
AcDbLine
 10
-338.943541179606
 20
438.788085803772
 11
-338.943541179606
 21
434.913085803772
  0
LINE
  5
C2
100
AcDbEntity
  8
0
  6
CONTINUOUS
 62
           7
100
AcDbLine
 10
-344.193541179606
 20
438.788085803772
 11
-338.943541179606
 21
438.788085803772
  0
LINE
  5
C1
100
AcDbEntity
  8
0
  6
CONTINUOUS
 62
           7
100
AcDbLine
 10
-338.568541179606
 20
438.413085803771
 11
-344.568541179606
 21
438.413085803772
  0
LINE
  5
C0
100
AcDbEntity
  8
0
  6
CONTINUOUS
 62
           7
100
AcDbLine
 10
-344.568541179606
 20
435.288085803772
 11
-341.568541179606
 21
435.288085803772
  0
LINE
  5
BF
100
AcDbEntity
  8
0
  6
CONTINUOUS
 62
           7
100
AcDbLine
 10
-341.568541179606
 20
435.288085803772
 11
-338.568541179606
 21
435.288085803771
  0
LINE
  5
BE
100
AcDbEntity
  8
0
  6
CONTINUOUS
 62
           7
100
AcDbLine
 10
-343.068541179606
 20
433.788085803771
 11
-341.568541179606
 21
433.788085803771
  0
LINE
  5
BD
100
AcDbEntity
  8
0
  6
CONTINUOUS
 62
           7
100
AcDbLine
 10
-341.568541179606
 20
433.788085803771
 11
-340.068541179606
 21
433.788085803771
  0
LINE
  5
BC
100
AcDbEntity
  8
0
  6
CONTINUOUS
 62
           7
100
AcDbLine
 10
-344.193541179606
 20
438.788085803772
 11
-344.568541179606
 21
438.413085803772
  0
LINE
  5
BB
100
AcDbEntity
  8
0
  6
CONTINUOUS
 62
           7
100
AcDbLine
 10
-338.568541179606
 20
438.413085803771
 11
-338.943541179606
 21
438.788085803772
  0
LINE
  5
BA
100
AcDbEntity
  8
0
  6
CONTINUOUS
 62
           7
100
AcDbLine
 10
-338.568541179606
 20
435.288085803771
 11
-338.568541179606
 21
438.413085803771
  0
LINE
  5
B9
100
AcDbEntity
  8
0
  6
CONTINUOUS
 62
           7
100
AcDbLine
 10
-344.568541179606
 20
438.413085803772
 11
-344.568541179606
 21
435.288085803772
  0
LINE
  5
B8
100
AcDbEntity
  8
0
  6
CONTINUOUS
 62
           7
100
AcDbLine
 10
-340.068541179606
 20
433.788085803771
 11
-338.568541179606
 21
435.288085803771
  0
LINE
  5
B7
100
AcDbEntity
  8
0
  6
CONTINUOUS
 62
           7
100
AcDbLine
 10
-344.568541179606
 20
435.288085803772
 11
-343.068541179606
 21
433.788085803771
  0
LINE
  5
B6
100
AcDbEntity
  8
1
  6
CONTINUOUS
 62
           7
100
AcDbLine
 10
-369.818541179469
 20
406.088085803856
 11
-369.818541179469
 21
406.288085803856
  0
LINE
  5
B5
100
AcDbEntity
  8
1
  6
CONTINUOUS
 62
           7
100
AcDbLine
 10
-369.818541179469
 20
411.488085803856
 11
-369.818541179469
 21
411.288085803856
  0
LINE
  5
B4
100
AcDbEntity
  8
1
  6
CONTINUOUS
 62
           7
100
AcDbLine
 10
-365.118541179469
 20
404.538085803856
 11
-365.118541179469
 21
413.038085803856
  0
LINE
  5
B3
100
AcDbEntity
  8
1
  6
CONTINUOUS
 62
           7
100
AcDbLine
 10
-383.118541179469
 20
411.288085803856
 11
-383.118541179469
 21
406.288085803856
  0
LINE
  5
B2
100
AcDbEntity
  8
1
  6
CONTINUOUS
 62
           7
100
AcDbLine
 10
-383.118541179469
 20
406.288085803856
 11
-371.418541179469
 21
406.288085803856
  0
LINE
  5
B1
100
AcDbEntity
  8
1
  6
CONTINUOUS
 62
           7
100
AcDbLine
 10
-370.018541179469
 20
411.288085803856
 11
-371.418541179469
 21
411.288085803856
  0
LINE
  5
B0
100
AcDbEntity
  8
1
  6
CONTINUOUS
 62
           7
100
AcDbLine
 10
-371.418541179469
 20
406.288085803856
 11
-371.418541179469
 21
411.288085803856
  0
LINE
  5
AF
100
AcDbEntity
  8
1
  6
CONTINUOUS
 62
           7
100
AcDbLine
 10
-369.818541179469
 20
413.038085803856
 11
-369.818541179469
 21
411.488085803856
  0
LINE
  5
AE
100
AcDbEntity
  8
1
  6
CONTINUOUS
 62
           7
100
AcDbLine
 10
-371.418541179469
 20
411.288085803856
 11
-383.118541179469
 21
411.288085803856
  0
LINE
  5
AD
100
AcDbEntity
  8
1
  6
CONTINUOUS
 62
           7
100
AcDbLine
 10
-383.118541179469
 20
411.288085803856
 11
-383.818541179469
 21
410.588085803856
  0
LINE
  5
AC
100
AcDbEntity
  8
1
  6
CONTINUOUS
 62
           7
100
AcDbLine
 10
-383.818541179469
 20
410.588085803856
 11
-383.818541179469
 21
406.988085803856
  0
LINE
  5
AB
100
AcDbEntity
  8
1
  6
CONTINUOUS
 62
           7
100
AcDbLine
 10
-383.818541179469
 20
406.988085803856
 11
-383.118541179469
 21
406.288085803856
  0
LINE
  5
AA
100
AcDbEntity
  8
1
  6
CONTINUOUS
 62
           7
100
AcDbLine
 10
-369.818541179469
 20
408.788085803856
 11
-369.818541179469
 21
406.288085803856
  0
LINE
  5
A9
100
AcDbEntity
  8
1
  6
CONTINUOUS
 62
           7
100
AcDbLine
 10
-371.418541179469
 20
406.288085803856
 11
-370.018541179469
 21
406.288085803856
  0
LINE
  5
A8
100
AcDbEntity
  8
1
  6
CONTINUOUS
 62
           7
100
AcDbLine
 10
-369.818541179469
 20
406.088085803856
 11
-369.818541179469
 21
404.538085803856
  0
LINE
  5
A7
100
AcDbEntity
  8
1
  6
CONTINUOUS
 62
           7
100
AcDbLine
 10
-369.818541179469
 20
404.538085803856
 11
-365.118541179469
 21
404.538085803856
  0
LINE
  5
A6
100
AcDbEntity
  8
1
  6
CONTINUOUS
 62
           7
100
AcDbLine
 10
-365.118541179469
 20
404.538085803856
 11
-364.818541179469
 21
404.838085803856
  0
LINE
  5
A5
100
AcDbEntity
  8
1
  6
CONTINUOUS
 62
           7
100
AcDbLine
 10
-364.818541179469
 20
404.838085803856
 11
-364.818541179469
 21
412.738085803856
  0
LINE
  5
A4
100
AcDbEntity
  8
1
  6
CONTINUOUS
 62
           7
100
AcDbLine
 10
-364.818541179469
 20
412.738085803856
 11
-365.118541179469
 21
413.038085803856
  0
LINE
  5
A3
100
AcDbEntity
  8
1
  6
CONTINUOUS
 62
           7
100
AcDbLine
 10
-365.118541179469
 20
413.038085803856
 11
-369.818541179469
 21
413.038085803856
  0
LINE
  5
A2
100
AcDbEntity
  8
1
  6
CONTINUOUS
 62
           7
100
AcDbLine
 10
-369.818541179469
 20
411.288085803856
 11
-369.818541179469
 21
408.788085803856
  0
LINE
  5
A1
100
AcDbEntity
  8
1
  6
CONTINUOUS
 62
           3
100
AcDbLine
 10
-370.206105614171
 20
406.288085803856
 11
-371.418541179469
 21
406.988085803856
  0
LINE
  5
A0
100
AcDbEntity
  8
1
  6
CONTINUOUS
 62
           3
100
AcDbLine
 10
-370.206105614171
 20
411.288085803856
 11
-371.418541179469
 21
410.588085803856
  0
LINE
  5
9F
100
AcDbEntity
  8
1
  6
CONTINUOUS
 62
           3
100
AcDbLine
 10
-383.818541179469
 20
406.988085803856
 11
-371.418541179469
 21
406.988085803856
  0
LINE
  5
9E
100
AcDbEntity
  8
1
  6
CONTINUOUS
 62
           3
100
AcDbLine
 10
-383.818541179469
 20
410.588085803856
 11
-371.418541179469
 21
410.588085803856
  0
LINE
  5
9D
100
AcDbEntity
  8
1
  6
CONTINUOUS
 62
           7
100
AcDbLine
 10
-382.718541179469
 20
424.617612629479
 11
-385.518541179469
 21
424.617612629479
  0
LINE
  5
9C
100
AcDbEntity
  8
1
  6
CONTINUOUS
 62
           7
100
AcDbLine
 10
-385.518541179469
 20
424.617612629479
 11
-385.718541179469
 21
424.417612629479
  0
LINE
  5
9B
100
AcDbEntity
  8
1
  6
CONTINUOUS
 62
           7
100
AcDbLine
 10
-385.718541179469
 20
424.417612629479
 11
-385.718541179469
 21
419.317612629479
  0
LINE
  5
9A
100
AcDbEntity
  8
1
  6
CONTINUOUS
 62
           7
100
AcDbLine
 10
-385.718541179469
 20
419.317612629479
 11
-385.518541179469
 21
419.117612629479
  0
LINE
  5
99
100
AcDbEntity
  8
1
  6
CONTINUOUS
 62
           7
100
AcDbLine
 10
-385.518541179469
 20
419.117612629479
 11
-382.718541179469
 21
419.117612629479
  0
LINE
  5
98
100
AcDbEntity
  8
1
  6
CONTINUOUS
 62
           7
100
AcDbLine
 10
-382.718541179469
 20
419.117612629479
 11
-382.718541179469
 21
424.617612629479
  0
LINE
  5
97
100
AcDbEntity
  8
1
  6
CONTINUOUS
 62
           7
100
AcDbLine
 10
-385.518541179469
 20
424.617612629479
 11
-385.518541179469
 21
419.117612629479
  0
LINE
  5
96
100
AcDbEntity
  8
1
  6
CONTINUOUS
 62
           7
100
AcDbLine
 10
-377.018541179469
 20
373.905174219604
 11
-377.018541179469
 21
379.535586981357
  0
LINE
  5
95
100
AcDbEntity
  8
1
  6
CONTINUOUS
 62
           7
100
AcDbLine
 10
-377.018541179469
 20
430.788085803856
 11
-376.318541179469
 21
430.788085803856
  0
LINE
  5
94
100
AcDbEntity
  8
1
  6
CONTINUOUS
 62
           7
100
AcDbLine
 10
-382.718541179469
 20
379.16992329363
 11
-382.718541179469
 21
362.788085803856
  0
LINE
  5
93
100
AcDbEntity
  8
1
  6
CONTINUOUS
 62
           7
100
AcDbLine
 10
-381.918541179469
 20
361.988085803856
 11
-377.018541179469
 21
361.988085803856
  0
LINE
  5
92
100
AcDbEntity
  8
1
  6
CONTINUOUS
 62
           7
100
AcDbLine
 10
-377.018541179469
 20
361.988085803856
 11
-377.018541179469
 21
369.572539491348
  0
LINE
  5
91
100
AcDbEntity
  8
1
  6
CONTINUOUS
 62
           7
100
AcDbLine
 10
-386.118541179469
 20
370.288085803856
 11
-386.318541179469
 21
370.288085803856
  0
LINE
  5
90
100
AcDbEntity
  8
1
  6
CONTINUOUS
 62
           7
100
AcDbLine
 10
-386.118541179466
 20
375.439772532752
 11
-386.118541179469
 21
370.038085803856
  0
LINE
  5
8F
100
AcDbEntity
  8
1
  6
CONTINUOUS
 62
           7
100
AcDbLine
 10
-386.318541179469
 20
370.288085803856
 11
-386.318541179469
 21
375.077941133206
  0
LINE
  5
8E
100
AcDbEntity
  8
1
  6
CONTINUOUS
 62
           7
100
AcDbLine
 10
-386.318541179469
 20
418.498230474506
 11
-386.318541179469
 21
423.288085803856
  0
LINE
  5
8D
100
AcDbEntity
  8
1
  6
CONTINUOUS
 62
           7
100
AcDbLine
 10
-386.118541179469
 20
423.538085803856
 11
-386.118541179466
 21
418.13639907496
  0
LINE
  5
8C
100
AcDbEntity
  8
1
  6
CONTINUOUS
 62
           7
100
AcDbLine
 10
-386.318541179469
 20
423.288085803856
 11
-386.118541179469
 21
423.288085803856
  0
LINE
  5
8B
100
AcDbEntity
  8
1
  6
CONTINUOUS
 62
           7
100
AcDbLine
 10
-377.018541179469
 20
414.040584626355
 11
-377.018541179469
 21
431.588085803856
  0
LINE
  5
8A
100
AcDbEntity
  8
1
  6
CONTINUOUS
 62
           7
100
AcDbLine
 10
-377.018541179469
 20
431.588085803856
 11
-381.918541179469
 21
431.588085803856
  0
LINE
  5
89
100
AcDbEntity
  8
1
  6
CONTINUOUS
 62
           7
100
AcDbLine
 10
-382.718541179469
 20
430.788085803856
 11
-382.718541179469
 21
414.406248314082
  0
LINE
  5
88
100
AcDbEntity
  8
1
  6
CONTINUOUS
 62
           7
100
AcDbLine
 10
-385.518541179469
 20
430.538085803856
 11
-385.518541179469
 21
425.038085803856
  0
LINE
  5
87
100
AcDbEntity
  8
1
  6
CONTINUOUS
 62
           7
100
AcDbLine
 10
-382.718541179469
 20
425.038085803856
 11
-382.718541179469
 21
430.538085803856
  0
LINE
  5
86
100
AcDbEntity
  8
1
  6
CONTINUOUS
 62
           7
100
AcDbLine
 10
-385.518541179469
 20
425.038085803856
 11
-382.718541179469
 21
425.038085803856
  0
LINE
  5
85
100
AcDbEntity
  8
1
  6
CONTINUOUS
 62
           7
100
AcDbLine
 10
-385.718541179469
 20
425.238085803856
 11
-385.518541179469
 21
425.038085803856
  0
LINE
  5
84
100
AcDbEntity
  8
1
  6
CONTINUOUS
 62
           7
100
AcDbLine
 10
-385.718541179469
 20
430.338085803856
 11
-385.718541179469
 21
425.238085803856
  0
LINE
  5
83
100
AcDbEntity
  8
1
  6
CONTINUOUS
 62
           7
100
AcDbLine
 10
-385.518541179469
 20
430.538085803856
 11
-385.718541179469
 21
430.338085803856
  0
LINE
  5
82
100
AcDbEntity
  8
1
  6
CONTINUOUS
 62
           7
100
AcDbLine
 10
-382.718541179469
 20
430.538085803856
 11
-385.518541179469
 21
430.538085803856
  0
LINE
  5
81
100
AcDbEntity
  8
1
  6
CONTINUOUS
 62
           7
100
AcDbLine
 10
-385.518541179469
 20
363.038085803856
 11
-382.718541179469
 21
363.038085803856
  0
LINE
  5
80
100
AcDbEntity
  8
1
  6
CONTINUOUS
 62
           7
100
AcDbLine
 10
-385.718541179469
 20
363.238085803856
 11
-385.518541179469
 21
363.038085803856
  0
LINE
  5
7F
100
AcDbEntity
  8
1
  6
CONTINUOUS
 62
           7
100
AcDbLine
 10
-385.718541179469
 20
368.338085803856
 11
-385.718541179469
 21
363.238085803856
  0
LINE
  5
7E
100
AcDbEntity
  8
1
  6
CONTINUOUS
 62
           7
100
AcDbLine
 10
-385.518541179469
 20
368.538085803856
 11
-385.718541179469
 21
368.338085803856
  0
LINE
  5
7D
100
AcDbEntity
  8
1
  6
CONTINUOUS
 62
           7
100
AcDbLine
 10
-382.718541179469
 20
368.538085803856
 11
-385.518541179469
 21
368.538085803856
  0
LINE
  5
7C
100
AcDbEntity
  8
1
  6
CONTINUOUS
 62
           7
100
AcDbLine
 10
-382.718541179469
 20
363.038085803856
 11
-382.718541179469
 21
368.538085803856
  0
LINE
  5
7B
100
AcDbEntity
  8
1
  6
CONTINUOUS
 62
           7
100
AcDbLine
 10
-385.518541179469
 20
368.538085803856
 11
-385.518541179469
 21
363.038085803856
  0
LINE
  5
7A
100
AcDbEntity
  8
1
  6
CONTINUOUS
 62
           7
100
AcDbLine
 10
-385.518541179469
 20
374.458558978233
 11
-385.518541179469
 21
368.958558978233
  0
LINE
  5
79
100
AcDbEntity
  8
1
  6
CONTINUOUS
 62
           7
100
AcDbLine
 10
-382.718541179469
 20
368.958558978233
 11
-382.718541179469
 21
374.458558978233
  0
LINE
  5
78
100
AcDbEntity
  8
1
  6
CONTINUOUS
 62
           7
100
AcDbLine
 10
-382.718541179469
 20
374.458558978233
 11
-385.518541179469
 21
374.458558978233
  0
LINE
  5
77
100
AcDbEntity
  8
1
  6
CONTINUOUS
 62
           7
100
AcDbLine
 10
-385.518541179469
 20
374.458558978233
 11
-385.718541179469
 21
374.258558978233
  0
LINE
  5
76
100
AcDbEntity
  8
1
  6
CONTINUOUS
 62
           7
100
AcDbLine
 10
-385.718541179469
 20
374.258558978233
 11
-385.718541179469
 21
369.158558978233
  0
LINE
  5
75
100
AcDbEntity
  8
1
  6
CONTINUOUS
 62
           7
100
AcDbLine
 10
-385.718541179469
 20
369.158558978233
 11
-385.518541179469
 21
368.958558978233
  0
LINE
  5
74
100
AcDbEntity
  8
1
  6
CONTINUOUS
 62
           7
100
AcDbLine
 10
-385.518541179469
 20
368.958558978233
 11
-382.718541179469
 21
368.958558978233
  0
LINE
  5
73
100
AcDbEntity
  8
1
  6
CONTINUOUS
 62
           7
100
AcDbLine
 10
-438.572245747269
 20
428.509773640343
 11
-439.822245747269
 21
429.23146147683
  0
LINE
  5
72
100
AcDbEntity
  8
1
  6
CONTINUOUS
 62
           7
100
AcDbLine
 10
-439.822245747269
 20
429.23146147683
 11
-441.072245747269
 21
428.509773640343
  0
LINE
  5
71
100
AcDbEntity
  8
1
  6
CONTINUOUS
 62
           7
100
AcDbLine
 10
-441.072245747269
 20
428.509773640343
 11
-441.072245747269
 21
427.066397967369
  0
LINE
  5
70
100
AcDbEntity
  8
1
  6
CONTINUOUS
 62
           7
100
AcDbLine
 10
-441.072245747269
 20
427.066397967369
 11
-439.822245747269
 21
426.344710130882
  0
LINE
  5
6F
100
AcDbEntity
  8
1
  6
CONTINUOUS
 62
           7
100
AcDbLine
 10
-439.822245747269
 20
426.344710130882
 11
-438.572245747269
 21
427.066397967369
  0
LINE
  5
6E
100
AcDbEntity
  8
1
  6
CONTINUOUS
 62
           7
100
AcDbLine
 10
-438.572245747269
 20
427.066397967369
 11
-438.572245747269
 21
428.509773640343
  0
LINE
  5
6D
100
AcDbEntity
  8
1
  6
CONTINUOUS
 62
           7
100
AcDbLine
 10
-456.608119858321
 20
422.018486470493
 11
-457.456514792413
 21
423.186201919197
  0
LINE
  5
6C
100
AcDbEntity
  8
1
  6
CONTINUOUS
 62
           7
100
AcDbLine
 10
-457.195193634244
 20
420.699897180776
 11
-456.608119858321
 21
422.018486470493
  0
LINE
  5
6B
100
AcDbEntity
  8
1
  6
CONTINUOUS
 62
           7
100
AcDbLine
 10
-458.630662344258
 20
420.549023339762
 11
-457.195193634244
 21
420.699897180776
  0
LINE
  5
6A
100
AcDbEntity
  8
1
  6
CONTINUOUS
 62
           7
100
AcDbLine
 10
-459.47905727835
 20
421.716738788466
 11
-458.630662344258
 21
420.549023339762
  0
LINE
  5
69
100
AcDbEntity
  8
1
  6
CONTINUOUS
 62
           7
100
AcDbLine
 10
-458.891983502427
 20
423.035328078183
 11
-459.47905727835
 21
421.716738788466
  0
LINE
  5
68
100
AcDbEntity
  8
1
  6
CONTINUOUS
 62
           7
100
AcDbLine
 10
-457.456514792413
 20
423.186201919197
 11
-458.891983502427
 21
423.035328078183
  0
LINE
  5
67
100
AcDbEntity
  8
1
  6
CONTINUOUS
 62
           7
100
AcDbLine
 10
-469.605092429072
 20
407.779447080957
 11
-470.677729591663
 21
406.813640241696
  0
LINE
  5
66
100
AcDbEntity
  8
1
  6
CONTINUOUS
 62
           7
100
AcDbLine
 10
-470.677729591663
 20
406.813640241696
 11
-470.377634915009
 21
405.401805790219
  0
LINE
  5
65
100
AcDbEntity
  8
1
  6
CONTINUOUS
 62
           7
100
AcDbLine
 10
-470.377634915009
 20
405.401805790219
 11
-469.004903075766
 21
404.955778178003
  0
LINE
  5
64
100
AcDbEntity
  8
1
  6
CONTINUOUS
 62
           7
100
AcDbLine
 10
-469.004903075766
 20
404.955778178003
 11
-467.932265913175
 21
405.921585017264
  0
LINE
  5
63
100
AcDbEntity
  8
1
  6
CONTINUOUS
 62
           7
100
AcDbLine
 10
-467.932265913175
 20
405.921585017264
 11
-468.232360589828
 21
407.333419468741
  0
LINE
  5
62
100
AcDbEntity
  8
1
  6
CONTINUOUS
 62
           7
100
AcDbLine
 10
-468.232360589828
 20
407.333419468741
 11
-469.605092429072
 21
407.779447080957
  0
LINE
  5
61
100
AcDbEntity
  8
1
  6
CONTINUOUS
 62
           7
100
AcDbLine
 10
-470.377634915011
 20
388.174365817498
 11
-470.677729591665
 21
386.762531366022
  0
LINE
  5
60
100
AcDbEntity
  8
1
  6
CONTINUOUS
 62
           7
100
AcDbLine
 10
-470.677729591665
 20
386.762531366022
 11
-469.605092429074
 21
385.79672452676
  0
LINE
  5
5F
100
AcDbEntity
  8
1
  6
CONTINUOUS
 62
           7
100
AcDbLine
 10
-469.605092429074
 20
385.79672452676
 11
-468.23236058983
 21
386.242752138976
  0
LINE
  5
5E
100
AcDbEntity
  8
1
  6
CONTINUOUS
 62
           7
100
AcDbLine
 10
-468.23236058983
 20
386.242752138976
 11
-467.932265913176
 21
387.654586590453
  0
LINE
  5
5D
100
AcDbEntity
  8
1
  6
CONTINUOUS
 62
           7
100
AcDbLine
 10
-467.932265913176
 20
387.654586590453
 11
-469.004903075767
 21
388.620393429714
  0
LINE
  5
5C
100
AcDbEntity
  8
1
  6
CONTINUOUS
 62
           7
100
AcDbLine
 10
-469.004903075767
 20
388.620393429714
 11
-470.377634915011
 21
388.174365817498
  0
LINE
  5
5B
100
AcDbEntity
  8
1
  6
CONTINUOUS
 62
           7
100
AcDbLine
 10
-458.63066234426
 20
373.027148267951
 11
-459.479057278352
 21
371.859432819248
  0
LINE
  5
5A
100
AcDbEntity
  8
1
  6
CONTINUOUS
 62
           7
100
AcDbLine
 10
-457.195193634245
 20
372.876274426937
 11
-458.63066234426
 21
373.027148267951
  0
LINE
  5
59
100
AcDbEntity
  8
1
  6
CONTINUOUS
 62
           7
100
AcDbLine
 10
-456.608119858322
 20
371.55768513722
 11
-457.195193634245
 21
372.876274426937
  0
LINE
  5
58
100
AcDbEntity
  8
1
  6
CONTINUOUS
 62
           7
100
AcDbLine
 10
-457.456514792415
 20
370.389969688516
 11
-456.608119858322
 21
371.55768513722
  0
LINE
  5
57
100
AcDbEntity
  8
1
  6
CONTINUOUS
 62
           7
100
AcDbLine
 10
-458.891983502429
 20
370.54084352953
 11
-457.456514792415
 21
370.389969688516
  0
LINE
  5
56
100
AcDbEntity
  8
1
  6
CONTINUOUS
 62
           7
100
AcDbLine
 10
-459.479057278352
 20
371.859432819248
 11
-458.891983502429
 21
370.54084352953
  0
LINE
  5
55
100
AcDbEntity
  8
1
  6
CONTINUOUS
 62
           7
100
AcDbLine
 10
-441.072245747267
 20
365.066397967369
 11
-439.822245747267
 21
364.344710130882
  0
LINE
  5
54
100
AcDbEntity
  8
1
  6
CONTINUOUS
 62
           7
100
AcDbLine
 10
-439.822245747267
 20
364.344710130882
 11
-438.572245747267
 21
365.066397967369
  0
LINE
  5
53
100
AcDbEntity
  8
1
  6
CONTINUOUS
 62
           7
100
AcDbLine
 10
-438.572245747267
 20
365.066397967369
 11
-438.572245747267
 21
366.509773640343
  0
LINE
  5
52
100
AcDbEntity
  8
1
  6
CONTINUOUS
 62
           7
100
AcDbLine
 10
-438.572245747267
 20
366.509773640343
 11
-439.822245747267
 21
367.23146147683
  0
LINE
  5
51
100
AcDbEntity
  8
1
  6
CONTINUOUS
 62
           7
100
AcDbLine
 10
-439.822245747267
 20
367.23146147683
 11
-441.072245747267
 21
366.509773640343
  0
LINE
  5
50
100
AcDbEntity
  8
1
  6
CONTINUOUS
 62
           7
100
AcDbLine
 10
-441.072245747267
 20
366.509773640343
 11
-441.072245747267
 21
365.066397967369
  0
LINE
  5
4F
100
AcDbEntity
  8
1
  6
CONTINUOUS
 62
           7
100
AcDbLine
 10
-423.036371636216
 20
371.55768513722
 11
-422.187976702124
 21
370.389969688516
  0
LINE
  5
4E
100
AcDbEntity
  8
1
  6
CONTINUOUS
 62
           7
100
AcDbLine
 10
-422.449297860293
 20
372.876274426937
 11
-423.036371636216
 21
371.55768513722
  0
LINE
  5
4D
100
AcDbEntity
  8
1
  6
CONTINUOUS
 62
           7
100
AcDbLine
 10
-421.013829150279
 20
373.027148267951
 11
-422.449297860293
 21
372.876274426937
  0
LINE
  5
4C
100
AcDbEntity
  8
1
  6
CONTINUOUS
 62
           7
100
AcDbLine
 10
-420.165434216187
 20
371.859432819248
 11
-421.013829150279
 21
373.027148267951
  0
LINE
  5
4B
100
AcDbEntity
  8
1
  6
CONTINUOUS
 62
           7
100
AcDbLine
 10
-420.752507992109
 20
370.54084352953
 11
-420.165434216187
 21
371.859432819248
  0
LINE
  5
4A
100
AcDbEntity
  8
1
  6
CONTINUOUS
 62
           7
100
AcDbLine
 10
-422.187976702124
 20
370.389969688516
 11
-420.752507992109
 21
370.54084352953
  0
LINE
  5
49
100
AcDbEntity
  8
1
  6
CONTINUOUS
 62
           7
100
AcDbLine
 10
-410.039399065466
 20
385.796724526756
 11
-408.966761902875
 21
386.762531366017
  0
LINE
  5
48
100
AcDbEntity
  8
1
  6
CONTINUOUS
 62
           7
100
AcDbLine
 10
-408.966761902875
 20
386.762531366017
 11
-409.266856579529
 21
388.174365817495
  0
LINE
  5
47
100
AcDbEntity
  8
1
  6
CONTINUOUS
 62
           7
100
AcDbLine
 10
-409.266856579529
 20
388.174365817495
 11
-410.639588418773
 21
388.620393429711
  0
LINE
  5
46
100
AcDbEntity
  8
1
  6
CONTINUOUS
 62
           7
100
AcDbLine
 10
-410.639588418773
 20
388.620393429711
 11
-411.712225581363
 21
387.65458659045
  0
LINE
  5
45
100
AcDbEntity
  8
1
  6
CONTINUOUS
 62
           7
100
AcDbLine
 10
-411.712225581363
 20
387.65458659045
 11
-411.41213090471
 21
386.242752138973
  0
LINE
  5
44
100
AcDbEntity
  8
1
  6
CONTINUOUS
 62
           7
100
AcDbLine
 10
-411.41213090471
 20
386.242752138973
 11
-410.039399065466
 21
385.796724526756
  0
LINE
  5
43
100
AcDbEntity
  8
1
  6
CONTINUOUS
 62
           7
100
AcDbLine
 10
-409.266856579528
 20
405.401805790215
 11
-408.966761902875
 21
406.813640241692
  0
LINE
  5
42
100
AcDbEntity
  8
1
  6
CONTINUOUS
 62
           7
100
AcDbLine
 10
-408.966761902875
 20
406.813640241692
 11
-410.039399065465
 21
407.779447080953
  0
LINE
  5
41
100
AcDbEntity
  8
1
  6
CONTINUOUS
 62
           7
100
AcDbLine
 10
-410.039399065465
 20
407.779447080953
 11
-411.412130904709
 21
407.333419468737
  0
LINE
  5
40
100
AcDbEntity
  8
1
  6
CONTINUOUS
 62
           7
100
AcDbLine
 10
-411.412130904709
 20
407.333419468737
 11
-411.712225581362
 21
405.92158501726
  0
LINE
  5
3F
100
AcDbEntity
  8
1
  6
CONTINUOUS
 62
           7
100
AcDbLine
 10
-411.712225581362
 20
405.92158501726
 11
-410.639588418772
 21
404.955778177999
  0
LINE
  5
3E
100
AcDbEntity
  8
1
  6
CONTINUOUS
 62
           7
100
AcDbLine
 10
-410.639588418772
 20
404.955778177999
 11
-409.266856579528
 21
405.401805790215
  0
LINE
  5
3D
100
AcDbEntity
  8
1
  6
CONTINUOUS
 62
           7
100
AcDbLine
 10
-421.01382915028
 20
420.549023339762
 11
-420.165434216188
 21
421.716738788466
  0
LINE
  5
3C
100
AcDbEntity
  8
1
  6
CONTINUOUS
 62
           7
100
AcDbLine
 10
-422.449297860295
 20
420.699897180776
 11
-421.01382915028
 21
420.549023339762
  0
LINE
  5
3B
100
AcDbEntity
  8
1
  6
CONTINUOUS
 62
           7
100
AcDbLine
 10
-423.036371636217
 20
422.018486470493
 11
-422.449297860295
 21
420.699897180776
  0
LINE
  5
3A
100
AcDbEntity
  8
1
  6
CONTINUOUS
 62
           7
100
AcDbLine
 10
-422.187976702126
 20
423.186201919197
 11
-423.036371636217
 21
422.018486470493
  0
LINE
  5
39
100
AcDbEntity
  8
1
  6
CONTINUOUS
 62
           7
100
AcDbLine
 10
-420.752507992111
 20
423.035328078182
 11
-422.187976702126
 21
423.186201919197
  0
LINE
  5
38
100
AcDbEntity
  8
1
  6
CONTINUOUS
 62
           7
100
AcDbLine
 10
-420.165434216188
 20
421.716738788466
 11
-420.752507992111
 21
423.035328078182
  0
LINE
  5
37
100
AcDbEntity
  8
1
  6
DASH_CENTER
 62
           3
100
AcDbLine
 10
-212.109084939462
 20
396.7880856096
 11
-312.372622845599
 21
396.7880856096
  0
LINE
  5
36
100
AcDbEntity
  8
1
  6
DASH_CENTER
 62
           3
100
AcDbLine
 10
-262.24085389253
 20
346.656316850787
 11
-262.24085389253
 21
446.919854756925
  0
LINE
  5
35
100
AcDbEntity
  8
1
  6
CONTINUOUS
 62
           7
100
AcDbLine
 10
-327.818541177229
 20
442.788085381425
 11
-327.818541177418
 21
350.788086188596
  0
LINE
  5
34
100
AcDbEntity
  8
1
  6
CONTINUOUS
 62
           7
100
AcDbLine
 10
-335.818541177559
 20
383.538085803856
 11
-335.818541177559
 21
350.788086188596
  0
LINE
  5
33
100
AcDbEntity
  8
1
  6
DASH_CENTER
 62
           3
100
AcDbLine
 10
-319.812766743319
 20
355.788085803856
 11
-362.02251064506
 21
355.788085803856
  0
LINE
  5
32
100
AcDbEntity
  8
1
  6
CONTINUOUS
 62
           3
100
AcDbLine
 10
-359.818541179489
 20
353.288085803856
 11
-349.81854117947
 21
353.288085803856
  0
LINE
  5
31
100
AcDbEntity
  8
1
  6
CONTINUOUS
 62
           7
100
AcDbLine
 10
-349.81854117947
 20
368.78808607996
 11
-349.81854117947
 21
355.788085803856
  0
LINE
  5
30
100
AcDbEntity
  8
1
  6
CONTINUOUS
 62
           7
100
AcDbLine
 10
-335.818541177559
 20
406.288085803856
 11
-345.818541179606
 21
406.288085803856
  0
LINE
  5
2F
100
AcDbEntity
  8
1
  6
CONTINUOUS
 62
           7
100
AcDbLine
 10
-335.818541177559
 20
442.788085381425
 11
-335.818541177559
 21
406.788085803856
  0
LINE
  5
2E
100
AcDbEntity
  8
1
  6
CONTINUOUS
 62
           7
100
AcDbLine
 10
-345.818541179606
 20
424.788085803856
 11
-345.818541179606
 21
406.288085803856
  0
LINE
  5
2D
100
AcDbEntity
  8
1
  6
CONTINUOUS
 62
           7
100
AcDbLine
 10
-349.81854117947
 20
442.788085321761
 11
-349.81854117947
 21
411.81456506786
  0
LINE
  5
2C
100
AcDbEntity
  8
1
  6
CONTINUOUS
 62
           7
100
AcDbLine
 10
-372.818541179469
 20
389.788085924008
 11
-372.818541179469
 21
378.093944587978
  0
LINE
  5
2B
100
AcDbEntity
  8
0
  6
CONTINUOUS
 62
           7
100
AcDbLine
 10
-375.818541179469
 20
412.788085566518
 11
-373.508541098525
 21
412.788085566518
  0
LINE
  5
2A
100
AcDbEntity
  8
1
  6
CONTINUOUS
 62
           7
100
AcDbLine
 10
-373.208541098525
 20
413.088085566518
 11
-373.208541098525
 21
415.337530602622
  0
LINE
  5
29
100
AcDbEntity
  8
1
  6
DASH_CENTER
 62
           3
100
AcDbLine
 10
-374.132900533414
 20
380.788086041193
 11
-388.718541179469
 21
380.788086041193
  0
CIRCLE
  5
2A7
100
AcDbEntity
  8
0
 62
           7
100
AcDbCircle
 10
-439.892956425388
 20
406.358796481974
 40
0.5
  0
HATCH
  5
2A8
100
AcDbEntity
  8
0
 62
           7
100
AcDbHatch
 10
0.0
 20
0.0
 30
0.0
210
0.0
220
0.0
230
1.0
  2
SOLID
 70
           1
 71
           1
 91
        1
 92
        1
 93
        1
 72
           2
 10
-439.89295642538798
 20
406.35879648197442
 40
0.5
 50
-180.0
 51
180.0
 73
           1
 97
        1
330
2A7
 75
           0
 76
           1
 98
        1
 10
0.0
 20
0.0
  0
CIRCLE
  5
2AA
100
AcDbEntity
  8
0
 62
           7
100
AcDbCircle
 10
-433.104731325997
 20
403.605600225128
 40
0.5
  0
HATCH
  5
2AB
100
AcDbEntity
  8
0
 62
           7
100
AcDbHatch
 10
0.0
 20
0.0
 30
0.0
210
0.0
220
0.0
230
1.0
  2
SOLID
 70
           1
 71
           1
 91
        1
 92
        1
 93
        1
 72
           2
 10
-433.10473132599731
 20
403.60560022512811
 40
0.5
 50
-180.0
 51
180.0
 73
           1
 97
        1
330
2AA
 75
           0
 76
           1
 98
        1
 10
0.0
 20
0.0
  0
CIRCLE
  5
2AD
100
AcDbEntity
  8
0
 62
           7
100
AcDbCircle
 10
-430.251535069151
 20
396.858796481975
 40
0.5
  0
HATCH
  5
2AE
100
AcDbEntity
  8
0
 62
           7
100
AcDbHatch
 10
0.0
 20
0.0
 30
0.0
210
0.0
220
0.0
230
1.0
  2
SOLID
 70
           1
 71
           1
 91
        1
 92
        1
 93
        1
 72
           2
 10
-430.25153506915092
 20
396.85879648197471
 40
0.5
 50
-180.0
 51
180.0
 73
           1
 97
        1
330
2AD
 75
           0
 76
           1
 98
        1
 10
0.0
 20
0.0
  0
CIRCLE
  5
2B0
100
AcDbEntity
  8
0
 62
           7
100
AcDbCircle
 10
-433.004731325997
 20
390.070571382584
 40
0.5
  0
HATCH
  5
2B1
100
AcDbEntity
  8
0
 62
           7
100
AcDbHatch
 10
0.0
 20
0.0
 30
0.0
210
0.0
220
0.0
230
1.0
  2
SOLID
 70
           1
 71
           1
 91
        1
 92
        1
 93
        1
 72
           2
 10
-433.00473132599711
 20
390.07057138258392
 40
0.5
 50
-180.0
 51
180.0
 73
           1
 97
        1
330
2B0
 75
           0
 76
           1
 98
        1
 10
0.0
 20
0.0
  0
CIRCLE
  5
2B3
100
AcDbEntity
  8
0
 62
           7
100
AcDbCircle
 10
-439.751535069151
 20
387.217375125737
 40
0.5
  0
HATCH
  5
2B4
100
AcDbEntity
  8
0
 62
           7
100
AcDbHatch
 10
0.0
 20
0.0
 30
0.0
210
0.0
220
0.0
230
1.0
  2
SOLID
 70
           1
 71
           1
 91
        1
 92
        1
 93
        1
 72
           2
 10
-439.75153506915069
 20
387.21737512573748
 40
0.5
 50
-180.0
 51
180.0
 73
           1
 97
        1
330
2B3
 75
           0
 76
           1
 98
        1
 10
0.0
 20
0.0
  0
CIRCLE
  5
2B6
100
AcDbEntity
  8
0
 62
           7
100
AcDbCircle
 10
-446.539760168541
 20
389.970571382584
 40
0.5
  0
HATCH
  5
2B7
100
AcDbEntity
  8
0
 62
           7
100
AcDbHatch
 10
0.0
 20
0.0
 30
0.0
210
0.0
220
0.0
230
1.0
  2
SOLID
 70
           1
 71
           1
 91
        1
 92
        1
 93
        1
 72
           2
 10
-446.53976016854142
 20
389.9705713825839
 40
0.5
 50
-180.0
 51
180.0
 73
           1
 97
        1
330
2B6
 75
           0
 76
           1
 98
        1
 10
0.0
 20
0.0
  0
CIRCLE
  5
2B9
100
AcDbEntity
  8
0
 62
           7
100
AcDbCircle
 10
-449.392956425388
 20
396.717375125737
 40
0.5
  0
HATCH
  5
2BA
100
AcDbEntity
  8
0
 62
           7
100
AcDbHatch
 10
0.0
 20
0.0
 30
0.0
210
0.0
220
0.0
230
1.0
  2
SOLID
 70
           1
 71
           1
 91
        1
 92
        1
 93
        1
 72
           2
 10
-449.39295642538798
 20
396.71737512573742
 40
0.5
 50
-180.0
 51
180.0
 73
           1
 97
        1
330
2B9
 75
           0
 76
           1
 98
        1
 10
0.0
 20
0.0
  0
CIRCLE
  5
2BC
100
AcDbEntity
  8
0
 62
           7
100
AcDbCircle
 10
-435.230044558889
 20
407.874640193991
 40
0.5
  0
HATCH
  5
2BD
100
AcDbEntity
  8
0
 62
           7
100
AcDbHatch
 10
0.0
 20
0.0
 30
0.0
210
0.0
220
0.0
230
1.0
  2
SOLID
 70
           1
 71
           1
 91
        1
 92
        1
 93
        1
 72
           2
 10
-435.23004455888861
 20
407.87464019399113
 40
0.5
 50
-180.0
 51
180.0
 73
           1
 97
        1
330
2BC
 75
           0
 76
           1
 98
        1
 10
0.0
 20
0.0
  0
CIRCLE
  5
2BF
100
AcDbEntity
  8
0
 62
           7
100
AcDbCircle
 10
-428.735691357134
 20
401.380286992237
 40
0.5
  0
HATCH
  5
2C0
100
AcDbEntity
  8
0
 62
           7
100
AcDbHatch
 10
0.0
 20
0.0
 30
0.0
210
0.0
220
0.0
230
1.0
  2
SOLID
 70
           1
 71
           1
 91
        1
 92
        1
 93
        1
 72
           2
 10
-428.73569135713382
 20
401.38028699223702
 40
0.5
 50
-180.0
 51
180.0
 73
           1
 97
        1
330
2BF
 75
           0
 76
           1
 98
        1
 10
0.0
 20
0.0
  0
CIRCLE
  5
2C2
100
AcDbEntity
  8
0
 62
           7
100
AcDbCircle
 10
-428.735691357134
 20
392.195884615475
 40
0.5
  0
HATCH
  5
2C3
100
AcDbEntity
  8
0
 62
           7
100
AcDbHatch
 10
0.0
 20
0.0
 30
0.0
210
0.0
220
0.0
230
1.0
  2
SOLID
 70
           1
 71
           1
 91
        1
 92
        1
 93
        1
 72
           2
 10
-428.7356913571341
 20
392.19588461547528
 40
0.5
 50
-180.0
 51
180.0
 73
           1
 97
        1
330
2C2
 75
           0
 76
           1
 98
        1
 10
0.0
 20
0.0
  0
CIRCLE
  5
2C5
100
AcDbEntity
  8
0
 62
           7
100
AcDbCircle
 10
-435.230044558888
 20
385.701531413721
 40
0.5
  0
HATCH
  5
2C6
100
AcDbEntity
  8
0
 62
           7
100
AcDbHatch
 10
0.0
 20
0.0
 30
0.0
210
0.0
220
0.0
230
1.0
  2
SOLID
 70
           1
 71
           1
 91
        1
 92
        1
 93
        1
 72
           2
 10
-435.23004455888821
 20
385.70153141372089
 40
0.5
 50
-180.0
 51
180.0
 73
           1
 97
        1
330
2C5
 75
           0
 76
           1
 98
        1
 10
0.0
 20
0.0
  0
CIRCLE
  5
2C8
100
AcDbEntity
  8
0
 62
           7
100
AcDbCircle
 10
-444.41444693565
 20
385.701531413721
 40
0.5
  0
HATCH
  5
2C9
100
AcDbEntity
  8
0
 62
           7
100
AcDbHatch
 10
0.0
 20
0.0
 30
0.0
210
0.0
220
0.0
230
1.0
  2
SOLID
 70
           1
 71
           1
 91
        1
 92
        1
 93
        1
 72
           2
 10
-444.41444693565012
 20
385.70153141372072
 40
0.5
 50
-180.0
 51
180.0
 73
           1
 97
        1
330
2C8
 75
           0
 76
           1
 98
        1
 10
0.0
 20
0.0
  0
CIRCLE
  5
2CB
100
AcDbEntity
  8
0
 62
           7
100
AcDbCircle
 10
-450.908800137405
 20
392.195884615475
 40
0.5
  0
HATCH
  5
2CC
100
AcDbEntity
  8
0
 62
           7
100
AcDbHatch
 10
0.0
 20
0.0
 30
0.0
210
0.0
220
0.0
230
1.0
  2
SOLID
 70
           1
 71
           1
 91
        1
 92
        1
 93
        1
 72
           2
 10
-450.90880013740451
 20
392.19588461547482
 40
0.5
 50
-180.0
 51
180.0
 73
           1
 97
        1
330
2CB
 75
           0
 76
           1
 98
        1
 10
0.0
 20
0.0
  0
CIRCLE
  5
2CE
100
AcDbEntity
  8
0
 62
           7
100
AcDbCircle
 10
-450.908800137405
 20
401.380286992237
 40
0.5
  0
HATCH
  5
2CF
100
AcDbEntity
  8
0
 62
           7
100
AcDbHatch
 10
0.0
 20
0.0
 30
0.0
210
0.0
220
0.0
230
1.0
  2
SOLID
 70
           1
 71
           1
 91
        1
 92
        1
 93
        1
 72
           2
 10
-450.90880013740463
 20
401.38028699223668
 40
0.5
 50
-180.0
 51
180.0
 73
           1
 97
        1
330
2CE
 75
           0
 76
           1
 98
        1
 10
0.0
 20
0.0
  0
CIRCLE
  5
2D1
100
AcDbEntity
  8
0
 62
           7
100
AcDbCircle
 10
-446.639760168542
 20
403.505600225128
 40
0.5
  0
HATCH
  5
2D2
100
AcDbEntity
  8
0
 62
           7
100
AcDbHatch
 10
0.0
 20
0.0
 30
0.0
210
0.0
220
0.0
230
1.0
  2
SOLID
 70
           1
 71
           1
 91
        1
 92
        1
 93
        1
 72
           2
 10
-446.63976016854161
 20
403.50560022512821
 40
0.5
 50
-180.0
 51
180.0
 73
           1
 97
        1
330
2D1
 75
           0
 76
           1
 98
        1
 10
0.0
 20
0.0
  0
CIRCLE
  5
2D4
100
AcDbEntity
  8
0
 62
           7
100
AcDbCircle
 10
-444.414446935651
 20
407.874640193991
 40
0.5
  0
HATCH
  5
2D5
100
AcDbEntity
  8
0
 62
           7
100
AcDbHatch
 10
0.0
 20
0.0
 30
0.0
210
0.0
220
0.0
230
1.0
  2
SOLID
 70
           1
 71
           1
 91
        1
 92
        1
 93
        1
 72
           2
 10
-444.41444693565052
 20
407.87464019399113
 40
0.5
 50
-180.0
 51
180.0
 73
           1
 97
        1
330
2D4
 75
           0
 76
           1
 98
        1
 10
0.0
 20
0.0
  0
ENDSEC
  0
SECTION
  2
OBJECTS
  0
DICTIONARY
  5
19
100
AcDbDictionary
  3
ACAD_GROUP
350
1A
  3
ACAD_MLINESTYLE
350
1B
  0
DICTIONARY
  5
1A
102
{ACAD_REACTORS
330
19
102
}
100
AcDbDictionary
  0
DICTIONARY
  5
1B
102
{ACAD_REACTORS
330
19
102
}
100
AcDbDictionary
  3
STANDARD
350
1C
  0
MLINESTYLE
  5
1C
102
{ACAD_REACTORS
330
1B
102
}
100
AcDbMlineStyle
  2
STANDARD
 70
           0
  3

 62
           0
 51
90.0
 52
90.0
 71
           2
 49
0.5
 62
         256
  6
BYLAYER
 49
-0.5
 62
         256
  6
BYLAYER
  0
ENDSEC
  0
EOF
