  0
SECTION
  2
HEADER
  9
$ACADVER
  1
AC1014
  9
$ACADMAINTVER
 70
           0
  9
$DWGCODEPAGE
  3
DOS932
  9
$INSBASE
 10
0.0
 20
0.0
 30
0.0
  9
$EXTMIN
 10
1.000000000000E+20
 20
1.000000000000E+20
 30
1.000000000000E+20
  9
$EXTMAX
 10
-1.000000000000E+20
 20
-1.000000000000E+20
 30
-1.000000000000E+20
  9
$LIMMIN
 10
0.0
 20
0.0
  9
$LIMMAX
 10
0.0
 20
0.0
  9
$ORTHOMODE
 70
           0
  9
$REGENMODE
 70
           1
  9
$FILLMODE
 70
           1
  9
$QTEXTMODE
 70
           0
  9
$MIRRTEXT
 70
           1
  9
$DRAGMODE
 70
           2
  9
$LTSCALE
 40
1.0
  9
$OSMODE
 70
           0
  9
$ATTMODE
 70
           1
  9
$TEXTSIZE
 40
0.2
  9
$TRACEWID
 40
0.05
  9
$TEXTSTYLE
  7
STANDARD
  9
$CLAYER
  8
0
  9
$CELTYPE
  6
CONTINUOUS
  9
$CECOLOR
 62
         256
  9
$CELTSCALE
 40
1.0
  9
$DELOBJ
 70
           1
  9
$DISPSILH
 70
           0
  9
$DIMSCALE
 40
1.0
  9
$DIMASZ
 40
0.18
  9
$DIMEXO
 40
0.0625
  9
$DIMDLI
 40
0.38
  9
$DIMRND
 40
0.0
  9
$DIMDLE
 40
0.0
  9
$DIMEXE
 40
0.18
  9
$DIMTP
 40
0.0
  9
$DIMTM
 40
0.0
  9
$DIMTXT
 40
0.18
  9
$DIMCEN
 40
0.09
  9
$DIMTSZ
 40
0.0
  9
$DIMTOL
 70
           0
  9
$DIMLIM
 70
           0
  9
$DIMTIH
 70
           1
  9
$DIMTOH
 70
           1
  9
$DIMSE1
 70
           0
  9
$DIMSE2
 70
           0
  9
$DIMTAD
 70
           0
  9
$DIMZIN
 70
           0
  9
$DIMBLK
  1

  9
$DIMASO
 70
           1
  9
$DIMSHO
 70
           1
  9
$DIMPOST
  1

  9
$DIMAPOST
  1

  9
$DIMALT
 70
           0
  9
$DIMALTD
 70
           2
  9
$DIMALTF
 40
25.4
  9
$DIMLFAC
 40
1.0
  9
$DIMTOFL
 70
           0
  9
$DIMTVP
 40
0.0
  9
$DIMTIX
 70
           0
  9
$DIMSOXD
 70
           0
  9
$DIMSAH
 70
           0
  9
$DIMBLK1
  1

  9
$DIMBLK2
  1

  9
$DIMSTYLE
  2
STANDARD
  9
$DIMCLRD
 70
           0
  9
$DIMCLRE
 70
           0
  9
$DIMCLRT
 70
           0
  9
$DIMTFAC
 40
1.0
  9
$DIMGAP
 40
0.09
  9
$DIMJUST
 70
           0
  9
$DIMSD1
 70
           0
  9
$DIMSD2
 70
           0
  9
$DIMTOLJ
 70
           1
  9
$DIMTZIN
 70
           0
  9
$DIMALTZ
 70
           0
  9
$DIMALTTZ
 70
           0
  9
$DIMFIT
 70
           3
  9
$DIMUPT
 70
           0
  9
$DIMUNIT
 70
           2
  9
$DIMDEC
 70
           4
  9
$DIMTDEC
 70
           4
  9
$DIMALTU
 70
           2
  9
$DIMALTTD
 70
           2
  9
$DIMTXSTY
  7
STANDARD
  9
$DIMAUNIT
 70
           0
  9
$LUNITS
 70
           2
  9
$LUPREC
 70
           4
  9
$SKETCHINC
 40
0.1
  9
$FILLETRAD
 40
0.0
  9
$AUNITS
 70
           0
  9
$AUPREC
 70
           0
  9
$MENU
  1
acad
  9
$ELEVATION
 40
0.0
  9
$PELEVATION
 40
0.0
  9
$THICKNESS
 40
0.0
  9
$LIMCHECK
 70
           0
  9
$BLIPMODE
 70
           1
  9
$CHAMFERA
 40
0.0
  9
$CHAMFERB
 40
0.0
  9
$CHAMFERC
 40
0.0
  9
$CHAMFERD
 40
0.0
  9
$SKPOLY
 70
           0
  9
$TDCREATE
 40
0.000000000
  9
$TDUPDATE
 40
0.000000000
  9
$TDINDWG
 40
0.0000000000
  9
$TDUSRTIMER
 40
0.0000000000
  9
$USRTIMER
 70
           1
  9
$ANGBASE
 50
0.0
  9
$ANGDIR
 70
           0
  9
$PDMODE
 70
           0
  9
$PDSIZE
 40
0.0
  9
$PLINEWID
 40
0.0
  9
$COORDS
 70
           0
  9
$SPLFRAME
 70
           0
  9
$SPLINETYPE
 70
           6
  9
$SPLINESEGS
 70
           8
  9
$ATTDIA
 70
           0
  9
$ATTREQ
 70
           1
  9
$HANDLING
 70
           1
  9
$HANDSEED
  5
2BC
  9
$SURFTAB1
 70
           6
  9
$SURFTAB2
 70
           6
  9
$SURFTYPE
 70
           6
  9
$SURFU
 70
           6
  9
$SURFV
 70
           6
  9
$UCSNAME
  2

  9
$UCSORG
 10
0.0
 20
0.0
 30
0.0
  9
$UCSXDIR
 10
1.0
 20
0.0
 30
0.0
  9
$UCSYDIR
 10
0.0
 20
1.0
 30
0.0
  9
$PUCSNAME
  2

  9
$PUCSORG
 10
0.0
 20
0.0
 30
0.0
  9
$PUCSXDIR
 10
1.0
 20
0.0
 30
0.0
  9
$PUCSYDIR
 10
0.0
 20
1.0
 30
0.0
  9
$USERI1
 70
           0
  9
$USERI2
 70
           0
  9
$USERI3
 70
           0
  9
$USERI4
 70
           0
  9
$USERI5
 70
           0
  9
$USERR1
 40
0.0
  9
$USERR2
 40
0.0
  9
$USERR3
 40
0.0
  9
$USERR4
 40
0.0
  9
$USERR5
 40
0.0
  9
$WORLDVIEW
 70
           1
  9
$SHADEDGE
 70
           3
  9
$SHADEDIF
 70
          70
  9
$TILEMODE
 70
           1
  9
$MAXACTVP
 70
          16
  9
$PINSBASE
 10
0.0
 20
0.0
 30
0.0
  9
$PLIMCHECK
 70
           0
  9
$PEXTMIN
 10
1.000000000000E+20
 20
1.000000000000E+20
 30
1.000000000000E+20
  9
$PEXTMAX
 10
-1.000000000000E+20
 20
-1.000000000000E+20
 30
-1.000000000000E+20
  9
$PLIMMIN
 10
0.0
 20
0.0
  9
$PLIMMAX
 10
12.0
 20
9.0
  9
$UNITMODE
 70
           0
  9
$VISRETAIN
 70
           0
  9
$PLINEGEN
 70
           1
  9
$PSLTSCALE
 70
           0
  9
$TREEDEPTH
 70
        3020
  9
$PICKSTYLE
 70
           1
  9
$CMLSTYLE
  2
STANDARD
  9
$CMLJUST
 70
           0
  9
$CMLSCALE
 40
1.0
  9
$PROXYGRAPHICS
 70
           0
  9
$MEASUREMENT
 70
           0
  0
ENDSEC
  0
SECTION
  2
CLASSES
  0
CLASS
  1
LWPOLYLINE
  2
AcDbPolyline
  3
"AutoCAD"
 90
        0
280
           0
281
           1
  0
CLASS
  1
IMAGE
  2
AcDbRasterImage
  3
ISM
 90
      127
280
           0
281
           1
  0
CLASS
  1
OLE2FRAME
  2
AcDbOle2Frame
  3
""
 90
        0
280
           0
281
           1
  0
CLASS
  1
HATCH
  2
AcDbHatch
  3
"ACAD_SEDONA"
 90
        0
280
           0
281
           1
  0
CLASS
  1
DICTIONARYVAR
  2
AcDbDictionaryVar
  3
"AutoCAD"
 90
        0
280
           0
281
           0
  0
CLASS
  1
RASTERVARIABLES
  2
AcDbRasterVariables
  3
ISM
 90
        0
280
           0
281
           0
  0
CLASS
  1
IMAGEDEF
  2
AcDbRasterImageDef
  3
ISM
 90
        0
280
           0
281
           0
  0
CLASS
  1
IMAGEDEF_REACTOR
  2
AcDbRasterImageDefReactor
  3
ISM
 90
        1
280
           0
281
           0
  0
CLASS
  1
IDBUFFER
  2
AcDbIdBuffer
  3
"Acad"
 90
        0
280
           0
281
           0
  0
CLASS
  1
SPATIAL_FILTER
  2
AcDbSpatialFilter
  3
"Acad"
 90
        0
280
           0
281
           0
  0
CLASS
  1
XRECORD
  2
AcDbXrecord
  3
"<Built In>"
 90
        0
280
           0
281
           0
  0
CLASS
  1
SORTENTSTABLE
  2
AcDbSortentsTable
  3
"AutoCAD"
 90
        0
280
           0
281
           0
  0
CLASS
  1
LAYER_INDEX
  2
AcDbLayerIndex
  3
"Acad"
 90
        0
280
           0
281
           0
  0
CLASS
  1
SPATIAL_INDEX
  2
AcDbSpatialIndex
  3
"Acad"
 90
        0
280
           0
281
           0
  0
CLASS
  1
OBJECT_PTR
  2
CAseDLPNTableRecord
  3
"ASE-LPNTableRecord"
 90
        1
280
           0
281
           0
  0
CLASS
  1
LAYOUT
  2
AcDbLayout
  3
"AutoCAD 2000"
 90
        1
280
           0
281
           0
  0
CLASS
  1
PLOTSETTINGS
  2
AcDbPlotSettings
  3
"AutoCAD 2000"
 90
        1
280
           0
281
           0
  0
CLASS
  1
ACDBDICTIONARYWDFLT
  2
AcDbDictionaryWithDefault
  3
"AutoCAD 2000"
 90
        1
280
           0
281
           0
  0
CLASS
  1
ACDBPLACEHOLDER
  2
AcDbPlaceHolder
  3
"AutoCAD 2000"
 90
        1
280
           0
281
           0
  0
CLASS
  1
VBA_PROJECT
  2
AcDbVbaProject
  3
"acadvba"
 90
        1
280
           0
281
           0
  0
CLASS
  1
WIPEOUT
  2
AcDbWipeout
  3
WipeOut|AutoCAD Express Tool|expresstools@autodesk.com
 90
      127
280
           0
281
           1
  0
CLASS
  1
WIPEOUTVARIABLES
  2
AcDbWipeoutVariables
  3
WipeOut|AutoCAD Express Tool|expresstools@autodesk.com
 90
        0
280
           0
281
           0
  0
CLASS
  1
RTEXT
  2
RText
  3
RText|AutoCAD Express Tool|expresstools@autodesk.com
 90
        0
280
           0
281
           1
  0
CLASS
  1
ARCALIGNEDTEXT
  2
AcDbArcAlignedText
  3
ATEXT|AutoCAD Express Tool|expresstools@autodesk.com
 90
        0
280
           0
281
           1
  0
ENDSEC
  0
SECTION
  2
TABLES
  0
TABLE
  2
VPORT
  5
7
100
AcDbSymbolTable
 70
           1
  0
VPORT
  5
15
100
AcDbSymbolTableRecord
100
AcDbViewportTableRecord
  2
*ACTIVE
 70
           0
 10
0.0
 20
0.0
 11
1.0
 21
1.0
 12
6.591288
 22
4.579184
 13
0.0
 23
0.0
 14
1.0
 24
1.0
 15
0.0
 25
0.0
 16
0.0
 26
0.0
 36
1.0
 17
0.0
 27
0.0
 37
0.0
 40
9.158369
 41
0.688564
 42
50.0
 43
0.0
 44
0.0
 50
0.0
 51
0.0
 71
           0
 72
         100
 73
           1
 74
           1
 75
           0
 76
           0
 77
           0
 78
           0
  0
ENDTAB
  0
TABLE
  2
LTYPE
  5
4
100
AcDbSymbolTable
 70
          10
  0
LTYPE
  5
11
100
AcDbSymbolTableRecord
100
AcDbLinetypeTableRecord
  2
BYBLOCK
 70
          64
  3

 72
          65
 73
           0
 40
0.0
  0
LTYPE
  5
12
100
AcDbSymbolTableRecord
100
AcDbLinetypeTableRecord
  2
BYLAYER
 70
          64
  3

 72
          65
 73
           0
 40
0.0
  0
LTYPE
  5
13
100
AcDbSymbolTableRecord
100
AcDbLinetypeTableRecord
  2
CONTINUOUS
 70
          64
  3
Solid line
 72
          65
 73
           0
 40
0.0
  0
LTYPE
  5
1D
100
AcDbSymbolTableRecord
100
AcDbLinetypeTableRecord
  2
DASHED
 70
          64
  3
Dashed
 72
          65
 73
           2
 40
15.0
 49
12.0
 74
           0
 49
-3.0
 74
           0
  0
LTYPE
  5
1E
100
AcDbSymbolTableRecord
100
AcDbLinetypeTableRecord
  2
DOTTED
 70
          64
  3
Dotted
 72
          65
 73
           2
 40
3.5
 49
0.5
 74
           0
 49
-3.0
 74
           0
  0
LTYPE
  5
1F
100
AcDbSymbolTableRecord
100
AcDbLinetypeTableRecord
  2
DOT_CENTER
 70
          64
  3
Dot_Center
 72
          65
 73
           4
 40
2.0
 49
1.25
 74
           0
 49
-0.25
 74
           0
 49
0.25
 74
           0
 49
-0.25
 74
           0
  0
LTYPE
  5
20
100
AcDbSymbolTableRecord
100
AcDbLinetypeTableRecord
  2
LONG_DASHED
 70
          64
  3
Long_Dashed
 72
          65
 73
           2
 40
2.0
 49
1.5
 74
           0
 49
-0.5
 74
           0
  0
LTYPE
  5
21
100
AcDbSymbolTableRecord
100
AcDbLinetypeTableRecord
  2
DASH_CENTER
 70
          64
  3
Dash_Center
 72
          65
 73
           4
 40
36.0
 49
24.0
 74
           0
 49
-3.0
 74
           0
 49
6.0
 74
           0
 49
-3.0
 74
           0
  0
LTYPE
  5
22
100
AcDbSymbolTableRecord
100
AcDbLinetypeTableRecord
  2
PHANTOM
 70
          64
  3
Phantom
 72
          65
 73
           6
 40
2.5
 49
1.25
 74
           0
 49
-0.25
 74
           0
 49
0.25
 74
           0
 49
-0.25
 74
           0
 49
0.25
 74
           0
 49
-0.25
 74
           0
  0
LTYPE
  5
23
100
AcDbSymbolTableRecord
100
AcDbLinetypeTableRecord
  2
CENTER_DASH_DASH
 70
          64
  3
Center_Dash_Dash
 72
          65
 73
           6
 40
22.0
 49
12.0
 74
           0
 49
-3.0
 74
           0
 49
0.5
 74
           0
 49
-3.0
 74
           0
 49
0.5
 74
           0
 49
-3.0
 74
           0
  0
ENDTAB
  0
TABLE
  2
LAYER
  5
2
100
AcDbSymbolTable
 70
           3
  0
LAYER
  5
14
100
AcDbSymbolTableRecord
100
AcDbLayerTableRecord
  2
0
 70
           0
 62
           7
  6
CONTINUOUS
  0
LAYER
  5
24
100
AcDbSymbolTableRecord
100
AcDbLayerTableRecord
  2
1
 70
           0
 62
           7
  6
CONTINUOUS
  0
LAYER
  5
25
100
AcDbSymbolTableRecord
100
AcDbLayerTableRecord
  2
2
 70
           0
 62
           7
  6
CONTINUOUS
  0
ENDTAB
  0
TABLE
  2
STYLE
  5
3
100
AcDbSymbolTable
 70
           4
  0
STYLE
  5
17
100
AcDbSymbolTableRecord
100
AcDbTextStyleTableRecord
  2
STANDARD
 70
           0
 40
0.0
 41
1.0
 50
0.0
 71
           0
 42
0.0
  3
txt
  4

  0
STYLE
  5
2AD
100
AcDbSymbolTableRecord
100
AcDbTextStyleTableRecord
  2
CONVERTER_1
 70
           0
 40
0.0
 41
0.81
 50
0.0
 71
           0
 42
0.0
  3
txt.shx
  4

  0
STYLE
  5
2B7
100
AcDbSymbolTableRecord
100
AcDbTextStyleTableRecord
  2
CONVERTER_2
 70
           0
 40
0.0
 41
0.765
 50
0.0
 71
           0
 42
0.0
  3
txt.shx
  4

  0
STYLE
  5
2B9
100
AcDbSymbolTableRecord
100
AcDbTextStyleTableRecord
  2
CONVERTER_3
 70
           0
 40
0.0
 41
0.9
 50
0.0
 71
           0
 42
0.0
  3
txt.shx
  4

  0
ENDTAB
  0
TABLE
  2
VIEW
  5
5
100
AcDbSymbolTable
 70
           0
  0
ENDTAB
  0
TABLE
  2
UCS
  5
6
100
AcDbSymbolTable
 70
           0
  0
ENDTAB
  0
TABLE
  2
APPID
  5
8
100
AcDbSymbolTable
 70
           1
  0
APPID
  5
16
100
AcDbSymbolTableRecord
100
AcDbRegAppTableRecord
  2
ACAD
 70
           0
  0
ENDTAB
  0
TABLE
  2
DIMSTYLE
  5
9
100
AcDbSymbolTable
 70
           1
  0
DIMSTYLE
105
18
100
AcDbSymbolTableRecord
100
AcDbDimStyleTableRecord
  2
STANDARD
 70
           0
  3

  4

  5

  6

  7

 40
1.0
 41
0.18
 42
0.0625
 43
0.38
 44
0.18
 45
0.0
 46
0.0
 47
0.0
 48
0.0
 71
           0
 72
           0
 73
           1
 74
           1
 75
           0
 76
           0
 77
           0
 78
           0
140
0.18
141
0.09
142
0.0
143
25.4
144
1.0
145
0.0
146
1.0
147
0.09
170
           0
171
           2
172
           0
173
           0
174
           0
175
           0
176
           0
177
           0
178
           0
270
           2
271
           4
272
           4
273
           2
274
           2
275
           0
280
           0
281
           0
282
           0
283
           1
284
           0
285
           0
286
           0
287
           0
288
           0
340
17
  0
ENDTAB
  0
TABLE
  2
BLOCK_RECORD
  5
1
100
AcDbSymbolTable
 70
           2
  0
BLOCK_RECORD
  5
A
100
AcDbSymbolTableRecord
100
AcDbBlockTableRecord
  2
*MODEL_SPACE
  0
BLOCK_RECORD
  5
B
100
AcDbSymbolTableRecord
100
AcDbBlockTableRecord
  2
*PAPER_SPACE
  0
BLOCK_RECORD
  5
26
100
AcDbSymbolTableRecord
100
AcDbBlockTableRecord
  2
RETAINER
  0
BLOCK_RECORD
  5
28
100
AcDbSymbolTableRecord
100
AcDbBlockTableRecord
  2
WBG_025_F
  0
ENDTAB
  0
ENDSEC
  0
SECTION
  2
BLOCKS
  0
BLOCK
  5
D
100
AcDbEntity
  8
0
100
AcDbBlockBegin
  2
*MODEL_SPACE
 70
           0
 10
0.0
 20
0.0
 30
0.0
  3
*MODEL_SPACE
  1

  0
ENDBLK
  5
E
100
AcDbEntity
  8
0
100
AcDbBlockEnd
  0
BLOCK
  5
F
100
AcDbEntity
 67
           1
  8
0
100
AcDbBlockBegin
  2
*PAPER_SPACE
 70
           0
 10
0.0
 20
0.0
 30
0.0
  3
*PAPER_SPACE
  1

  0
ENDBLK
  5
10
100
AcDbEntity
 67
           1
  8
0
100
AcDbBlockEnd
  0
BLOCK
  5
27
100
AcDbEntity
  8
0
100
AcDbBlockBegin
  2
RETAINER
 70
           0
 10
0.0
 20
0.0
 30
0.0
  3
RETAINER
  1

  0
ENDBLK
  5
2E
100
AcDbEntity
  8
0
100
AcDbBlockEnd
  0
BLOCK
  5
29
100
AcDbEntity
  8
0
100
AcDbBlockBegin
  2
WBG_025_F
 70
           0
 10
0.0
 20
0.0
 30
0.0
  3
WBG_025_F
  1

  0
INSERT
  5
2A
100
AcDbEntity
  8
0
100
AcDbBlockReference
  2
RETAINER
 10
0.0
 20
0.0
  0
ENDBLK
  5
2F
100
AcDbEntity
  8
0
100
AcDbBlockEnd
  0
ENDSEC
  0
SECTION
  2
ENTITIES
  0
MTEXT
  5
2BA
100
AcDbEntity
  8
1
 62
           3
100
AcDbMText
 10
-246.241465019977
 20
310.649734362849
 30
0.0
 40
4.5
 41
0.0
 71
           6
 72
           1
  1
C007645
  7
CONVERTER_3
  0
MTEXT
  5
2B8
100
AcDbEntity
  8
1
 62
           3
100
AcDbMText
 10
-245.866465019977
 20
321.337234362849
 30
0.0
 40
3.5
 41
0.0
 71
           5
 72
           1
  1
CSG-25-50-2UH-LW-SP-A
  7
CONVERTER_2
  0
TEXT
  5
2B6
100
AcDbEntity
  8
1
 62
           7
100
AcDbText
 10
-474.813214124662
 20
311.577818596133
 40
5.0
  1
The reference drawing
 41
0.81
  7
CONVERTER_1
100
AcDbText
  0
TEXT
  5
2B5
100
AcDbEntity
  8
1
 62
           3
100
AcDbText
 10
-476.324414931926
 20
303.558542922429
 40
3.5
  1
All speciffcations and dimensions mentioned in the drawing are
 41
0.81
  7
CONVERTER_1
100
AcDbText
  0
TEXT
  5
2B4
100
AcDbEntity
  8
1
 62
           3
100
AcDbText
 10
-476.324414931926
 20
296.598542922429
 40
3.5
  1
subject to change without notification.
 41
0.81
  7
CONVERTER_1
100
AcDbText
  0
TEXT
  5
2B3
100
AcDbEntity
  8
1
 62
           3
100
AcDbText
 10
-476.324414931926
 20
289.638542922429
 40
3.5
  1
This drawing itself is also a property of Harmonic Drive Systems,Ins.
 41
0.81
  7
CONVERTER_1
100
AcDbText
  0
TEXT
  5
2B2
100
AcDbEntity
  8
1
 62
           3
100
AcDbText
 10
-476.324414931926
 20
278.718542922429
 40
3.5
  1
Harmonic Drive Systems,Inc.
 41
0.81
  7
CONVERTER_1
100
AcDbText
  0
TEXT
  5
2B1
100
AcDbEntity
  8
1
 62
           3
100
AcDbText
 10
-476.324414931926
 20
271.758542922429
 40
3.5
  1
Ichigo Omori Bldg.,4F 6-25-3 Minami-Oi, Shinagawa-ku, Tokyo 140-0013
 41
0.81
  7
CONVERTER_1
100
AcDbText
  0
TEXT
  5
2B0
100
AcDbEntity
  8
1
 62
           3
100
AcDbText
 10
-476.324414931926
 20
264.798542922429
 40
3.5
  1
JAPAN
 41
0.81
  7
CONVERTER_1
100
AcDbText
  0
TEXT
  5
2AF
100
AcDbEntity
  8
1
 62
           3
100
AcDbText
 10
-476.324414931926
 20
257.838542922429
 40
3.5
  1
Tel.03-5471-7800 Fax.03-5471-7811
 41
0.81
  7
CONVERTER_1
100
AcDbText
  0
TEXT
  5
2AE
100
AcDbEntity
  8
1
 62
           3
100
AcDbText
 10
-476.324414931926
 20
250.878542922429
 40
3.5
  1
http://www.hds.co.jp
 41
0.81
  7
CONVERTER_1
100
AcDbText
  0
LEADER
  5
2AC
100
AcDbEntity
  8
1
  6
CONTINUOUS
 62
           7
100
AcDbLeader
  3
Standard
 71
           0
 73
           3
 74
           0
 75
           0
 40
0.0
 76
           2
 10
-453.001898803889
 20
395.116422408242
 30
0.0
 10
-452.93118812577
 20
395.187133086361
 30
0.0
 77
           7
  0
LEADER
  5
2A9
100
AcDbEntity
  8
1
  6
CONTINUOUS
 62
           7
100
AcDbLeader
  3
Standard
 71
           0
 73
           3
 74
           0
 75
           0
 40
0.0
 76
           2
 10
-428.981031236065
 20
405.066191534803
 30
0.0
 10
-428.910320557946
 20
405.136902212922
 30
0.0
 77
           7
  0
LEADER
  5
2A6
100
AcDbEntity
  8
1
  6
CONTINUOUS
 62
           7
100
AcDbLeader
  3
Standard
 71
           0
 73
           3
 74
           0
 75
           0
 40
0.0
 76
           2
 10
-440.991465019977
 20
415.091306971523
 30
0.0
 10
-440.891465019977
 20
415.091306971523
 30
0.0
 77
           7
  0
LEADER
  5
2A3
100
AcDbEntity
  8
1
  6
CONTINUOUS
 62
           7
100
AcDbLeader
  3
Standard
 71
           0
 73
           3
 74
           0
 75
           0
 40
0.0
 76
           2
 10
-430.384863302179
 20
410.697908689321
 30
0.0
 10
-430.284863302179
 20
410.697908689321
 30
0.0
 77
           7
  0
LEADER
  5
2A0
100
AcDbEntity
  8
1
  6
CONTINUOUS
 62
           7
100
AcDbLeader
  3
Standard
 71
           0
 73
           3
 74
           0
 75
           0
 40
0.0
 76
           2
 10
-425.991465019977
 20
400.091306971523
 30
0.0
 10
-425.891465019977
 20
400.091306971523
 30
0.0
 77
           7
  0
LEADER
  5
29D
100
AcDbEntity
  8
1
  6
CONTINUOUS
 62
           7
100
AcDbLeader
  3
Standard
 71
           0
 73
           3
 74
           0
 75
           0
 40
0.0
 76
           2
 10
-430.384863302179
 20
389.484705253724
 30
0.0
 10
-430.284863302179
 20
389.484705253724
 30
0.0
 77
           7
  0
LEADER
  5
29A
100
AcDbEntity
  8
1
  6
CONTINUOUS
 62
           7
100
AcDbLeader
  3
Standard
 71
           0
 73
           3
 74
           0
 75
           0
 40
0.0
 76
           2
 10
-440.991465019977
 20
385.091306971523
 30
0.0
 10
-440.891465019977
 20
385.091306971523
 30
0.0
 77
           7
  0
LEADER
  5
297
100
AcDbEntity
  8
1
  6
CONTINUOUS
 62
           7
100
AcDbLeader
  3
Standard
 71
           0
 73
           3
 74
           0
 75
           0
 40
0.0
 76
           2
 10
-451.598066737775
 20
389.484705253725
 30
0.0
 10
-451.498066737775
 20
389.484705253725
 30
0.0
 77
           7
  0
LEADER
  5
294
100
AcDbEntity
  8
1
  6
CONTINUOUS
 62
           7
100
AcDbLeader
  3
Standard
 71
           0
 73
           3
 74
           0
 75
           0
 40
0.0
 76
           2
 10
-455.991465019977
 20
400.091306971523
 30
0.0
 10
-455.891465019977
 20
400.091306971523
 30
0.0
 77
           7
  0
LEADER
  5
291
100
AcDbEntity
  8
1
  6
CONTINUOUS
 62
           7
100
AcDbLeader
  3
Standard
 71
           0
 73
           3
 74
           0
 75
           0
 40
0.0
 76
           2
 10
-451.598066737775
 20
410.697908689321
 30
0.0
 10
-451.498066737775
 20
410.697908689321
 30
0.0
 77
           7
  0
LEADER
  5
28E
100
AcDbEntity
  8
1
  6
CONTINUOUS
 62
           7
100
AcDbLeader
  3
Standard
 71
           0
 73
           3
 74
           0
 75
           0
 40
0.0
 76
           2
 10
-453.001898803889
 20
405.066191534803
 30
0.0
 10
-452.901898803889
 20
405.066191534803
 30
0.0
 77
           7
  0
LEADER
  5
28B
100
AcDbEntity
  8
1
  6
CONTINUOUS
 62
           7
100
AcDbLeader
  3
Standard
 71
           0
 73
           3
 74
           0
 75
           0
 40
0.0
 76
           2
 10
-445.966349583258
 20
412.101740755435
 30
0.0
 10
-445.866349583257
 20
412.101740755435
 30
0.0
 77
           7
  0
LEADER
  5
288
100
AcDbEntity
  8
1
  6
CONTINUOUS
 62
           7
100
AcDbLeader
  3
Standard
 71
           0
 73
           3
 74
           0
 75
           0
 40
0.0
 76
           2
 10
-436.016580456697
 20
412.101740755435
 30
0.0
 10
-435.916580456697
 20
412.101740755435
 30
0.0
 77
           7
  0
LEADER
  5
285
100
AcDbEntity
  8
1
  6
CONTINUOUS
 62
           7
100
AcDbLeader
  3
Standard
 71
           0
 73
           3
 74
           0
 75
           0
 40
0.0
 76
           2
 10
-445.966349583257
 20
388.080873187611
 30
0.0
 10
-445.866349583257
 20
388.080873187611
 30
0.0
 77
           7
  0
LEADER
  5
282
100
AcDbEntity
  8
1
  6
CONTINUOUS
 62
           7
100
AcDbLeader
  3
Standard
 71
           0
 73
           3
 74
           0
 75
           0
 40
0.0
 76
           2
 10
-436.016580456696
 20
388.080873187611
 30
0.0
 10
-435.916580456697
 20
388.080873187611
 30
0.0
 77
           7
  0
LEADER
  5
27F
100
AcDbEntity
  8
1
  6
CONTINUOUS
 62
           7
100
AcDbLeader
  3
Standard
 71
           0
 73
           3
 74
           0
 75
           0
 40
0.0
 76
           2
 10
-428.981031236065
 20
395.116422408242
 30
0.0
 10
-428.881031236065
 20
395.116422408242
 30
0.0
 77
           7
  0
ARC
  5
27C
100
AcDbEntity
  8
1
  6
CONTINUOUS
 62
           7
100
AcDbCircle
 10
-371.191465019962
 20
441.891306971523
 40
0.707106781186
100
AcDbArc
 50
81.869897645836
 51
171.86989764585
  0
ARC
  5
27B
100
AcDbEntity
  8
1
  6
CONTINUOUS
 62
           7
100
AcDbCircle
 10
-375.491465019962
 20
434.791306971522
 40
0.8
100
AcDbArc
 50
89.999999999992
 51
179.999999999991
  0
ARC
  5
27A
100
AcDbEntity
  8
1
  6
CONTINUOUS
 62
           7
100
AcDbCircle
 10
-375.491465019962
 20
365.391306971523
 40
0.8
100
AcDbArc
 50
-179.999999999996
 51
-89.999999999992
  0
ARC
  5
279
100
AcDbEntity
  8
1
  6
CONTINUOUS
 62
           7
100
AcDbCircle
 10
-371.191465019962
 20
358.291306971523
 40
0.707106781186
100
AcDbArc
 50
-171.86989764585
 51
-81.869897645837
  0
ARC
  5
278
100
AcDbEntity
  8
1
  6
CONTINUOUS
 62
           7
100
AcDbCircle
 10
-315.191469534024
 20
349.391320099839
 40
0.2
100
AcDbArc
 50
0.0
 51
90.0
  0
ARC
  5
277
100
AcDbEntity
  8
1
  6
CONTINUOUS
 62
           7
100
AcDbCircle
 10
-355.241465019962
 20
411.841306971523
 40
0.25
100
AcDbArc
 50
0.0
 51
90.0
  0
ARC
  5
276
100
AcDbEntity
  8
1
  6
CONTINUOUS
 62
           7
100
AcDbCircle
 10
-355.241465019962
 20
418.341306971523
 40
0.25
100
AcDbArc
 50
-90.0
 51
0.0
  0
CIRCLE
  5
275
100
AcDbEntity
  8
1
  6
CONTINUOUS
 62
           7
100
AcDbCircle
 10
-238.991465019979
 20
400.091306777257
 40
4.999999805734
  0
CIRCLE
  5
274
100
AcDbEntity
  8
1
  6
CONTINUOUS
 62
           3
100
AcDbCircle
 10
-271.655539452745
 20
386.561404273602
 40
2.0
  0
CIRCLE
  5
273
100
AcDbEntity
  8
1
  6
CONTINUOUS
 62
           7
100
AcDbCircle
 10
-271.655539452745
 20
386.561404273602
 40
1.6
  0
CIRCLE
  5
272
100
AcDbEntity
  8
1
  6
CONTINUOUS
 62
           3
100
AcDbCircle
 10
-225.46156282718
 20
367.427232655348
 40
2.0
  0
CIRCLE
  5
271
100
AcDbEntity
  8
1
  6
CONTINUOUS
 62
           7
100
AcDbCircle
 10
-225.46156282718
 20
367.427232655348
 40
1.6
  0
CIRCLE
  5
270
100
AcDbEntity
  8
1
  6
CONTINUOUS
 62
           3
100
AcDbCircle
 10
-206.327391208927
 20
413.621209280912
 40
2.0
  0
CIRCLE
  5
26F
100
AcDbEntity
  8
1
  6
CONTINUOUS
 62
           7
100
AcDbCircle
 10
-206.327391208927
 20
413.621209280912
 40
1.6
  0
CIRCLE
  5
26E
100
AcDbEntity
  8
1
  6
CONTINUOUS
 62
           3
100
AcDbCircle
 10
-252.521367834491
 20
432.755380899166
 40
2.0
  0
CIRCLE
  5
26D
100
AcDbEntity
  8
1
  6
CONTINUOUS
 62
           7
100
AcDbCircle
 10
-252.521367834491
 20
432.755380899166
 40
1.6
  0
CIRCLE
  5
26C
100
AcDbEntity
  8
1
  6
DASH_CENTER
 62
           3
100
AcDbCircle
 10
-238.991465330836
 20
400.091306777257
 40
35.355339059327
  0
CIRCLE
  5
26B
100
AcDbEntity
  8
1
  6
CONTINUOUS
 62
           7
100
AcDbCircle
 10
-238.991465330836
 20
400.091306777257
 40
18.000012752712
  0
CIRCLE
  5
26A
100
AcDbEntity
  8
1
  6
CONTINUOUS
 62
           7
100
AcDbCircle
 10
-238.991465330836
 20
400.091306777257
 40
7.000013527562
  0
CIRCLE
  5
269
100
AcDbEntity
  8
1
  6
CONTINUOUS
 62
           7
100
AcDbCircle
 10
-238.991465799705
 20
400.091306971523
 40
22.500013721828
  0
CIRCLE
  5
268
100
AcDbEntity
  8
1
  6
CONTINUOUS
 62
           7
100
AcDbCircle
 10
-238.991465799705
 20
400.091306971523
 40
19.800013721828
  0
CIRCLE
  5
267
100
AcDbEntity
  8
1
  6
CONTINUOUS
 62
           7
100
AcDbCircle
 10
-238.99146455111
 20
352.091306777257
 40
2.75
  0
CIRCLE
  5
266
100
AcDbEntity
  8
1
  6
CONTINUOUS
 62
           7
100
AcDbCircle
 10
-210.777772530617
 20
361.258491322854
 40
2.75
  0
CIRCLE
  5
265
100
AcDbEntity
  8
1
  6
CONTINUOUS
 62
           7
100
AcDbCircle
 10
-284.642177657258
 20
385.258490601339
 40
2.75
  0
CIRCLE
  5
264
100
AcDbEntity
  8
1
  6
CONTINUOUS
 62
           7
100
AcDbCircle
 10
-267.205156750695
 20
361.258490771666
 40
2.75
  0
CIRCLE
  5
263
100
AcDbEntity
  8
1
  6
CONTINUOUS
 62
           7
100
AcDbCircle
 10
-267.20515750934
 20
438.92412223166
 40
2.75
  0
CIRCLE
  5
262
100
AcDbEntity
  8
1
  6
CONTINUOUS
 62
           7
100
AcDbCircle
 10
-284.642177947034
 20
414.924122061334
 40
2.75
  0
CIRCLE
  5
261
100
AcDbEntity
  8
1
  6
CONTINUOUS
 62
           7
100
AcDbCircle
 10
-210.777773289263
 20
438.924122782849
 40
2.75
  0
CIRCLE
  5
260
100
AcDbEntity
  8
1
  6
CONTINUOUS
 62
           7
100
AcDbCircle
 10
-238.991465488847
 20
448.091306777257
 40
2.75
  0
CIRCLE
  5
25F
100
AcDbEntity
  8
1
  6
CONTINUOUS
 62
           7
100
AcDbCircle
 10
-193.340752092923
 20
385.25849149318
 40
2.75
  0
CIRCLE
  5
25E
100
AcDbEntity
  8
1
  6
CONTINUOUS
 62
           7
100
AcDbCircle
 10
-193.3407523827
 20
414.924122953175
 40
2.75
  0
CIRCLE
  5
25D
100
AcDbEntity
  8
1
  6
CONTINUOUS
 62
           7
100
AcDbCircle
 10
-238.991465019979
 20
400.091306777257
 40
53.5
  0
CIRCLE
  5
25C
100
AcDbEntity
  8
1
  6
DASH_CENTER
 62
           3
100
AcDbCircle
 10
-238.991465799705
 20
400.091306971523
 40
48.0
  0
CIRCLE
  5
25B
100
AcDbEntity
  8
1
  6
CONTINUOUS
 62
           7
100
AcDbCircle
 10
-440.991465019977
 20
400.091306971523
 40
27.65
  0
CIRCLE
  5
25A
100
AcDbEntity
  8
1
  6
CONTINUOUS
 62
           7
100
AcDbCircle
 10
-440.991465019977
 20
400.091306971523
 40
35.654178710096
  0
CIRCLE
  5
259
100
AcDbEntity
  8
1
  6
CONTINUOUS
 62
           7
100
AcDbCircle
 10
-440.991465019977
 20
400.091306971523
 40
29.0
  0
CIRCLE
  5
258
100
AcDbEntity
  8
1
  6
DASH_CENTER
 62
           3
100
AcDbCircle
 10
-440.991465019977
 20
400.091306971523
 40
38.74999936157
  0
CIRCLE
  5
257
100
AcDbEntity
  8
1
  6
CONTINUOUS
 62
           7
100
AcDbCircle
 10
-440.991465019977
 20
400.091306971523
 40
42.999999361668
  0
CIRCLE
  5
256
100
AcDbEntity
  8
1
  6
DASH_CENTER
 62
           3
100
AcDbCircle
 10
-440.991465019977
 20
400.091306971523
 40
15.0
  0
CIRCLE
  5
255
100
AcDbEntity
  8
1
  6
CONTINUOUS
 62
           7
100
AcDbCircle
 10
-440.991465019977
 20
400.091306971523
 40
26.3
  0
CIRCLE
  5
254
100
AcDbEntity
  8
1
  6
CONTINUOUS
 62
           7
100
AcDbCircle
 10
-440.991465019977
 20
400.091306971523
 40
9.999999849835
  0
CIRCLE
  5
253
100
AcDbEntity
  8
1
  6
DASH_CENTER
 62
           3
100
AcDbCircle
 10
-440.991465019977
 20
400.091306971523
 40
21.0
  0
CIRCLE
  5
252
100
AcDbEntity
  8
1
  6
CONTINUOUS
 62
           3
100
AcDbCircle
 10
-421.58999483724
 20
408.12765905119
 40
4.0
  0
CIRCLE
  5
251
100
AcDbEntity
  8
1
  6
CONTINUOUS
 62
           7
100
AcDbCircle
 10
-421.58999483724
 20
408.12765905119
 40
3.2
  0
CIRCLE
  5
250
100
AcDbEntity
  8
1
  6
CONTINUOUS
 62
           3
100
AcDbCircle
 10
-432.95511294031
 20
419.49277715426
 40
4.0
  0
CIRCLE
  5
24F
100
AcDbEntity
  8
1
  6
CONTINUOUS
 62
           7
100
AcDbCircle
 10
-432.95511294031
 20
419.49277715426
 40
3.2
  0
CIRCLE
  5
24E
100
AcDbEntity
  8
1
  6
CONTINUOUS
 62
           3
100
AcDbCircle
 10
-449.027817099644
 20
419.49277715426
 40
4.0
  0
CIRCLE
  5
24D
100
AcDbEntity
  8
1
  6
CONTINUOUS
 62
           7
100
AcDbCircle
 10
-449.027817099644
 20
419.49277715426
 40
3.2
  0
CIRCLE
  5
24C
100
AcDbEntity
  8
1
  6
CONTINUOUS
 62
           3
100
AcDbCircle
 10
-460.392935202714
 20
408.12765905119
 40
4.0
  0
CIRCLE
  5
24B
100
AcDbEntity
  8
1
  6
CONTINUOUS
 62
           7
100
AcDbCircle
 10
-460.392935202714
 20
408.12765905119
 40
3.2
  0
CIRCLE
  5
24A
100
AcDbEntity
  8
1
  6
CONTINUOUS
 62
           3
100
AcDbCircle
 10
-460.392935202714
 20
392.054954891856
 40
4.0
  0
CIRCLE
  5
249
100
AcDbEntity
  8
1
  6
CONTINUOUS
 62
           7
100
AcDbCircle
 10
-460.392935202714
 20
392.054954891856
 40
3.2
  0
CIRCLE
  5
248
100
AcDbEntity
  8
1
  6
CONTINUOUS
 62
           3
100
AcDbCircle
 10
-449.027817099644
 20
380.689836788786
 40
4.0
  0
CIRCLE
  5
247
100
AcDbEntity
  8
1
  6
CONTINUOUS
 62
           7
100
AcDbCircle
 10
-449.027817099644
 20
380.689836788786
 40
3.2
  0
CIRCLE
  5
246
100
AcDbEntity
  8
1
  6
CONTINUOUS
 62
           3
100
AcDbCircle
 10
-432.95511294031
 20
380.689836788786
 40
4.0
  0
CIRCLE
  5
245
100
AcDbEntity
  8
1
  6
CONTINUOUS
 62
           7
100
AcDbCircle
 10
-432.95511294031
 20
380.689836788786
 40
3.2
  0
CIRCLE
  5
244
100
AcDbEntity
  8
1
  6
CONTINUOUS
 62
           3
100
AcDbCircle
 10
-421.58999483724
 20
392.054954891856
 40
4.0
  0
CIRCLE
  5
243
100
AcDbEntity
  8
1
  6
CONTINUOUS
 62
           7
100
AcDbCircle
 10
-421.58999483724
 20
392.054954891856
 40
3.2
  0
CIRCLE
  5
242
100
AcDbEntity
  8
1
  6
CONTINUOUS
 62
           7
100
AcDbCircle
 10
-440.991465019977
 20
400.091306971523
 40
7.499999849835
  0
CIRCLE
  5
241
100
AcDbEntity
  8
1
  6
CONTINUOUS
 62
           7
100
AcDbCircle
 10
-440.991465019977
 20
400.091306971523
 40
42.499999361849
  0
CIRCLE
  5
240
100
AcDbEntity
  8
1
  6
DASH_CENTER
 62
           3
100
AcDbCircle
 10
-440.991465019977
 20
400.091306971523
 40
12.999999849835
  0
CIRCLE
  5
23F
100
AcDbEntity
  8
1
  6
CONTINUOUS
 62
           7
100
AcDbCircle
 10
-190.991465019979
 20
400.091306777257
 40
4.25
  0
CIRCLE
  5
23E
100
AcDbEntity
  8
1
  6
CONTINUOUS
 62
           7
100
AcDbCircle
 10
-190.991465019979
 20
400.091306777257
 40
3.730384757729
  0
CIRCLE
  5
23D
100
AcDbEntity
  8
1
  6
CONTINUOUS
 62
           7
100
AcDbCircle
 10
-224.158649289981
 20
445.742019559424
 40
3.730384757729
  0
CIRCLE
  5
23C
100
AcDbEntity
  8
1
  6
CONTINUOUS
 62
           7
100
AcDbCircle
 10
-224.158649289981
 20
445.742019559424
 40
4.25
  0
CIRCLE
  5
23B
100
AcDbEntity
  8
1
  6
CONTINUOUS
 62
           7
100
AcDbCircle
 10
-277.824280749976
 20
428.304998887296
 40
4.25
  0
CIRCLE
  5
23A
100
AcDbEntity
  8
1
  6
CONTINUOUS
 62
           7
100
AcDbCircle
 10
-277.824280749976
 20
428.304998887296
 40
3.730384757729
  0
CIRCLE
  5
239
100
AcDbEntity
  8
1
  6
CONTINUOUS
 62
           7
100
AcDbCircle
 10
-277.824280749976
 20
371.877614667218
 40
3.730384757729
  0
CIRCLE
  5
238
100
AcDbEntity
  8
1
  6
CONTINUOUS
 62
           7
100
AcDbCircle
 10
-277.824280749976
 20
371.877614667218
 40
4.25
  0
CIRCLE
  5
237
100
AcDbEntity
  8
1
  6
CONTINUOUS
 62
           7
100
AcDbCircle
 10
-224.158649289981
 20
354.44059399509
 40
4.25
  0
CIRCLE
  5
236
100
AcDbEntity
  8
1
  6
CONTINUOUS
 62
           7
100
AcDbCircle
 10
-224.158649289981
 20
354.44059399509
 40
3.730384757729
  0
CIRCLE
  5
235
100
AcDbEntity
  8
1
  6
CONTINUOUS
 62
           3
100
AcDbCircle
 10
-323.491465019961
 20
400.091306971523
 40
2.0
  0
CIRCLE
  5
234
100
AcDbEntity
  8
1
  6
CONTINUOUS
 62
           7
100
AcDbCircle
 10
-323.491465019961
 20
400.091306971523
 40
1.6
  0
CIRCLE
  5
233
100
AcDbEntity
  8
1
  6
CONTINUOUS
 62
           7
100
AcDbCircle
 10
-402.241465658407
 20
400.091306971523
 40
2.75
  0
CIRCLE
  5
232
100
AcDbEntity
  8
1
  6
CONTINUOUS
 62
           7
100
AcDbCircle
 10
-402.241465658407
 20
400.091306971523
 40
2.403589838486
  0
CIRCLE
  5
231
100
AcDbEntity
  8
1
  6
CONTINUOUS
 62
           7
100
AcDbCircle
 10
-407.432981176227
 20
419.466306652307
 40
2.75
  0
CIRCLE
  5
230
100
AcDbEntity
  8
1
  6
CONTINUOUS
 62
           7
100
AcDbCircle
 10
-407.432981176227
 20
419.466306652307
 40
2.403589838486
  0
CIRCLE
  5
22F
100
AcDbEntity
  8
1
  6
CONTINUOUS
 62
           7
100
AcDbCircle
 10
-421.616465339192
 20
433.649790815273
 40
2.75
  0
CIRCLE
  5
22E
100
AcDbEntity
  8
1
  6
CONTINUOUS
 62
           7
100
AcDbCircle
 10
-421.616465339192
 20
433.649790815273
 40
2.403589838486
  0
CIRCLE
  5
22D
100
AcDbEntity
  8
1
  6
CONTINUOUS
 62
           7
100
AcDbCircle
 10
-440.991465019977
 20
438.841306333092
 40
2.403589838486
  0
CIRCLE
  5
22C
100
AcDbEntity
  8
1
  6
CONTINUOUS
 62
           7
100
AcDbCircle
 10
-440.991465019977
 20
438.841306333092
 40
2.75
  0
CIRCLE
  5
22B
100
AcDbEntity
  8
1
  6
CONTINUOUS
 62
           7
100
AcDbCircle
 10
-460.366464700762
 20
433.649790815273
 40
2.75
  0
CIRCLE
  5
22A
100
AcDbEntity
  8
1
  6
CONTINUOUS
 62
           7
100
AcDbCircle
 10
-460.366464700762
 20
433.649790815273
 40
2.403589838486
  0
CIRCLE
  5
229
100
AcDbEntity
  8
1
  6
CONTINUOUS
 62
           7
100
AcDbCircle
 10
-474.549948863727
 20
419.466306652307
 40
2.75
  0
CIRCLE
  5
228
100
AcDbEntity
  8
1
  6
CONTINUOUS
 62
           7
100
AcDbCircle
 10
-474.549948863727
 20
419.466306652307
 40
2.403589838486
  0
CIRCLE
  5
227
100
AcDbEntity
  8
1
  6
CONTINUOUS
 62
           7
100
AcDbCircle
 10
-479.741464381547
 20
400.091306971523
 40
2.75
  0
CIRCLE
  5
226
100
AcDbEntity
  8
1
  6
CONTINUOUS
 62
           7
100
AcDbCircle
 10
-479.741464381547
 20
400.091306971523
 40
2.403589838486
  0
CIRCLE
  5
225
100
AcDbEntity
  8
1
  6
CONTINUOUS
 62
           7
100
AcDbCircle
 10
-474.549948863727
 20
380.716307290738
 40
2.75
  0
CIRCLE
  5
224
100
AcDbEntity
  8
1
  6
CONTINUOUS
 62
           7
100
AcDbCircle
 10
-474.549948863727
 20
380.716307290738
 40
2.403589838486
  0
CIRCLE
  5
223
100
AcDbEntity
  8
1
  6
CONTINUOUS
 62
           7
100
AcDbCircle
 10
-460.366464700762
 20
366.532823127773
 40
2.75
  0
CIRCLE
  5
222
100
AcDbEntity
  8
1
  6
CONTINUOUS
 62
           7
100
AcDbCircle
 10
-460.366464700762
 20
366.532823127773
 40
2.403589838486
  0
CIRCLE
  5
221
100
AcDbEntity
  8
1
  6
CONTINUOUS
 62
           7
100
AcDbCircle
 10
-440.991465019977
 20
361.341307609953
 40
2.75
  0
CIRCLE
  5
220
100
AcDbEntity
  8
1
  6
CONTINUOUS
 62
           7
100
AcDbCircle
 10
-440.991465019977
 20
361.341307609953
 40
2.403589838486
  0
CIRCLE
  5
21F
100
AcDbEntity
  8
1
  6
CONTINUOUS
 62
           7
100
AcDbCircle
 10
-421.616465339192
 20
366.532823127773
 40
2.75
  0
CIRCLE
  5
21E
100
AcDbEntity
  8
1
  6
CONTINUOUS
 62
           7
100
AcDbCircle
 10
-421.616465339192
 20
366.532823127773
 40
2.403589838486
  0
CIRCLE
  5
21D
100
AcDbEntity
  8
1
  6
CONTINUOUS
 62
           7
100
AcDbCircle
 10
-407.432981176227
 20
380.716307290738
 40
2.75
  0
CIRCLE
  5
21C
100
AcDbEntity
  8
1
  6
CONTINUOUS
 62
           7
100
AcDbCircle
 10
-407.432981176227
 20
380.716307290738
 40
2.403589838486
  0
ARC
  5
21B
100
AcDbEntity
  8
1
  6
CONTINUOUS
 62
           3
100
AcDbCircle
 10
-363.230898741413
 20
428.940695849726
 40
13.0
100
AcDbArc
 50
-131.850939234012
 51
-33.31735002348
  0
ARC
  5
21A
100
AcDbEntity
  8
1
  6
CONTINUOUS
 62
           3
100
AcDbCircle
 10
-359.839849713563
 20
367.567037249314
 40
18.0
100
AcDbArc
 50
156.061092603038
 51
168.708961724173
  0
ARC
  5
219
100
AcDbEntity
  8
1
  6
CONTINUOUS
 62
           3
100
AcDbCircle
 10
-359.839849713563
 20
367.567037249314
 40
17.999999999999
100
AcDbArc
 50
132.086722013713
 51
156.061092603038
  0
ARC
  5
218
100
AcDbEntity
  8
1
  6
CONTINUOUS
 62
           3
100
AcDbCircle
 10
-363.230898741413
 20
371.24191809332
 40
13.0
100
AcDbArc
 50
97.338776280039
 51
131.850939234012
  0
ARC
  5
217
100
AcDbEntity
  8
1
  6
CONTINUOUS
 62
           3
100
AcDbCircle
 10
-363.230898741413
 20
371.24191809332
 40
13.0
100
AcDbArc
 50
33.31735002348
 51
97.338776280039
  0
ARC
  5
216
100
AcDbEntity
  8
1
  6
CONTINUOUS
 62
           3
100
AcDbCircle
 10
-347.320951681997
 20
381.627762069052
 40
6.0
100
AcDbArc
 50
-147.256691833111
 51
-54.336562307984
  0
ARC
  5
215
100
AcDbEntity
  8
1
  6
CONTINUOUS
 62
           3
100
AcDbCircle
 10
-338.148990349601
 20
371.113194280452
 40
8.0
100
AcDbArc
 50
71.689918984561
 51
135.17213875681
  0
ARC
  5
214
100
AcDbEntity
  8
1
  6
CONTINUOUS
 62
           3
100
AcDbCircle
 10
-340.418892587566
 20
362.394934201304
 40
17.0
100
AcDbArc
 50
47.762784732614
 51
73.658404933925
  0
ARC
  5
213
100
AcDbEntity
  8
1
  6
CONTINUOUS
 62
           3
100
AcDbCircle
 10
-347.320951681997
 20
418.554851873994
 40
6.0
100
AcDbArc
 50
54.336562307983
 51
147.256691833111
  0
ARC
  5
212
100
AcDbEntity
  8
1
  6
CONTINUOUS
 62
           3
100
AcDbCircle
 10
-359.839849713563
 20
432.615576693732
 40
17.999999999999
100
AcDbArc
 50
-168.708961724173
 51
-132.086722013712
  0
ARC
  5
211
100
AcDbEntity
  8
1
  6
CONTINUOUS
 62
           3
100
AcDbCircle
 10
-338.148990349601
 20
429.069419662594
 40
8.0
100
AcDbArc
 50
-135.172138756809
 51
-71.689918984561
  0
ARC
  5
210
100
AcDbEntity
  8
1
  6
CONTINUOUS
 62
           3
100
AcDbCircle
 10
-340.418892587566
 20
437.787679741742
 40
17.0
100
AcDbArc
 50
-73.658404933926
 51
-47.762784732614
  0
ARC
  5
20F
100
AcDbEntity
  8
1
  6
CONTINUOUS
 62
           3
100
AcDbCircle
 10
-333.693630703232
 20
352.132930516348
 40
8.999999999999
100
AcDbArc
 50
99.850677827856
 51
157.217518089034
  0
ARC
  5
20E
100
AcDbEntity
  8
1
  6
CONTINUOUS
 62
           3
100
AcDbCircle
 10
-335.67989881902
 20
364.975240419603
 40
4.0
100
AcDbArc
 50
-83.590440698082
 51
-22.763708485683
  0
ARC
  5
20D
100
AcDbEntity
  8
1
  6
DASHED
 62
           4
100
AcDbCircle
 10
-238.991465488847
 20
400.091306971523
 40
14.999986278172
100
AcDbArc
 50
87.157679481585
 51
117.777455738959
  0
ARC
  5
20C
100
AcDbEntity
  8
1
  6
PHANTOM
 62
           7
100
AcDbCircle
 10
-300.324414931926
 20
252.890248337061
 40
12.0
100
AcDbArc
 50
-90.0
 51
0.0
  0
ARC
  5
20B
100
AcDbEntity
  8
1
  6
PHANTOM
 62
           7
100
AcDbCircle
 10
-300.324414931926
 20
312.890248337061
 40
12.0
100
AcDbArc
 50
0.0
 51
90.0
  0
ARC
  5
20A
100
AcDbEntity
  8
1
  6
PHANTOM
 62
           7
100
AcDbCircle
 10
-472.324414931926
 20
312.890248337061
 40
12.0
100
AcDbArc
 50
90.0
 51
180.0
  0
ARC
  5
209
100
AcDbEntity
  8
1
  6
PHANTOM
 62
           7
100
AcDbCircle
 10
-472.324414931926
 20
252.890248337061
 40
12.0
100
AcDbArc
 50
-179.999999999999
 51
-90.0
  0
LINE
  5
208
100
AcDbEntity
  8
1
  6
CONTINUOUS
 62
           7
100
AcDbLine
 10
-364.891465019962
 20
370.594830701771
 11
-364.891465019962
 21
384.135424972154
  0
LINE
  5
207
100
AcDbEntity
  8
1
  6
CONTINUOUS
 62
           7
100
AcDbLine
 10
-364.891465019962
 20
441.591306333372
 11
-363.991465019962
 21
441.591306333372
  0
LINE
  5
206
100
AcDbEntity
  8
1
  6
CONTINUOUS
 62
           7
100
AcDbLine
 10
-371.891465019962
 20
435.591306971523
 11
-371.891465019962
 21
419.245615048883
  0
LINE
  5
205
100
AcDbEntity
  8
1
  6
CONTINUOUS
 62
           7
100
AcDbLine
 10
-364.891465019961
 20
416.047188970892
 11
-364.891465019962
 21
442.591306971523
  0
LINE
  5
204
100
AcDbEntity
  8
1
  6
CONTINUOUS
 62
           7
100
AcDbLine
 10
-364.891465019962
 20
442.591306971523
 11
-371.091465019962
 21
442.591306971523
  0
LINE
  5
203
100
AcDbEntity
  8
1
  6
CONTINUOUS
 62
           7
100
AcDbLine
 10
-376.891465019962
 20
367.091307609674
 11
-376.891465019962
 21
373.332660844603
  0
LINE
  5
202
100
AcDbEntity
  8
1
  6
CONTINUOUS
 62
           7
100
AcDbLine
 10
-363.991465019962
 20
358.591307609674
 11
-364.891465019962
 21
358.591307609674
  0
LINE
  5
201
100
AcDbEntity
  8
1
  6
CONTINUOUS
 62
           7
100
AcDbLine
 10
-376.291465019962
 20
365.391306971523
 11
-376.291465019962
 21
374.870759164219
  0
LINE
  5
200
100
AcDbEntity
  8
1
  6
CONTINUOUS
 62
           7
100
AcDbLine
 10
-371.891465019962
 20
364.591306971523
 11
-371.891465019962
 21
380.936998894162
  0
LINE
  5
1FF
100
AcDbEntity
  8
1
  6
CONTINUOUS
 62
           7
100
AcDbLine
 10
-364.891465019962
 20
358.591307609674
 11
-364.891465019962
 21
365.123621419275
  0
LINE
  5
1FE
100
AcDbEntity
  8
1
  6
CONTINUOUS
 62
           7
100
AcDbLine
 10
-355.634162975543
 20
418.391306971523
 11
-354.991465019962
 21
418.391306971523
  0
LINE
  5
1FD
100
AcDbEntity
  8
0
  6
CONTINUOUS
 62
           7
100
AcDbLine
 10
-359.991465019962
 20
383.831837440334
 11
-359.991465019962
 21
390.091307121699
  0
LINE
  5
1FC
100
AcDbEntity
  8
1
  6
CONTINUOUS
 62
           7
100
AcDbLine
 10
-331.991465133006
 20
363.427514040721
 11
-331.991465133007
 21
354.841320099839
  0
LINE
  5
1FB
100
AcDbEntity
  8
1
  6
CONTINUOUS
 62
           7
100
AcDbLine
 10
-320.841465132989
 20
445.991306777257
 11
-320.841465132989
 21
445.552090014544
  0
LINE
  5
1FA
100
AcDbEntity
  8
1
  6
CONTINUOUS
 62
           7
100
AcDbLine
 10
-321.540489516838
 20
445.292282393408
 11
-320.991465132988
 21
445.292282393408
  0
LINE
  5
1F9
100
AcDbEntity
  8
1
  6
CONTINUOUS
 62
           7
100
AcDbLine
 10
-325.641465132989
 20
450.091306777257
 11
-325.641465132989
 21
453.591320499085
  0
LINE
  5
1F8
100
AcDbEntity
  8
1
  6
CONTINUOUS
 62
           7
100
AcDbLine
 10
-318.991465133006
 20
415.091306971523
 11
-318.991465133006
 21
407.091306971523
  0
LINE
  5
1F7
100
AcDbEntity
  8
1
  6
CONTINUOUS
 62
           3
100
AcDbLine
 10
-315.491469534024
 20
418.091306196673
 11
-315.491469534024
 21
382.091307746373
  0
LINE
  5
1F6
100
AcDbEntity
  8
1
  6
CONTINUOUS
 62
           7
100
AcDbLine
 10
-314.991469534024
 20
349.341320099839
 11
-314.991469534024
 21
354.841320099839
  0
LINE
  5
1F5
100
AcDbEntity
  8
1
  6
CONTINUOUS
 62
           7
100
AcDbLine
 10
-331.991465133007
 20
349.591320099839
 11
-331.991465133006
 21
347.091320499085
  0
LINE
  5
1F4
100
AcDbEntity
  8
1
  6
CONTINUOUS
 62
           7
100
AcDbLine
 10
-331.991465133007
 20
349.341320099839
 11
-314.991469534024
 21
349.341320099839
  0
LINE
  5
1F3
100
AcDbEntity
  8
1
  6
CONTINUOUS
 62
           7
100
AcDbLine
 10
-314.991469534024
 20
347.091320499085
 11
-314.991469534024
 21
349.341320099839
  0
LINE
  5
1F2
100
AcDbEntity
  8
1
  6
CONTINUOUS
 62
           7
100
AcDbLine
 10
-331.991465133007
 20
354.841320099839
 11
-331.991465133007
 21
349.591320099839
  0
LINE
  5
1F1
100
AcDbEntity
  8
1
  6
CONTINUOUS
 62
           7
100
AcDbLine
 10
-314.991469534024
 20
354.841320099839
 11
-331.991465133007
 21
354.841320099839
  0
LINE
  5
1F0
100
AcDbEntity
  8
1
  6
CONTINUOUS
 62
           7
100
AcDbLine
 10
-318.991465133006
 20
415.091306971523
 11
-327.491465132988
 21
415.091306971523
  0
LINE
  5
1EF
100
AcDbEntity
  8
1
  6
CONTINUOUS
 62
           7
100
AcDbLine
 10
-320.991465132988
 20
415.091306971523
 11
-320.991465132988
 21
445.292282393408
  0
LINE
  5
1EE
100
AcDbEntity
  8
1
  6
CONTINUOUS
 62
           7
100
AcDbLine
 10
-318.991465133006
 20
385.091306971523
 11
-327.491465132988
 21
385.091306971523
  0
LINE
  5
1ED
100
AcDbEntity
  8
1
  6
CONTINUOUS
 62
           7
100
AcDbLine
 10
-327.491465132988
 20
385.091306971523
 11
-327.491465132988
 21
366.591306971523
  0
LINE
  5
1EC
100
AcDbEntity
  8
1
  6
CONTINUOUS
 62
           7
100
AcDbLine
 10
-314.991469534024
 20
418.591306196673
 11
-314.991469534024
 21
422.591306971523
  0
LINE
  5
1EB
100
AcDbEntity
  8
1
  6
CONTINUOUS
 62
           7
100
AcDbLine
 10
-317.491469629024
 20
418.091306196673
 11
-315.491469534024
 21
418.091306196673
  0
LINE
  5
1EA
100
AcDbEntity
  8
1
  6
CONTINUOUS
 62
           7
100
AcDbLine
 10
-318.991465133006
 20
407.091306971523
 11
-317.491469629024
 21
407.091306971523
  0
LINE
  5
1E9
100
AcDbEntity
  8
1
  6
CONTINUOUS
 62
           7
100
AcDbLine
 10
-317.491469629024
 20
418.091306196673
 11
-317.491469629024
 21
407.091306971523
  0
LINE
  5
1E8
100
AcDbEntity
  8
1
  6
CONTINUOUS
 62
           7
100
AcDbLine
 10
-317.491469629024
 20
393.091306971523
 11
-318.991465133006
 21
393.091306971523
  0
LINE
  5
1E7
100
AcDbEntity
  8
1
  6
CONTINUOUS
 62
           7
100
AcDbLine
 10
-315.491469534024
 20
382.091307746373
 11
-317.491469629024
 21
382.091307746373
  0
LINE
  5
1E6
100
AcDbEntity
  8
1
  6
CONTINUOUS
 62
           7
100
AcDbLine
 10
-315.491469534024
 20
453.591320499085
 11
-331.491465133006
 21
453.591320499085
  0
LINE
  5
1E5
100
AcDbEntity
  8
1
  6
CONTINUOUS
 62
           7
100
AcDbLine
 10
-331.491465133006
 20
433.591306971523
 11
-327.491465132988
 21
433.591306971523
  0
LINE
  5
1E4
100
AcDbEntity
  8
1
  6
CONTINUOUS
 62
           7
100
AcDbLine
 10
-327.491465132988
 20
366.591306971523
 11
-331.491465133006
 21
366.591306971523
  0
LINE
  5
1E3
100
AcDbEntity
  8
1
  6
CONTINUOUS
 62
           7
100
AcDbLine
 10
-331.491465133006
 20
346.591320499085
 11
-315.491469534024
 21
346.591320499085
  0
LINE
  5
1E2
100
AcDbEntity
  8
1
  6
CONTINUOUS
 62
           7
100
AcDbLine
 10
-331.991465133006
 20
453.091320499085
 11
-331.991465133006
 21
434.091306971523
  0
LINE
  5
1E1
100
AcDbEntity
  8
1
  6
CONTINUOUS
 62
           7
100
AcDbLine
 10
-331.991465133006
 20
366.091306971523
 11
-331.991465133006
 21
363.427514040721
  0
LINE
  5
1E0
100
AcDbEntity
  8
1
  6
CONTINUOUS
 62
           7
100
AcDbLine
 10
-315.491469534024
 20
418.091306196673
 11
-314.991469534024
 21
418.591306196673
  0
LINE
  5
1DF
100
AcDbEntity
  8
1
  6
CONTINUOUS
 62
           7
100
AcDbLine
 10
-314.991469534024
 20
381.591307746373
 11
-315.491469534024
 21
382.091307746373
  0
LINE
  5
1DE
100
AcDbEntity
  8
1
  6
CONTINUOUS
 62
           7
100
AcDbLine
 10
-331.991465133006
 20
434.091306971523
 11
-331.491465133006
 21
433.591306971523
  0
LINE
  5
1DD
100
AcDbEntity
  8
1
  6
CONTINUOUS
 62
           7
100
AcDbLine
 10
-331.991465133006
 20
366.091306971523
 11
-331.491465133006
 21
366.591306971523
  0
LINE
  5
1DC
100
AcDbEntity
  8
1
  6
CONTINUOUS
 62
           7
100
AcDbLine
 10
-315.491469534024
 20
453.591320499085
 11
-314.991469534024
 21
453.091320499085
  0
LINE
  5
1DB
100
AcDbEntity
  8
1
  6
CONTINUOUS
 62
           7
100
AcDbLine
 10
-315.491469534024
 20
346.591320499085
 11
-314.991469534024
 21
347.091320499085
  0
LINE
  5
1DA
100
AcDbEntity
  8
1
  6
CONTINUOUS
 62
           7
100
AcDbLine
 10
-331.991465133006
 20
347.091320499085
 11
-331.491465133006
 21
346.591320499085
  0
LINE
  5
1D9
100
AcDbEntity
  8
1
  6
CONTINUOUS
 62
           7
100
AcDbLine
 10
-331.991465133006
 20
453.091320499085
 11
-331.491465133006
 21
453.591320499085
  0
LINE
  5
1D8
100
AcDbEntity
  8
1
  6
CONTINUOUS
 62
           7
100
AcDbLine
 10
-327.491465132988
 20
433.591306971523
 11
-327.491465132988
 21
415.091306971523
  0
LINE
  5
1D7
100
AcDbEntity
  8
1
  6
CONTINUOUS
 62
           3
100
AcDbLine
 10
-320.241465132988
 20
453.591320499085
 11
-320.241465132988
 21
446.591320499085
  0
LINE
  5
1D6
100
AcDbEntity
  8
1
  6
CONTINUOUS
 62
           7
100
AcDbLine
 10
-320.241465132988
 20
446.591320499085
 11
-326.241465132988
 21
446.591320499085
  0
LINE
  5
1D5
100
AcDbEntity
  8
1
  6
CONTINUOUS
 62
           3
100
AcDbLine
 10
-326.241465132988
 20
446.591320499085
 11
-326.241465132988
 21
453.591320499085
  0
LINE
  5
1D4
100
AcDbEntity
  8
1
  6
CONTINUOUS
 62
           7
100
AcDbLine
 10
-320.841465132989
 20
453.591320499085
 11
-320.841465132989
 21
450.091306777257
  0
LINE
  5
1D3
100
AcDbEntity
  8
1
  6
DASH_CENTER
 62
           3
100
AcDbLine
 10
-323.241465132988
 20
411.941307011447
 11
-323.241465132988
 21
456.10567985303
  0
LINE
  5
1D2
100
AcDbEntity
  8
1
  6
CONTINUOUS
 62
           7
100
AcDbLine
 10
-325.641465132989
 20
445.552090014544
 11
-325.641465132989
 21
445.991306777257
  0
LINE
  5
1D1
100
AcDbEntity
  8
1
  6
CONTINUOUS
 62
           7
100
AcDbLine
 10
-325.491465132988
 20
415.091306971523
 11
-325.491465132988
 21
445.292282393408
  0
LINE
  5
1D0
100
AcDbEntity
  8
1
  6
CONTINUOUS
 62
           3
100
AcDbLine
 10
-320.241465132988
 20
446.591320499085
 11
-320.991465132988
 21
445.292282393408
  0
LINE
  5
1CF
100
AcDbEntity
  8
1
  6
CONTINUOUS
 62
           3
100
AcDbLine
 10
-325.491465132988
 20
445.292282393408
 11
-326.241465132988
 21
446.591320499085
  0
LINE
  5
1CE
100
AcDbEntity
  8
1
  6
CONTINUOUS
 62
           7
100
AcDbLine
 10
-325.491465132988
 20
445.292282393408
 11
-324.94244074914
 21
445.292282393408
  0
LINE
  5
1CD
100
AcDbEntity
  8
1
  6
CONTINUOUS
 62
           7
100
AcDbLine
 10
-314.991469534024
 20
354.841320099839
 11
-314.991469534024
 21
377.591306971523
  0
LINE
  5
1CC
100
AcDbEntity
  8
1
  6
CONTINUOUS
 62
           7
100
AcDbLine
 10
-317.491469629024
 20
407.091306971523
 11
-317.491469629024
 21
382.091307746373
  0
LINE
  5
1CB
100
AcDbEntity
  8
1
  6
CONTINUOUS
 62
           7
100
AcDbLine
 10
-318.991465133006
 20
385.091306971523
 11
-318.991465133006
 21
407.091306971523
  0
LINE
  5
1CA
100
AcDbEntity
  8
1
  6
DASH_CENTER
 62
           3
100
AcDbLine
 10
-253.812924418724
 20
435.873474321392
 11
-251.229811250259
 21
429.637287476941
  0
LINE
  5
1C9
100
AcDbEntity
  8
1
  6
DASH_CENTER
 62
           3
100
AcDbLine
 10
-274.773632874971
 20
385.269847689369
 11
-268.53744603052
 21
387.852960857834
  0
LINE
  5
1C8
100
AcDbEntity
  8
1
  6
DASH_CENTER
 62
           3
100
AcDbLine
 10
-203.209297786701
 20
414.912765865145
 11
-209.445484631152
 21
412.32965269668
  0
LINE
  5
1C7
100
AcDbEntity
  8
1
  6
CONTINUOUS
 62
           7
100
AcDbLine
 10
-314.991469534024
 20
422.591306971523
 11
-316.491469534024
 21
422.591306971523
  0
LINE
  5
1C6
100
AcDbEntity
  8
1
  6
CONTINUOUS
 62
           7
100
AcDbLine
 10
-314.991469534024
 20
422.591306971523
 11
-314.991469534024
 21
453.091320499085
  0
LINE
  5
1C5
100
AcDbEntity
  8
1
  6
CONTINUOUS
 62
           7
100
AcDbLine
 10
-316.491469534024
 20
422.591306971523
 11
-316.491469534024
 21
419.891306971523
  0
LINE
  5
1C4
100
AcDbEntity
  8
1
  6
CONTINUOUS
 62
           7
100
AcDbLine
 10
-316.491469534024
 20
419.891306971523
 11
-314.991469534024
 21
419.891306971523
  0
LINE
  5
1C3
100
AcDbEntity
  8
1
  6
CONTINUOUS
 62
           7
100
AcDbLine
 10
-314.991469534024
 20
377.591306971523
 11
-316.491469534024
 21
377.591306971523
  0
LINE
  5
1C2
100
AcDbEntity
  8
1
  6
CONTINUOUS
 62
           7
100
AcDbLine
 10
-314.991469534024
 20
377.591306971523
 11
-314.991469534024
 21
380.291306971523
  0
LINE
  5
1C1
100
AcDbEntity
  8
1
  6
CONTINUOUS
 62
           7
100
AcDbLine
 10
-316.491469534024
 20
377.591306971523
 11
-316.491469534024
 21
380.291306971523
  0
LINE
  5
1C0
100
AcDbEntity
  8
1
  6
CONTINUOUS
 62
           7
100
AcDbLine
 10
-316.491469534024
 20
380.291306971523
 11
-314.991469534024
 21
380.291306971523
  0
LINE
  5
1BF
100
AcDbEntity
  8
1
  6
CONTINUOUS
 62
           7
100
AcDbLine
 10
-314.991469534024
 20
380.291306971523
 11
-314.991469534024
 21
418.591306196673
  0
LINE
  5
1BE
100
AcDbEntity
  8
1
  6
DASH_CENTER
 62
           3
100
AcDbLine
 10
-225.433344391778
 20
358.363702124807
 11
-222.883954188184
 21
350.517485865372
  0
LINE
  5
1BD
100
AcDbEntity
  8
1
  6
DASH_CENTER
 62
           3
100
AcDbLine
 10
-213.202386728922
 20
364.595686400966
 11
-208.353158332313
 21
357.921296244741
  0
LINE
  5
1BC
100
AcDbEntity
  8
1
  6
DASH_CENTER
 62
           3
100
AcDbLine
 10
-274.487085648179
 20
374.302228832925
 11
-281.161475851773
 21
369.453000501512
  0
LINE
  5
1BB
100
AcDbEntity
  8
1
  6
DASH_CENTER
 62
           3
100
AcDbLine
 10
-280.719069539991
 20
386.533185741457
 11
-288.565285774524
 21
383.983795461221
  0
LINE
  5
1BA
100
AcDbEntity
  8
1
  6
DASH_CENTER
 62
           3
100
AcDbLine
 10
-264.780542617586
 20
364.595685897146
 11
-269.629770883803
 21
357.921295646185
  0
LINE
  5
1B9
100
AcDbEntity
  8
1
  6
DASH_CENTER
 62
           3
100
AcDbLine
 10
-274.48708564818
 20
425.880384721589
 11
-281.161475851773
 21
430.729613053002
  0
LINE
  5
1B8
100
AcDbEntity
  8
1
  6
DASH_CENTER
 62
           3
100
AcDbLine
 10
-264.780543311035
 20
435.586927153548
 11
-269.629771707645
 21
442.261317309773
  0
LINE
  5
1B7
100
AcDbEntity
  8
1
  6
DASH_CENTER
 62
           3
100
AcDbLine
 10
-280.719069804866
 20
413.649426997859
 11
-288.565286089203
 21
416.198817124809
  0
LINE
  5
1B6
100
AcDbEntity
  8
1
  6
DASH_CENTER
 62
           3
100
AcDbLine
 10
-225.433344391778
 20
441.818911429707
 11
-222.883954188184
 21
449.665127689142
  0
LINE
  5
1B5
100
AcDbEntity
  8
1
  6
DASH_CENTER
 62
           3
100
AcDbLine
 10
-213.202387422371
 20
435.586927657368
 11
-208.353159156154
 21
442.261317908329
  0
LINE
  5
1B4
100
AcDbEntity
  8
1
  6
DASH_CENTER
 62
           3
100
AcDbLine
 10
-197.263860235092
 20
386.533186556655
 11
-189.417643950754
 21
383.983796429705
  0
LINE
  5
1B3
100
AcDbEntity
  8
1
  6
DASH_CENTER
 62
           3
100
AcDbLine
 10
-197.263860499966
 20
413.649427813057
 11
-189.417644265433
 21
416.198818093293
  0
LINE
  5
1B2
100
AcDbEntity
  8
1
  6
DASH_CENTER
 62
           3
100
AcDbLine
 10
-416.046717642172
 20
410.42375964538
 11
-430.239803204748
 21
404.54479111344
  0
LINE
  5
1B1
100
AcDbEntity
  8
1
  6
DASH_CENTER
 62
           3
100
AcDbLine
 10
-465.936212397782
 20
389.758854297665
 11
-451.23775173779
 21
395.847156049041
  0
LINE
  5
1B0
100
AcDbEntity
  8
1
  6
DASH_CENTER
 62
           3
100
AcDbLine
 10
-487.299726805351
 20
400.091306971523
 11
-402.241465658407
 21
400.091306971523
  0
LINE
  5
1AF
100
AcDbEntity
  8
1
  6
DASH_CENTER
 62
           3
100
AcDbLine
 10
-402.241465658407
 20
400.091306971523
 11
-405.337286309881
 21
400.091306971523
  0
LINE
  5
1AE
100
AcDbEntity
  8
1
  6
DASH_CENTER
 62
           3
100
AcDbLine
 10
-402.991465658407
 20
400.091306971523
 11
-398.741465658309
 21
400.091306971523
  0
LINE
  5
1AD
100
AcDbEntity
  8
1
  6
DASH_CENTER
 62
           3
100
AcDbLine
 10
-397.991465658309
 20
400.091306971523
 11
-394.683203234603
 21
400.091306971523
  0
LINE
  5
1AC
100
AcDbEntity
  8
1
  6
DASH_CENTER
 62
           3
100
AcDbLine
 10
-398.074657423142
 20
400.091306971523
 11
-402.991465658407
 21
400.091306971523
  0
LINE
  5
1AB
100
AcDbEntity
  8
1
  6
DASH_CENTER
 62
           3
100
AcDbLine
 10
-453.354539470626
 20
412.454381422172
 11
-449.431857814898
 21
408.531699766444
  0
LINE
  5
1AA
100
AcDbEntity
  8
1
  6
DASH_CENTER
 62
           3
100
AcDbLine
 10
-453.354539470626
 20
387.728232520874
 11
-449.431857814898
 21
391.650914176601
  0
LINE
  5
1A9
100
AcDbEntity
  8
1
  6
DASH_CENTER
 62
           3
100
AcDbLine
 10
-428.628390569328
 20
387.728232520874
 11
-432.551072225056
 21
391.650914176601
  0
LINE
  5
1A8
100
AcDbEntity
  8
1
  6
DASH_CENTER
 62
           3
100
AcDbLine
 10
-428.628390569328
 20
412.454381422172
 11
-432.551072225056
 21
408.531699766444
  0
LINE
  5
1A7
100
AcDbEntity
  8
1
  6
DASH_CENTER
 62
           3
100
AcDbLine
 10
-451.323917693835
 20
425.036054349327
 11
-445.142407992771
 21
410.112569793079
  0
LINE
  5
1A6
100
AcDbEntity
  8
1
  6
DASH_CENTER
 62
           3
100
AcDbLine
 10
-451.323917693835
 20
375.146559593718
 11
-445.142407992771
 21
390.070044149966
  0
LINE
  5
1A5
100
AcDbEntity
  8
1
  6
DASH_CENTER
 62
           3
100
AcDbLine
 10
-430.659012346119
 20
375.146559593718
 11
-436.840522047183
 21
390.070044149966
  0
LINE
  5
1A4
100
AcDbEntity
  8
1
  6
DASH_CENTER
 62
           3
100
AcDbLine
 10
-416.046717642172
 20
389.758854297665
 11
-430.970202198421
 21
395.940363998729
  0
LINE
  5
1A3
100
AcDbEntity
  8
1
  6
DASH_CENTER
 62
           3
100
AcDbLine
 10
-430.659012346119
 20
425.036054349328
 11
-436.840522047183
 21
410.112569793079
  0
LINE
  5
1A2
100
AcDbEntity
  8
1
  6
DASH_CENTER
 62
           3
100
AcDbLine
 10
-465.936212397782
 20
410.42375964538
 11
-451.012727841534
 21
404.242249944317
  0
LINE
  5
1A1
100
AcDbEntity
  8
1
  6
DASH_CENTER
 62
           3
100
AcDbLine
 10
-419.158061221559
 20
437.907871652549
 11
-423.164375664929
 21
430.968731485536
  0
LINE
  5
1A0
100
AcDbEntity
  8
1
  6
DASH_CENTER
 62
           3
100
AcDbLine
 10
-440.991465019977
 20
443.758114568358
 11
-440.991465019977
 21
435.745485681619
  0
LINE
  5
19F
100
AcDbEntity
  8
1
  6
DASH_CENTER
 62
           3
100
AcDbLine
 10
-462.824868818395
 20
437.907871652549
 11
-458.818554375025
 21
430.968731485536
  0
LINE
  5
19E
100
AcDbEntity
  8
1
  6
DASH_CENTER
 62
           3
100
AcDbLine
 10
-478.808029701003
 20
421.92471076994
 11
-471.86888953399
 21
417.918396326571
  0
LINE
  5
19D
100
AcDbEntity
  8
1
  6
DASH_CENTER
 62
           3
100
AcDbLine
 10
-484.658272616812
 20
400.091306971523
 11
-476.645643730073
 21
400.091306971523
  0
LINE
  5
19C
100
AcDbEntity
  8
1
  6
DASH_CENTER
 62
           3
100
AcDbLine
 10
-478.808029701003
 20
378.257903173105
 11
-471.86888953399
 21
382.264217616475
  0
LINE
  5
19B
100
AcDbEntity
  8
1
  6
DASH_CENTER
 62
           3
100
AcDbLine
 10
-462.824868818395
 20
362.274742290496
 11
-458.818554375025
 21
369.21388245751
  0
LINE
  5
19A
100
AcDbEntity
  8
1
  6
DASH_CENTER
 62
           3
100
AcDbLine
 10
-440.991465019977
 20
356.424499374688
 11
-440.991465019977
 21
364.437128261427
  0
LINE
  5
199
100
AcDbEntity
  8
1
  6
DASH_CENTER
 62
           3
100
AcDbLine
 10
-419.158061221559
 20
362.274742290496
 11
-423.164375664929
 21
369.21388245751
  0
LINE
  5
198
100
AcDbEntity
  8
1
  6
DASH_CENTER
 62
           3
100
AcDbLine
 10
-403.174900338951
 20
378.257903173105
 11
-410.114040505964
 21
382.264217616475
  0
LINE
  5
197
100
AcDbEntity
  8
1
  6
DASH_CENTER
 62
           3
100
AcDbLine
 10
-403.174900338951
 20
421.92471076994
 11
-410.114040505964
 21
417.918396326571
  0
LINE
  5
196
100
AcDbEntity
  8
2
  6
DASH_CENTER
 62
           3
100
AcDbLine
 10
-380.306258163822
 20
400.091306971523
 11
-312.026858757797
 21
400.091306971523
  0
LINE
  5
195
100
AcDbEntity
  8
1
  6
CONTINUOUS
 62
           7
100
AcDbLine
 10
-376.291465019962
 20
434.791306971523
 11
-376.291465019962
 21
425.311854778826
  0
LINE
  5
194
100
AcDbEntity
  8
1
  6
CONTINUOUS
 62
           7
100
AcDbLine
 10
-371.891465019962
 20
441.991306971523
 11
-371.891465019962
 21
435.591306971523
  0
LINE
  5
193
100
AcDbEntity
  8
1
  6
CONTINUOUS
 62
           7
100
AcDbLine
 10
-376.891465019962
 20
433.091306333372
 11
-376.291465019962
 21
433.091306333372
  0
LINE
  5
192
100
AcDbEntity
  8
1
  6
CONTINUOUS
 62
           7
100
AcDbLine
 10
-371.891465019962
 20
435.591306971523
 11
-375.491465019961
 21
435.591306971523
  0
LINE
  5
191
100
AcDbEntity
  8
1
  6
CONTINUOUS
 62
           7
100
AcDbLine
 10
-376.891465019962
 20
426.849953098439
 11
-376.891465019962
 21
433.091306333372
  0
LINE
  5
190
100
AcDbEntity
  8
0
  6
CONTINUOUS
 62
           7
100
AcDbLine
 10
-362.24146502746
 20
410.091306821369
 11
-362.24146502746
 21
410.091306821358
  0
LINE
  5
18F
100
AcDbEntity
  8
0
  6
CONTINUOUS
 62
           7
100
AcDbLine
 10
-362.741465019962
 20
410.591306813845
 11
-362.24146502746
 21
410.091306821358
  0
LINE
  5
18E
100
AcDbEntity
  8
0
  6
CONTINUOUS
 62
           7
100
AcDbLine
 10
-359.991465019962
 20
389.591307129201
 11
-360.491465012428
 21
390.091307121699
  0
LINE
  5
18D
100
AcDbEntity
  8
0
  6
CONTINUOUS
 62
           7
100
AcDbLine
 10
-360.491465012428
 20
390.091307121699
 11
-362.24146502746
 21
390.091307121688
  0
LINE
  5
18C
100
AcDbEntity
  8
0
  6
CONTINUOUS
 62
           7
100
AcDbLine
 10
-362.24146502746
 20
390.091307121677
 11
-362.24146502746
 21
390.091307121688
  0
LINE
  5
18B
100
AcDbEntity
  8
1
  6
CONTINUOUS
 62
           7
100
AcDbLine
 10
-362.741465019962
 20
411.791306971523
 11
-354.991465019962
 21
411.791306971523
  0
LINE
  5
18A
100
AcDbEntity
  8
0
  6
CONTINUOUS
 62
           7
100
AcDbLine
 10
-362.741465019962
 20
410.591306821358
 11
-362.741465019962
 21
412.091306971523
  0
LINE
  5
189
100
AcDbEntity
  8
0
  6
CONTINUOUS
 62
           7
100
AcDbLine
 10
-359.991465019962
 20
410.091306821346
 11
-359.991465019962
 21
412.091306971523
  0
LINE
  5
188
100
AcDbEntity
  8
1
  6
CONTINUOUS
 62
           7
100
AcDbLine
 10
-365.491465019962
 20
390.091307121688
 11
-365.991465019962
 21
390.591307121688
  0
LINE
  5
187
100
AcDbEntity
  8
1
  6
CONTINUOUS
 62
           7
100
AcDbLine
 10
-365.491465019962
 20
410.091306821358
 11
-365.991465019962
 21
409.591306821358
  0
LINE
  5
186
100
AcDbEntity
  8
0
  6
CONTINUOUS
 62
           7
100
AcDbLine
 10
-362.24146502746
 20
410.091306821358
 11
-362.24146502746
 21
410.091306821369
  0
LINE
  5
185
100
AcDbEntity
  8
1
  6
CONTINUOUS
 62
           7
100
AcDbLine
 10
-363.241465019962
 20
390.091307121688
 11
-362.24146502746
 21
390.091307121688
  0
LINE
  5
184
100
AcDbEntity
  8
0
  6
CONTINUOUS
 62
           7
100
AcDbLine
 10
-362.24146502746
 20
390.091307121688
 11
-362.24146502746
 21
390.091307121677
  0
LINE
  5
183
100
AcDbEntity
  8
0
  6
CONTINUOUS
 62
           7
100
AcDbLine
 10
-362.24146502746
 20
390.091307121688
 11
-362.741465019962
 21
389.591307129201
  0
LINE
  5
182
100
AcDbEntity
  8
1
  6
CONTINUOUS
 62
           7
100
AcDbLine
 10
-360.491465012428
 20
390.091307121699
 11
-359.991465019962
 21
390.091307121699
  0
LINE
  5
181
100
AcDbEntity
  8
1
  6
CONTINUOUS
 62
           7
100
AcDbLine
 10
-365.991465019962
 20
409.591306821358
 11
-365.991465019962
 21
407.591306821358
  0
LINE
  5
180
100
AcDbEntity
  8
1
  6
CONTINUOUS
 62
           7
100
AcDbLine
 10
-365.991465019962
 20
407.591306821358
 11
-354.991465019962
 21
407.591306821358
  0
LINE
  5
17F
100
AcDbEntity
  8
1
  6
CONTINUOUS
 62
           7
100
AcDbLine
 10
-365.991465019962
 20
407.591306821358
 11
-365.991465019962
 21
390.591307121688
  0
LINE
  5
17E
100
AcDbEntity
  8
1
  6
CONTINUOUS
 62
           7
100
AcDbLine
 10
-365.991465019962
 20
392.591307121688
 11
-354.991465019962
 21
392.591307121688
  0
LINE
  5
17D
100
AcDbEntity
  8
1
  6
CONTINUOUS
 62
           7
100
AcDbLine
 10
-354.991465019962
 20
411.791306971523
 11
-354.991465019962
 21
381.297351050175
  0
LINE
  5
17C
100
AcDbEntity
  8
1
  6
DASH_CENTER
 62
           3
100
AcDbLine
 10
-379.001724814259
 20
415.091306971523
 11
-346.780642697458
 21
415.091306971523
  0
LINE
  5
17B
100
AcDbEntity
  8
1
  6
CONTINUOUS
 62
           7
100
AcDbLine
 10
-341.991465019873
 20
443.091306333176
 11
-346.99146501994
 21
443.091306333215
  0
LINE
  5
17A
100
AcDbEntity
  8
0
  6
CONTINUOUS
 62
           7
100
AcDbLine
 10
-362.741465019961
 20
384.232701693005
 11
-362.741465019962
 21
389.591307121688
  0
LINE
  5
179
100
AcDbEntity
  8
1
  6
CONTINUOUS
 62
           7
100
AcDbLine
 10
-331.491465019976
 20
433.591306971523
 11
-331.491465019939
 21
433.591306971523
  0
LINE
  5
178
100
AcDbEntity
  8
1
  6
CONTINUOUS
 62
           7
100
AcDbLine
 10
-331.991465019977
 20
366.591306971497
 11
-329.391465019977
 21
366.591306971497
  0
LINE
  5
177
100
AcDbEntity
  8
1
  6
CONTINUOUS
 62
           7
100
AcDbLine
 10
-365.491465019962
 20
410.091306821358
 11
-359.991465019962
 21
410.091306821358
  0
LINE
  5
176
100
AcDbEntity
  8
0
  6
CONTINUOUS
 62
           7
100
AcDbLine
 10
-360.491465012428
 20
410.091306821358
 11
-359.991465019962
 21
410.591306813845
  0
LINE
  5
175
100
AcDbEntity
  8
1
  6
CONTINUOUS
 62
           7
100
AcDbLine
 10
-376.891465019962
 20
367.091307609674
 11
-376.891465019962
 21
369.853629464027
  0
LINE
  5
174
100
AcDbEntity
  8
1
  6
CONTINUOUS
 62
           7
100
AcDbLine
 10
-375.491465019961
 20
364.591306971523
 11
-371.891465019962
 21
364.591306971523
  0
LINE
  5
173
100
AcDbEntity
  8
1
  6
CONTINUOUS
 62
           7
100
AcDbLine
 10
-376.291465019962
 20
367.091307609674
 11
-376.891465019962
 21
367.091307609674
  0
LINE
  5
172
100
AcDbEntity
  8
1
  6
CONTINUOUS
 62
           7
100
AcDbLine
 10
-364.891465019962
 20
357.591306971523
 11
-364.891465019962
 21
358.591307609674
  0
LINE
  5
171
100
AcDbEntity
  8
1
  6
CONTINUOUS
 62
           7
100
AcDbLine
 10
-371.091465019962
 20
357.591306971523
 11
-364.891465019962
 21
357.591306971523
  0
LINE
  5
170
100
AcDbEntity
  8
1
  6
CONTINUOUS
 62
           7
100
AcDbLine
 10
-371.891465019962
 20
364.591306971523
 11
-371.891465019962
 21
358.191306971523
  0
LINE
  5
16F
100
AcDbEntity
  8
1
  6
DASH_CENTER
 62
           3
100
AcDbLine
 10
-224.122191546185
 20
364.193704343716
 11
-226.695018760942
 21
370.405058699225
  0
LINE
  5
16E
100
AcDbEntity
  8
1
  6
CONTINUOUS
 62
           7
100
AcDbLine
 10
-188.991465019979
 20
401.246007315636
 11
-190.991465019979
 21
402.400707854015
  0
LINE
  5
16D
100
AcDbEntity
  8
1
  6
CONTINUOUS
 62
           7
100
AcDbLine
 10
-190.991465019979
 20
402.400707854015
 11
-192.991465019979
 21
401.246007315636
  0
LINE
  5
16C
100
AcDbEntity
  8
1
  6
CONTINUOUS
 62
           7
100
AcDbLine
 10
-192.991465019979
 20
401.246007315636
 11
-192.991465019979
 21
398.936606238878
  0
LINE
  5
16B
100
AcDbEntity
  8
1
  6
CONTINUOUS
 62
           7
100
AcDbLine
 10
-192.991465019979
 20
398.936606238878
 11
-190.991465019979
 21
397.781905700499
  0
LINE
  5
16A
100
AcDbEntity
  8
1
  6
CONTINUOUS
 62
           7
100
AcDbLine
 10
-190.991465019979
 20
397.781905700499
 11
-188.991465019979
 21
398.936606238878
  0
LINE
  5
169
100
AcDbEntity
  8
1
  6
CONTINUOUS
 62
           7
100
AcDbLine
 10
-188.991465019979
 20
398.936606238878
 11
-188.991465019979
 21
401.246007315636
  0
LINE
  5
168
100
AcDbEntity
  8
1
  6
CONTINUOUS
 62
           7
100
AcDbLine
 10
-222.442429829836
 20
447.287310502242
 11
-224.638800772626
 21
448.000954681788
  0
LINE
  5
167
100
AcDbEntity
  8
1
  6
CONTINUOUS
 62
           7
100
AcDbLine
 10
-221.962278347191
 20
445.028375379878
 11
-222.442429829836
 21
447.287310502242
  0
LINE
  5
166
100
AcDbEntity
  8
1
  6
CONTINUOUS
 62
           7
100
AcDbLine
 10
-223.678497807336
 20
443.483084437061
 11
-221.962278347191
 21
445.028375379878
  0
LINE
  5
165
100
AcDbEntity
  8
1
  6
CONTINUOUS
 62
           7
100
AcDbLine
 10
-225.874868750126
 20
444.196728616607
 11
-223.678497807336
 21
443.483084437061
  0
LINE
  5
164
100
AcDbEntity
  8
1
  6
CONTINUOUS
 62
           7
100
AcDbLine
 10
-226.355020232771
 20
446.455663738971
 11
-225.874868750126
 21
444.196728616607
  0
LINE
  5
163
100
AcDbEntity
  8
1
  6
CONTINUOUS
 62
           7
100
AcDbLine
 10
-224.638800772626
 20
448.000954681788
 11
-226.355020232771
 21
446.455663738971
  0
LINE
  5
162
100
AcDbEntity
  8
1
  6
DASHED
 62
           4
100
AcDbLine
 10
-239.693075719783
 20
415.151660333503
 11
-245.584071095443
 21
444.767694033485
  0
LINE
  5
161
100
AcDbEntity
  8
1
  6
DASHED
 62
           3
100
AcDbLine
 10
-246.467544151601
 20
453.053586190551
 11
-245.101911897488
 21
446.188089227728
  0
LINE
  5
160
100
AcDbEntity
  8
1
  6
DASHED
 62
           4
100
AcDbLine
 10
-245.101911897488
 20
446.188089227728
 11
-245.69038306573
 21
446.071035034518
  0
LINE
  5
15F
100
AcDbEntity
  8
1
  6
DASHED
 62
           3
100
AcDbLine
 10
-250.986623579907
 20
445.017547295631
 11
-252.35225583402
 21
451.883044258454
  0
LINE
  5
15E
100
AcDbEntity
  8
1
  6
DASHED
 62
           4
100
AcDbLine
 10
-247.061901846785
 20
452.966125566709
 11
-245.69038306573
 21
446.071035034518
  0
LINE
  5
15D
100
AcDbEntity
  8
1
  6
DASHED
 62
           4
100
AcDbLine
 10
-245.69038306573
 20
446.071035034518
 11
-250.398152411665
 21
445.134601488841
  0
LINE
  5
15C
100
AcDbEntity
  8
1
  6
DASHED
 62
           4
100
AcDbLine
 10
-245.69038306573
 20
446.071035034518
 11
-245.487639255851
 21
445.051773072334
  0
LINE
  5
15B
100
AcDbEntity
  8
1
  6
DASHED
 62
           4
100
AcDbLine
 10
-250.398152411665
 20
445.134601488841
 11
-250.986623579907
 21
445.017547295631
  0
LINE
  5
15A
100
AcDbEntity
  8
1
  6
DASHED
 62
           4
100
AcDbLine
 10
-250.398152411665
 20
445.134601488841
 11
-251.76967119272
 21
452.029692021032
  0
LINE
  5
159
100
AcDbEntity
  8
1
  6
DASH_CENTER
 62
           3
100
AcDbLine
 10
-241.285308094129
 20
411.623233514854
 11
-249.900427168836
 21
454.934361868496
  0
LINE
  5
158
100
AcDbEntity
  8
1
  6
CONTINUOUS
 62
           7
100
AcDbLine
 10
-250.195408601787
 20
444.115339526657
 11
-250.203062108868
 21
444.153816305059
  0
LINE
  5
157
100
AcDbEntity
  8
1
  6
DASHED
 62
           4
100
AcDbLine
 10
-250.203062108868
 20
444.153816305059
 11
-250.398152411665
 21
445.134601488841
  0
LINE
  5
156
100
AcDbEntity
  8
1
  6
DASHED
 62
           4
100
AcDbLine
 10
-244.106609481598
 20
414.27375388443
 11
-249.997604857257
 21
443.889787584413
  0
LINE
  5
155
100
AcDbEntity
  8
1
  6
DASHED
 62
           3
100
AcDbLine
 10
-245.101911897488
 20
446.188089227728
 11
-245.584071095443
 21
444.767694033485
  0
LINE
  5
154
100
AcDbEntity
  8
1
  6
DASHED
 62
           3
100
AcDbLine
 10
-249.997604857257
 20
443.889787584413
 11
-250.986623579907
 21
445.017547295631
  0
LINE
  5
153
100
AcDbEntity
  8
1
  6
DASHED
 62
           4
100
AcDbLine
 10
-249.997604857257
 20
443.889787584413
 11
-245.584071095443
 21
444.767694033485
  0
LINE
  5
152
100
AcDbEntity
  8
1
  6
CONTINUOUS
 62
           7
100
AcDbLine
 10
-280.121030685999
 20
428.546397032918
 11
-279.181712644523
 21
426.43665416937
  0
LINE
  5
151
100
AcDbEntity
  8
1
  6
CONTINUOUS
 62
           7
100
AcDbLine
 10
-279.181712644523
 20
426.43665416937
 11
-276.8849627085
 21
426.195256023748
  0
LINE
  5
150
100
AcDbEntity
  8
1
  6
CONTINUOUS
 62
           7
100
AcDbLine
 10
-276.8849627085
 20
426.195256023748
 11
-275.527530813953
 21
428.063600741674
  0
LINE
  5
14F
100
AcDbEntity
  8
1
  6
CONTINUOUS
 62
           7
100
AcDbLine
 10
-275.527530813953
 20
428.063600741674
 11
-276.466848855429
 21
430.173343605221
  0
LINE
  5
14E
100
AcDbEntity
  8
1
  6
CONTINUOUS
 62
           7
100
AcDbLine
 10
-276.466848855429
 20
430.173343605221
 11
-278.763598791452
 21
430.414741750843
  0
LINE
  5
14D
100
AcDbEntity
  8
1
  6
CONTINUOUS
 62
           7
100
AcDbLine
 10
-278.763598791452
 20
430.414741750843
 11
-280.121030685999
 21
428.546397032918
  0
LINE
  5
14C
100
AcDbEntity
  8
1
  6
CONTINUOUS
 62
           7
100
AcDbLine
 10
-280.121030685999
 20
371.636216521596
 11
-278.763598791452
 21
369.767871803671
  0
LINE
  5
14B
100
AcDbEntity
  8
1
  6
CONTINUOUS
 62
           7
100
AcDbLine
 10
-279.181712644523
 20
373.745959385144
 11
-280.121030685999
 21
371.636216521596
  0
LINE
  5
14A
100
AcDbEntity
  8
1
  6
CONTINUOUS
 62
           7
100
AcDbLine
 10
-276.8849627085
 20
373.987357530766
 11
-279.181712644523
 21
373.745959385144
  0
LINE
  5
149
100
AcDbEntity
  8
1
  6
CONTINUOUS
 62
           7
100
AcDbLine
 10
-275.527530813953
 20
372.11901281284
 11
-276.8849627085
 21
373.987357530766
  0
LINE
  5
148
100
AcDbEntity
  8
1
  6
CONTINUOUS
 62
           7
100
AcDbLine
 10
-276.466848855429
 20
370.009269949293
 11
-275.527530813953
 21
372.11901281284
  0
LINE
  5
147
100
AcDbEntity
  8
1
  6
CONTINUOUS
 62
           7
100
AcDbLine
 10
-278.763598791452
 20
369.767871803671
 11
-276.466848855429
 21
370.009269949293
  0
LINE
  5
146
100
AcDbEntity
  8
1
  6
CONTINUOUS
 62
           7
100
AcDbLine
 10
-222.442429829836
 20
352.895303052272
 11
-221.962278347191
 21
355.154238174636
  0
LINE
  5
145
100
AcDbEntity
  8
1
  6
CONTINUOUS
 62
           7
100
AcDbLine
 10
-221.962278347191
 20
355.154238174636
 11
-223.678497807336
 21
356.699529117453
  0
LINE
  5
144
100
AcDbEntity
  8
1
  6
CONTINUOUS
 62
           7
100
AcDbLine
 10
-223.678497807336
 20
356.699529117453
 11
-225.874868750126
 21
355.985884937907
  0
LINE
  5
143
100
AcDbEntity
  8
1
  6
CONTINUOUS
 62
           7
100
AcDbLine
 10
-225.874868750126
 20
355.985884937907
 11
-226.355020232771
 21
353.726949815543
  0
LINE
  5
142
100
AcDbEntity
  8
1
  6
CONTINUOUS
 62
           7
100
AcDbLine
 10
-226.355020232771
 20
353.726949815543
 11
-224.638800772626
 21
352.181658872726
  0
LINE
  5
141
100
AcDbEntity
  8
1
  6
CONTINUOUS
 62
           7
100
AcDbLine
 10
-224.638800772626
 20
352.181658872726
 11
-222.442429829836
 21
352.895303052272
  0
LINE
  5
140
100
AcDbEntity
  8
0
  6
CONTINUOUS
 62
           7
100
AcDbLine
 10
-326.241465132989
 20
446.591306777257
 11
-324.741465132989
 21
445.091306777257
  0
LINE
  5
13F
100
AcDbEntity
  8
0
  6
CONTINUOUS
 62
           7
100
AcDbLine
 10
-321.741465132989
 20
445.091306777257
 11
-320.241465132989
 21
446.591306777257
  0
LINE
  5
13E
100
AcDbEntity
  8
0
  6
CONTINUOUS
 62
           7
100
AcDbLine
 10
-326.241465132989
 20
449.716306777257
 11
-326.241465132989
 21
446.591306777257
  0
LINE
  5
13D
100
AcDbEntity
  8
0
  6
CONTINUOUS
 62
           7
100
AcDbLine
 10
-320.241465132989
 20
446.591306777257
 11
-320.241465132989
 21
449.716306777257
  0
LINE
  5
13C
100
AcDbEntity
  8
0
  6
CONTINUOUS
 62
           7
100
AcDbLine
 10
-320.241465132989
 20
449.716306777257
 11
-320.616465132989
 21
450.091306777257
  0
LINE
  5
13B
100
AcDbEntity
  8
0
  6
CONTINUOUS
 62
           7
100
AcDbLine
 10
-325.866465132989
 20
450.091306777257
 11
-326.241465132989
 21
449.716306777257
  0
LINE
  5
13A
100
AcDbEntity
  8
0
  6
CONTINUOUS
 62
           7
100
AcDbLine
 10
-324.741465132989
 20
445.091306777257
 11
-321.741465132989
 21
445.091306777257
  0
LINE
  5
139
100
AcDbEntity
  8
0
  6
CONTINUOUS
 62
           7
100
AcDbLine
 10
-326.241465132989
 20
446.591306777257
 11
-320.241465132989
 21
446.591306777257
  0
LINE
  5
138
100
AcDbEntity
  8
0
  6
CONTINUOUS
 62
           7
100
AcDbLine
 10
-320.241465132989
 20
449.716306777257
 11
-326.241465132989
 21
449.716306777257
  0
LINE
  5
137
100
AcDbEntity
  8
0
  6
CONTINUOUS
 62
           7
100
AcDbLine
 10
-325.866465132989
 20
450.091306777257
 11
-320.616465132989
 21
450.091306777257
  0
LINE
  5
136
100
AcDbEntity
  8
0
  6
CONTINUOUS
 62
           3
100
AcDbLine
 10
-320.616465132989
 20
450.091306777257
 11
-320.616465132989
 21
446.216306777257
  0
LINE
  5
135
100
AcDbEntity
  8
0
  6
CONTINUOUS
 62
           3
100
AcDbLine
 10
-325.866465132989
 20
450.091306777257
 11
-325.866465132989
 21
446.216306777257
  0
LINE
  5
134
100
AcDbEntity
  8
1
  6
CONTINUOUS
 62
           7
100
AcDbLine
 10
-341.491465020272
 20
453.591306333176
 11
-332.491465019937
 21
453.591306333176
  0
LINE
  5
133
100
AcDbEntity
  8
1
  6
CONTINUOUS
 62
           7
100
AcDbLine
 10
-341.491465019873
 20
346.59130760987
 11
-341.991465019873
 21
347.101833925659
  0
LINE
  5
132
100
AcDbEntity
  8
1
  6
CONTINUOUS
 62
           7
100
AcDbLine
 10
-331.99146501995
 20
347.09130760987
 11
-331.991465019937
 21
349.341307609957
  0
LINE
  5
131
100
AcDbEntity
  8
1
  6
CONTINUOUS
 62
           7
100
AcDbLine
 10
-346.99146501994
 20
357.091307609831
 11
-347.052574083754
 21
357.152416673644
  0
LINE
  5
130
100
AcDbEntity
  8
1
  6
CONTINUOUS
 62
           7
100
AcDbLine
 10
-363.491465019962
 20
357.591307609678
 11
-347.052574083754
 21
357.152416673644
  0
LINE
  5
12F
100
AcDbEntity
  8
1
  6
CONTINUOUS
 62
           7
100
AcDbLine
 10
-363.991465019961
 20
384.219650519901
 11
-363.991465019962
 21
369.584761295772
  0
LINE
  5
12E
100
AcDbEntity
  8
1
  6
CONTINUOUS
 62
           7
100
AcDbLine
 10
-363.491465019962
 20
357.591307609678
 11
-363.991465019962
 21
358.091307609674
  0
LINE
  5
12D
100
AcDbEntity
  8
1
  6
CONTINUOUS
 62
           7
100
AcDbLine
 10
-363.991465019962
 20
442.091306333372
 11
-363.491465019962
 21
442.591306333367
  0
LINE
  5
12C
100
AcDbEntity
  8
1
  6
CONTINUOUS
 62
           7
100
AcDbLine
 10
-363.991465019962
 20
442.091306333372
 11
-363.991465019963
 21
415.962963423144
  0
LINE
  5
12B
100
AcDbEntity
  8
1
  6
CONTINUOUS
 62
           7
100
AcDbLine
 10
-331.991465019958
 20
350.091306971523
 11
-331.991465019958
 21
354.591306971523
  0
LINE
  5
12A
100
AcDbEntity
  8
1
  6
CONTINUOUS
 62
           7
100
AcDbLine
 10
-341.991465019906
 20
350.091306971523
 11
-341.991465019906
 21
349.591306971523
  0
LINE
  5
129
100
AcDbEntity
  8
1
  6
CONTINUOUS
 62
           7
100
AcDbLine
 10
-341.991465019906
 20
350.091306971523
 11
-331.991465019958
 21
350.091306971523
  0
LINE
  5
128
100
AcDbEntity
  8
1
  6
CONTINUOUS
 62
           7
100
AcDbLine
 10
-331.991465019958
 20
354.591306971523
 11
-331.991465019977
 21
354.841307609957
  0
LINE
  5
127
100
AcDbEntity
  8
1
  6
CONTINUOUS
 62
           7
100
AcDbLine
 10
-341.991465019906
 20
354.591306971523
 11
-341.991465019906
 21
350.091306971523
  0
LINE
  5
126
100
AcDbEntity
  8
1
  6
CONTINUOUS
 62
           7
100
AcDbLine
 10
-331.991465019958
 20
349.591306971523
 11
-331.991465019958
 21
350.091306971523
  0
LINE
  5
125
100
AcDbEntity
  8
1
  6
CONTINUOUS
 62
           7
100
AcDbLine
 10
-341.991465019906
 20
349.591306971523
 11
-341.991465019883
 21
349.34130760987
  0
LINE
  5
124
100
AcDbEntity
  8
1
  6
CONTINUOUS
 62
           3
100
AcDbLine
 10
-341.991465019906
 20
349.591306971523
 11
-331.991465019958
 21
349.591306971523
  0
LINE
  5
123
100
AcDbEntity
  8
0
  6
CONTINUOUS
 62
           7
100
AcDbLine
 10
-328.991465019946
 20
374.98119254869
 11
-328.991465019989
 21
374.98119254869
  0
LINE
  5
122
100
AcDbEntity
  8
1
  6
CONTINUOUS
 62
           7
100
AcDbLine
 10
-341.991465019931
 20
354.84130760987
 11
-341.991465019906
 21
354.591306971523
  0
LINE
  5
121
100
AcDbEntity
  8
1
  6
CONTINUOUS
 62
           7
100
AcDbLine
 10
-331.991465019937
 20
349.341307609957
 11
-331.991465019958
 21
349.591306971523
  0
LINE
  5
120
100
AcDbEntity
  8
1
  6
CONTINUOUS
 62
           7
100
AcDbLine
 10
-341.991465019883
 20
349.34130760987
 11
-341.991465019873
 21
347.101833925659
  0
LINE
  5
11F
100
AcDbEntity
  8
1
  6
CONTINUOUS
 62
           7
100
AcDbLine
 10
-332.491465019962
 20
346.59130760987
 11
-341.491465019873
 21
346.59130760987
  0
LINE
  5
11E
100
AcDbEntity
  8
1
  6
CONTINUOUS
 62
           7
100
AcDbLine
 10
-332.491465019962
 20
346.59130760987
 11
-331.99146501995
 21
347.09130760987
  0
LINE
  5
11D
100
AcDbEntity
  8
1
  6
CONTINUOUS
 62
           7
100
AcDbLine
 10
-346.99146501994
 20
357.091307609831
 11
-341.991465019873
 21
357.09130760987
  0
LINE
  5
11C
100
AcDbEntity
  8
1
  6
CONTINUOUS
 62
           7
100
AcDbLine
 10
-346.99146501994
 20
357.091307609831
 11
-347.052574083754
 21
357.152416673644
  0
LINE
  5
11B
100
AcDbEntity
  8
1
  6
CONTINUOUS
 62
           7
100
AcDbLine
 10
-331.991465019986
 20
354.841307609957
 11
-331.991465019977
 21
354.841307609957
  0
LINE
  5
11A
100
AcDbEntity
  8
1
  6
CONTINUOUS
 62
           7
100
AcDbLine
 10
-341.991465019873
 20
357.09130760987
 11
-341.991465019931
 21
354.84130760987
  0
LINE
  5
119
100
AcDbEntity
  8
0
  6
CONTINUOUS
 62
           7
100
AcDbLine
 10
-359.491465019962
 20
357.591307609953
 11
-359.491465019962
 21
357.591307609674
  0
LINE
  5
118
100
AcDbEntity
  8
1
  6
CONTINUOUS
 62
           7
100
AcDbLine
 10
-359.491465019962
 20
357.591307609953
 11
-359.491465019962
 21
357.591307609674
  0
LINE
  5
117
100
AcDbEntity
  8
0
  6
CONTINUOUS
 62
           7
100
AcDbLine
 10
-328.991465019989
 20
425.201421394355
 11
-328.991465019976
 21
433.191306971523
  0
LINE
  5
116
100
AcDbEntity
  8
1
  6
CONTINUOUS
 62
           7
100
AcDbLine
 10
-341.991465019873
 20
443.091306333176
 11
-346.99146501994
 21
443.091306333215
  0
LINE
  5
115
100
AcDbEntity
  8
1
  6
CONTINUOUS
 62
           7
100
AcDbLine
 10
-341.991465019873
 20
453.081306333184
 11
-341.491465020272
 21
453.591306333176
  0
LINE
  5
114
100
AcDbEntity
  8
1
  6
CONTINUOUS
 62
           7
100
AcDbLine
 10
-347.052574083754
 20
443.030197269401
 11
-363.491465019962
 21
442.591306333367
  0
LINE
  5
113
100
AcDbEntity
  8
1
  6
CONTINUOUS
 62
           7
100
AcDbLine
 10
-347.052574083754
 20
443.030197269401
 11
-346.99146501994
 21
443.091306333215
  0
LINE
  5
112
100
AcDbEntity
  8
1
  6
CONTINUOUS
 62
           7
100
AcDbLine
 10
-331.991465019939
 20
354.941307609926
 11
-341.991465019931
 21
354.741307609869
  0
LINE
  5
111
100
AcDbEntity
  8
1
  6
CONTINUOUS
 62
           7
100
AcDbLine
 10
-341.991465019931
 20
453.081306333184
 11
-341.991465019873
 21
443.091306333176
  0
LINE
  5
110
100
AcDbEntity
  8
1
  6
CONTINUOUS
 62
           7
100
AcDbLine
 10
-331.99146501995
 20
453.091306333176
 11
-331.991465019939
 21
433.591306971523
  0
LINE
  5
10F
100
AcDbEntity
  8
1
  6
CONTINUOUS
 62
           7
100
AcDbLine
 10
-331.491465019976
 20
433.591306971523
 11
-331.491465019939
 21
433.591306971523
  0
LINE
  5
10E
100
AcDbEntity
  8
1
  6
CONTINUOUS
 62
           7
100
AcDbLine
 10
-329.391465019977
 20
433.591306971523
 11
-328.991465019976
 21
433.191306971523
  0
LINE
  5
10D
100
AcDbEntity
  8
1
  6
CONTINUOUS
 62
           7
100
AcDbLine
 10
-331.99146501995
 20
453.091306333176
 11
-332.491465019946
 21
453.591306333176
  0
LINE
  5
10C
100
AcDbEntity
  8
1
  6
CONTINUOUS
 62
           7
100
AcDbLine
 10
-331.991465019977
 20
354.841307609957
 11
-331.991465019986
 21
354.841307609957
  0
LINE
  5
10B
100
AcDbEntity
  8
1
  6
CONTINUOUS
 62
           7
100
AcDbLine
 10
-331.991465019977
 20
354.841307609957
 11
-331.991465019977
 21
366.591306971497
  0
LINE
  5
10A
100
AcDbEntity
  8
1
  6
CONTINUOUS
 62
           7
100
AcDbLine
 10
-331.991465019977
 20
366.591306971497
 11
-329.391465019977
 21
366.591306971497
  0
LINE
  5
109
100
AcDbEntity
  8
0
  6
CONTINUOUS
 62
           7
100
AcDbLine
 10
-328.991465019976
 20
366.991306971497
 11
-328.991465019946
 21
374.98119254869
  0
LINE
  5
108
100
AcDbEntity
  8
1
  6
CONTINUOUS
 62
           7
100
AcDbLine
 10
-329.391465019977
 20
366.591306971497
 11
-328.991465019976
 21
366.991306971497
  0
LINE
  5
107
100
AcDbEntity
  8
1
  6
CONTINUOUS
 62
           7
100
AcDbLine
 10
-331.991465019939
 20
433.591306971523
 11
-329.391465019977
 21
433.591306971523
  0
LINE
  5
106
100
AcDbEntity
  8
1
  6
CONTINUOUS
 62
           7
100
AcDbLine
 10
-331.991465133006
 20
362.091307944436
 11
-331.991465133006
 21
361.291307306089
  0
LINE
  5
105
100
AcDbEntity
  8
1
  6
CONTINUOUS
 62
           7
100
AcDbLine
 10
-333.491465133006
 20
358.591307306089
 11
-331.991465019977
 21
358.591307306089
  0
LINE
  5
104
100
AcDbEntity
  8
1
  6
CONTINUOUS
 62
           7
100
AcDbLine
 10
-333.491465133006
 20
361.291307306089
 11
-333.491465133006
 21
358.591307306089
  0
LINE
  5
103
100
AcDbEntity
  8
1
  6
CONTINUOUS
 62
           7
100
AcDbLine
 10
-331.991465133006
 20
361.291307306089
 11
-333.491465133006
 21
361.291307306089
  0
LINE
  5
102
100
AcDbEntity
  8
1
  6
CONTINUOUS
 62
           7
100
AcDbLine
 10
-331.991465019977
 20
366.591306971497
 11
-331.991465019977
 21
377.159027962624
  0
LINE
  5
101
100
AcDbEntity
  8
1
  6
CONTINUOUS
 62
           7
100
AcDbLine
 10
-341.991465019873
 20
357.09130760987
 11
-341.991465019922
 21
378.129987594206
  0
LINE
  5
100
100
AcDbEntity
  8
1
  6
CONTINUOUS
 62
           7
100
AcDbLine
 10
-346.99146501994
 20
375.636815688092
 11
-346.99146501994
 21
357.091307609831
  0
LINE
  5
FF
100
AcDbEntity
  8
1
  6
CONTINUOUS
 62
           7
100
AcDbLine
 10
-347.052574083754
 20
357.152416673644
 11
-347.052574083754
 21
375.63376728554
  0
LINE
  5
FE
100
AcDbEntity
  8
1
  6
CONTINUOUS
 62
           7
100
AcDbLine
 10
-331.991465019939
 20
433.591306971523
 11
-331.991465019977
 21
423.023585980422
  0
LINE
  5
FD
100
AcDbEntity
  8
1
  6
CONTINUOUS
 62
           7
100
AcDbLine
 10
-341.991465019873
 20
443.091306333176
 11
-341.991465019922
 21
422.05262634884
  0
LINE
  5
FC
100
AcDbEntity
  8
1
  6
CONTINUOUS
 62
           7
100
AcDbLine
 10
-346.99146501994
 20
424.545798254953
 11
-346.99146501994
 21
443.091306333215
  0
LINE
  5
FB
100
AcDbEntity
  8
1
  6
CONTINUOUS
 62
           7
100
AcDbLine
 10
-347.052574083754
 20
443.030197269401
 11
-347.052574083754
 21
424.548846657506
  0
LINE
  5
FA
100
AcDbEntity
  8
1
  6
CONTINUOUS
 62
           7
100
AcDbLine
 10
-363.991465019962
 20
366.217863275774
 11
-363.991465019962
 21
358.091307609674
  0
LINE
  5
F9
100
AcDbEntity
  8
1
  6
CONTINUOUS
 62
           7
100
AcDbLine
 10
-325.491465019961
 20
410.091306971476
 11
-321.491465019961
 21
410.091306971476
  0
LINE
  5
F8
100
AcDbEntity
  8
1
  6
CONTINUOUS
 62
           7
100
AcDbLine
 10
-325.491465019961
 20
405.091306971523
 11
-321.491465019961
 21
405.091306971523
  0
LINE
  5
F7
100
AcDbEntity
  8
1
  6
CONTINUOUS
 62
           7
100
AcDbLine
 10
-325.091465019961
 20
405.091306971523
 11
-325.091465019961
 21
405.437730466949
  0
LINE
  5
F6
100
AcDbEntity
  8
1
  6
CONTINUOUS
 62
           7
100
AcDbLine
 10
-321.891465019961
 20
405.091306971523
 11
-321.891465019961
 21
405.437730466949
  0
LINE
  5
F5
100
AcDbEntity
  8
1
  6
DASH_CENTER
 62
           3
100
AcDbLine
 10
-323.491465019961
 20
394.890606971539
 11
-323.491465019961
 21
411.292006971459
  0
LINE
  5
F4
100
AcDbEntity
  8
1
  6
CONTINUOUS
 62
           3
100
AcDbLine
 10
-325.491465019961
 20
405.091306971523
 11
-325.491465019961
 21
410.091306971476
  0
LINE
  5
F3
100
AcDbEntity
  8
1
  6
CONTINUOUS
 62
           7
100
AcDbLine
 10
-321.491465019961
 20
410.091306971476
 11
-319.991465019961
 21
410.091306971427
  0
LINE
  5
F2
100
AcDbEntity
  8
1
  6
CONTINUOUS
 62
           7
100
AcDbLine
 10
-321.491465019961
 20
405.091306971523
 11
-319.991465019961
 21
405.091306971523
  0
LINE
  5
F1
100
AcDbEntity
  8
1
  6
CONTINUOUS
 62
           3
100
AcDbLine
 10
-321.491465019961
 20
405.091306971523
 11
-321.491465019961
 21
410.091306971476
  0
LINE
  5
F0
100
AcDbEntity
  8
1
  6
CONTINUOUS
 62
           7
100
AcDbLine
 10
-319.991465019961
 20
390.091306971569
 11
-332.491465020007
 21
390.091306971497
  0
LINE
  5
EF
100
AcDbEntity
  8
0
  6
CONTINUOUS
 62
           7
100
AcDbLine
 10
-332.491465020007
 20
377.488806971523
 11
-332.491465020007
 21
390.091306971497
  0
LINE
  5
EE
100
AcDbEntity
  8
1
  6
CONTINUOUS
 62
           7
100
AcDbLine
 10
-332.491465019961
 20
410.091306971559
 11
-325.491465019961
 21
410.091306971476
  0
LINE
  5
ED
100
AcDbEntity
  8
0
  6
CONTINUOUS
 62
           7
100
AcDbLine
 10
-319.991465019961
 20
410.091306971427
 11
-319.991465019961
 21
390.091306971569
  0
LINE
  5
EC
100
AcDbEntity
  8
0
  6
CONTINUOUS
 62
           7
100
AcDbLine
 10
-332.491465019961
 20
422.693806971523
 11
-332.491465019961
 21
410.091306971559
  0
LINE
  5
EB
100
AcDbEntity
  8
1
  6
CONTINUOUS
 62
           7
100
AcDbLine
 10
-338.991465019961
 20
395.091306971523
 11
-319.991465019961
 21
395.091306971523
  0
LINE
  5
EA
100
AcDbEntity
  8
1
  6
CONTINUOUS
 62
           7
100
AcDbLine
 10
-338.991465019961
 20
405.091306971523
 11
-325.491465019961
 21
405.091306971523
  0
LINE
  5
E9
100
AcDbEntity
  8
1
  6
CONTINUOUS
 62
           7
100
AcDbLine
 10
-338.991465019961
 20
379.094806971523
 11
-338.991465019961
 21
387.094806971552
  0
LINE
  5
E8
100
AcDbEntity
  8
1
  6
CONTINUOUS
 62
           7
100
AcDbLine
 10
-321.891465019961
 20
408.891320305435
 11
-321.891465019961
 21
410.091306971476
  0
LINE
  5
E7
100
AcDbEntity
  8
1
  6
CONTINUOUS
 62
           7
100
AcDbLine
 10
-325.091465019961
 20
408.891320305435
 11
-325.091465019961
 21
410.091306971476
  0
LINE
  5
E6
100
AcDbEntity
  8
1
  6
CONTINUOUS
 62
           7
100
AcDbLine
 10
-338.991465019961
 20
421.113903561812
 11
-338.991465019961
 21
379.094806971523
  0
LINE
  5
E5
100
AcDbEntity
  8
0
  6
CONTINUOUS
 62
           7
100
AcDbLine
 10
-332.59744740164
 20
422.693806971523
 11
-332.491465019961
 21
422.693806971523
  0
LINE
  5
E4
100
AcDbEntity
  8
0
  6
CONTINUOUS
 62
           7
100
AcDbLine
 10
-332.59744740164
 20
377.488806971523
 11
-332.491465020007
 21
377.488806971523
  0
LINE
  5
E3
100
AcDbEntity
  8
1
  6
CONTINUOUS
 62
           3
100
AcDbLine
 10
-322.091465019961
 20
409.091320305435
 11
-322.091465019961
 21
405.091320305435
  0
LINE
  5
E2
100
AcDbEntity
  8
1
  6
CONTINUOUS
 62
           3
100
AcDbLine
 10
-324.891465019961
 20
409.091320305435
 11
-324.891465019961
 21
405.091320305435
  0
LINE
  5
E1
100
AcDbEntity
  8
1
  6
CONTINUOUS
 62
           7
100
AcDbLine
 10
-321.491465019961
 20
406.130550789976
 11
-322.091465019961
 21
405.091320305435
  0
LINE
  5
E0
100
AcDbEntity
  8
1
  6
CONTINUOUS
 62
           7
100
AcDbLine
 10
-325.491465019961
 20
406.130550789976
 11
-324.891465019961
 21
405.091320305435
  0
LINE
  5
DF
100
AcDbEntity
  8
1
  6
CONTINUOUS
 62
           7
100
AcDbLine
 10
-324.891465019961
 20
409.091320305435
 11
-325.491465019961
 21
408.491320305435
  0
LINE
  5
DE
100
AcDbEntity
  8
1
  6
CONTINUOUS
 62
           7
100
AcDbLine
 10
-322.091465019961
 20
409.091320305435
 11
-324.891465019961
 21
409.091320305435
  0
LINE
  5
DD
100
AcDbEntity
  8
1
  6
CONTINUOUS
 62
           7
100
AcDbLine
 10
-321.491465019961
 20
408.491320305435
 11
-322.091465019961
 21
409.091320305435
  0
LINE
  5
DC
100
AcDbEntity
  8
1
  6
CONTINUOUS
 62
           7
100
AcDbLine
 10
-321.491465019961
 20
406.130550789976
 11
-321.491465019961
 21
408.491320305435
  0
LINE
  5
DB
100
AcDbEntity
  8
1
  6
CONTINUOUS
 62
           7
100
AcDbLine
 10
-325.491465019961
 20
406.130550789976
 11
-321.491465019961
 21
406.130550789976
  0
LINE
  5
DA
100
AcDbEntity
  8
1
  6
CONTINUOUS
 62
           7
100
AcDbLine
 10
-325.491465019961
 20
408.491320305435
 11
-325.491465019961
 21
406.130550789976
  0
LINE
  5
D9
100
AcDbEntity
  8
1
  6
CONTINUOUS
 62
           7
100
AcDbLine
 10
-321.491465019961
 20
408.491320305435
 11
-325.491465019961
 21
408.491320305435
  0
LINE
  5
D8
100
AcDbEntity
  8
1
  6
CONTINUOUS
 62
           7
100
AcDbLine
 10
-322.091465019961
 20
405.091320305435
 11
-324.891465019961
 21
405.091320305435
  0
LINE
  5
D7
100
AcDbEntity
  8
1
  6
CONTINUOUS
 62
           3
100
AcDbLine
 10
-316.591469534024
 20
350.291320099839
 11
-339.991469534024
 21
350.291320099839
  0
LINE
  5
D6
100
AcDbEntity
  8
1
  6
CONTINUOUS
 62
           3
100
AcDbLine
 10
-316.591469534024
 20
350.291320099839
 11
-315.379033968726
 21
349.591320099839
  0
LINE
  5
D5
100
AcDbEntity
  8
1
  6
CONTINUOUS
 62
           7
100
AcDbLine
 10
-314.991469534024
 20
352.091320099839
 11
-314.991469534024
 21
349.591320099839
  0
LINE
  5
D4
100
AcDbEntity
  8
1
  6
CONTINUOUS
 62
           7
100
AcDbLine
 10
-314.991469534024
 20
347.841320099839
 11
-310.291469534024
 21
347.841320099839
  0
LINE
  5
D3
100
AcDbEntity
  8
1
  6
CONTINUOUS
 62
           7
100
AcDbLine
 10
-310.291469534024
 20
347.841320099839
 11
-309.991469534024
 21
348.141320099839
  0
LINE
  5
D2
100
AcDbEntity
  8
1
  6
CONTINUOUS
 62
           7
100
AcDbLine
 10
-309.991469534024
 20
348.141320099839
 11
-309.991469534024
 21
352.091320099839
  0
LINE
  5
D1
100
AcDbEntity
  8
1
  6
CONTINUOUS
 62
           7
100
AcDbLine
 10
-339.991469534024
 20
350.291320099839
 11
-339.291469534024
 21
349.591320099839
  0
LINE
  5
D0
100
AcDbEntity
  8
1
  6
CONTINUOUS
 62
           7
100
AcDbLine
 10
-339.291469534024
 20
349.591320099839
 11
-315.191469534024
 21
349.591320099839
  0
LINE
  5
CF
100
AcDbEntity
  8
1
  6
CONTINUOUS
 62
           7
100
AcDbLine
 10
-314.991469534024
 20
349.591320099839
 11
-314.991469534024
 21
347.841320099839
  0
LINE
  5
CE
100
AcDbEntity
  8
1
  6
CONTINUOUS
 62
           7
100
AcDbLine
 10
-316.591469534024
 20
349.591320099839
 11
-316.591469534024
 21
352.091320099839
  0
LINE
  5
CD
100
AcDbEntity
  8
1
  6
CONTINUOUS
 62
           7
100
AcDbLine
 10
-310.291469534024
 20
347.841320099839
 11
-310.291469534024
 21
352.091320099839
  0
LINE
  5
CC
100
AcDbEntity
  8
1
  6
CONTINUOUS
 62
           7
100
AcDbLine
 10
-339.291469534024
 20
352.091306971523
 11
-339.291469534024
 21
349.591320099839
  0
LINE
  5
CB
100
AcDbEntity
  8
1
  6
CONTINUOUS
 62
           7
100
AcDbLine
 10
-339.991469534024
 20
352.091306971523
 11
-339.991469534024
 21
350.291320099839
  0
LINE
  5
CA
100
AcDbEntity
  8
1
  6
CONTINUOUS
 62
           7
100
AcDbLine
 10
-362.741465019962
 20
412.691306971523
 11
-362.741465019962
 21
410.591306971523
  0
LINE
  5
C9
100
AcDbEntity
  8
1
  6
CONTINUOUS
 62
           7
100
AcDbLine
 10
-377.991465019962
 20
410.591306971523
 11
-377.991465019962
 21
426.391306971523
  0
LINE
  5
C8
100
AcDbEntity
  8
1
  6
CONTINUOUS
 62
           7
100
AcDbLine
 10
-377.991465019962
 20
426.391306971523
 11
-377.241465019962
 21
426.391306971523
  0
LINE
  5
C7
100
AcDbEntity
  8
1
  6
CONTINUOUS
 62
           7
100
AcDbLine
 10
-377.241465019962
 20
426.391306971523
 11
-377.241465019962
 21
427.741306971523
  0
LINE
  5
C6
100
AcDbEntity
  8
1
  6
CONTINUOUS
 62
           7
100
AcDbLine
 10
-377.991465019962
 20
426.391306971523
 11
-377.991465019962
 21
428.591306971523
  0
LINE
  5
C5
100
AcDbEntity
  8
1
  6
CONTINUOUS
 62
           7
100
AcDbLine
 10
-377.241465019962
 20
427.741306971523
 11
-377.991465019962
 21
427.741306971523
  0
LINE
  5
C4
100
AcDbEntity
  8
1
  6
CONTINUOUS
 62
           7
100
AcDbLine
 10
-377.991465019962
 20
385.791306971523
 11
-377.991465019962
 21
373.791306971523
  0
LINE
  5
C3
100
AcDbEntity
  8
1
  6
CONTINUOUS
 62
           7
100
AcDbLine
 10
-377.991465019962
 20
373.791306971523
 11
-377.241465019962
 21
373.791306971523
  0
LINE
  5
C2
100
AcDbEntity
  8
1
  6
CONTINUOUS
 62
           7
100
AcDbLine
 10
-377.241465019962
 20
373.791306971523
 11
-377.241465019962
 21
372.441306971523
  0
LINE
  5
C1
100
AcDbEntity
  8
1
  6
CONTINUOUS
 62
           7
100
AcDbLine
 10
-377.991465019962
 20
373.791306971523
 11
-377.991465019962
 21
371.591306971523
  0
LINE
  5
C0
100
AcDbEntity
  8
1
  6
CONTINUOUS
 62
           7
100
AcDbLine
 10
-377.241465019962
 20
372.441306971523
 11
-377.991465019962
 21
372.441306971523
  0
LINE
  5
BF
100
AcDbEntity
  8
1
  6
CONTINUOUS
 62
           7
100
AcDbLine
 10
-377.991465019962
 20
371.591306971523
 11
-377.491465019962
 21
371.091306971523
  0
LINE
  5
BE
100
AcDbEntity
  8
1
  6
CONTINUOUS
 62
           7
100
AcDbLine
 10
-377.991465019962
 20
428.591306971523
 11
-377.491465019962
 21
429.091306971523
  0
LINE
  5
BD
100
AcDbEntity
  8
1
  6
CONTINUOUS
 62
           7
100
AcDbLine
 10
-362.741465019962
 20
389.591306971523
 11
-363.241465019962
 21
390.091306971523
  0
LINE
  5
BC
100
AcDbEntity
  8
1
  6
CONTINUOUS
 62
           7
100
AcDbLine
 10
-377.991465019962
 20
410.591306971523
 11
-377.991465019962
 21
389.591306971523
  0
LINE
  5
BB
100
AcDbEntity
  8
1
  6
CONTINUOUS
 62
           7
100
AcDbLine
 10
-377.991465019962
 20
389.591306971523
 11
-377.491465019962
 21
390.091306971523
  0
LINE
  5
BA
100
AcDbEntity
  8
1
  6
CONTINUOUS
 62
           7
100
AcDbLine
 10
-377.991465019962
 20
410.591306971523
 11
-377.491465019962
 21
410.091306971523
  0
LINE
  5
B9
100
AcDbEntity
  8
1
  6
CONTINUOUS
 62
           7
100
AcDbLine
 10
-362.741465019962
 20
410.591306971523
 11
-363.241465019962
 21
410.091306971523
  0
LINE
  5
B8
100
AcDbEntity
  8
1
  6
CONTINUOUS
 62
           7
100
AcDbLine
 10
-363.241465019962
 20
410.091306971523
 11
-377.491465019962
 21
410.091306971523
  0
LINE
  5
B7
100
AcDbEntity
  8
1
  6
CONTINUOUS
 62
           7
100
AcDbLine
 10
-363.241465019962
 20
390.091306971523
 11
-377.491465019962
 21
390.091306971523
  0
LINE
  5
B6
100
AcDbEntity
  8
1
  6
CONTINUOUS
 62
           7
100
AcDbLine
 10
-362.741465019962
 20
412.691306971523
 11
-377.991465019962
 21
412.691306971523
  0
LINE
  5
B5
100
AcDbEntity
  8
1
  6
CONTINUOUS
 62
           3
100
AcDbLine
 10
-362.741465019962
 20
412.091306971523
 11
-377.991465019962
 21
412.091306971523
  0
LINE
  5
B4
100
AcDbEntity
  8
1
  6
CONTINUOUS
 62
           7
100
AcDbLine
 10
-362.741465019962
 20
385.591306971523
 11
-362.741465019961
 21
384.232701693005
  0
LINE
  5
B3
100
AcDbEntity
  8
1
  6
CONTINUOUS
 62
           3
100
AcDbLine
 10
-377.991465019962
 20
383.091306971523
 11
-368.578045944654
 21
383.091306971523
  0
LINE
  5
B2
100
AcDbEntity
  8
1
  6
CONTINUOUS
 62
           7
100
AcDbLine
 10
-377.991465019962
 20
382.291306971523
 11
-370.080059669458
 21
382.291306971523
  0
LINE
  5
B1
100
AcDbEntity
  8
1
  6
CONTINUOUS
 62
           7
100
AcDbLine
 10
-368.741465019962
 20
388.591306971523
 11
-362.741465019962
 21
388.591306971523
  0
LINE
  5
B0
100
AcDbEntity
  8
1
  6
CONTINUOUS
 62
           7
100
AcDbLine
 10
-362.741465019962
 20
389.591306971523
 11
-362.741465019962
 21
388.591306971523
  0
LINE
  5
AF
100
AcDbEntity
  8
1
  6
CONTINUOUS
 62
           7
100
AcDbLine
 10
-368.741465019962
 20
385.591306971523
 11
-368.741465019962
 21
388.591306971523
  0
LINE
  5
AE
100
AcDbEntity
  8
1
  6
CONTINUOUS
 62
           7
100
AcDbLine
 10
-362.741465019962
 20
385.591306971523
 11
-368.741465019962
 21
385.591306971523
  0
LINE
  5
AD
100
AcDbEntity
  8
1
  6
CONTINUOUS
 62
           7
100
AcDbLine
 10
-377.991465019962
 20
385.791306971523
 11
-368.741465019962
 21
385.791306971523
  0
LINE
  5
AC
100
AcDbEntity
  8
1
  6
CONTINUOUS
 62
           7
100
AcDbLine
 10
-377.991465019962
 20
389.591306971523
 11
-377.991465019962
 21
385.791306971523
  0
LINE
  5
AB
100
AcDbEntity
  8
1
  6
CONTINUOUS
 62
           7
100
AcDbLine
 10
-377.991465019962
 20
388.391306971523
 11
-368.741465019962
 21
388.391306971523
  0
LINE
  5
AA
100
AcDbEntity
  8
1
  6
DASH_CENTER
 62
           3
100
AcDbLine
 10
-373.667040584083
 20
379.091306971523
 11
-379.191465019962
 21
379.091306971523
  0
LINE
  5
A9
100
AcDbEntity
  8
1
  6
CONTINUOUS
 62
           7
100
AcDbLine
 10
-375.799377701317
 20
375.891306971523
 11
-377.991465019962
 21
375.891306971523
  0
LINE
  5
A8
100
AcDbEntity
  8
1
  6
CONTINUOUS
 62
           3
100
AcDbLine
 10
-376.191772082124
 20
375.091306971523
 11
-377.991465019962
 21
375.091306971523
  0
LINE
  5
A7
100
AcDbEntity
  8
1
  6
CONTINUOUS
 62
           7
100
AcDbLine
 10
-376.891465019962
 20
371.091306971523
 11
-377.491465019962
 21
371.091306971523
  0
LINE
  5
A6
100
AcDbEntity
  8
1
  6
CONTINUOUS
 62
           7
100
AcDbLine
 10
-369.388129800557
 20
417.491306971523
 11
-377.991465019962
 21
417.491306971523
  0
LINE
  5
A5
100
AcDbEntity
  8
1
  6
CONTINUOUS
 62
           3
100
AcDbLine
 10
-370.392655576822
 20
418.091306971523
 11
-377.991465019962
 21
418.091306971523
  0
LINE
  5
A4
100
AcDbEntity
  8
1
  6
CONTINUOUS
 62
           7
100
AcDbLine
 10
-376.891465019962
 20
429.091306971523
 11
-377.491465019962
 21
429.091306971523
  0
LINE
  5
A3
100
AcDbEntity
  8
1
  6
CONTINUOUS
 62
           3
100
AcDbLine
 10
-356.991465019962
 20
412.891306971523
 11
-372.991465019962
 21
412.891306971523
  0
LINE
  5
A2
100
AcDbEntity
  8
1
  6
CONTINUOUS
 62
           3
100
AcDbLine
 10
-356.991465019962
 20
417.291306971523
 11
-357.460999369292
 21
417.291306971523
  0
LINE
  5
A1
100
AcDbEntity
  8
1
  6
CONTINUOUS
 62
           3
100
AcDbLine
 10
-356.991465019962
 20
412.891306971523
 11
-355.605824373906
 21
412.091306971523
  0
LINE
  5
A0
100
AcDbEntity
  8
1
  6
CONTINUOUS
 62
           3
100
AcDbLine
 10
-356.991465019962
 20
417.291306971523
 11
-355.605824373906
 21
418.091306971523
  0
LINE
  5
9F
100
AcDbEntity
  8
1
  6
CONTINUOUS
 62
           7
100
AcDbLine
 10
-354.991465019962
 20
418.88526289287
 11
-354.991465019962
 21
410.091306971523
  0
LINE
  5
9E
100
AcDbEntity
  8
1
  6
CONTINUOUS
 62
           7
100
AcDbLine
 10
-354.991465019962
 20
410.091306971523
 11
-349.391465019962
 21
410.091306971523
  0
LINE
  5
9D
100
AcDbEntity
  8
1
  6
CONTINUOUS
 62
           7
100
AcDbLine
 10
-349.391465019962
 20
410.091306971523
 11
-348.991465019962
 21
410.491306971523
  0
LINE
  5
9C
100
AcDbEntity
  8
1
  6
CONTINUOUS
 62
           7
100
AcDbLine
 10
-348.991465019962
 20
410.491306971523
 11
-348.991465019962
 21
419.691306971523
  0
LINE
  5
9B
100
AcDbEntity
  8
1
  6
CONTINUOUS
 62
           7
100
AcDbLine
 10
-348.991465019962
 20
419.691306971523
 11
-349.391465019962
 21
420.091306971523
  0
LINE
  5
9A
100
AcDbEntity
  8
1
  6
CONTINUOUS
 62
           7
100
AcDbLine
 10
-349.391465019962
 20
420.091306971523
 11
-353.707857395165
 21
420.091306971523
  0
LINE
  5
99
100
AcDbEntity
  8
1
  6
CONTINUOUS
 62
           7
100
AcDbLine
 10
-355.241465019962
 20
418.091306971523
 11
-356.069141906004
 21
418.091306971523
  0
LINE
  5
98
100
AcDbEntity
  8
1
  6
CONTINUOUS
 62
           7
100
AcDbLine
 10
-372.191465019962
 20
418.091306971523
 11
-372.991465019962
 21
417.291306971523
  0
LINE
  5
97
100
AcDbEntity
  8
1
  6
CONTINUOUS
 62
           7
100
AcDbLine
 10
-372.991465019962
 20
417.291306971523
 11
-372.991465019962
 21
412.891306971523
  0
LINE
  5
96
100
AcDbEntity
  8
1
  6
CONTINUOUS
 62
           7
100
AcDbLine
 10
-372.991465019962
 20
412.891306971523
 11
-372.191465019962
 21
412.091306971523
  0
LINE
  5
95
100
AcDbEntity
  8
1
  6
CONTINUOUS
 62
           7
100
AcDbLine
 10
-372.191465019962
 20
412.091306971523
 11
-355.241465019962
 21
412.091306971523
  0
LINE
  5
94
100
AcDbEntity
  8
1
  6
CONTINUOUS
 62
           7
100
AcDbLine
 10
-356.991465019962
 20
412.091306971523
 11
-356.991465019962
 21
417.535895683321
  0
LINE
  5
93
100
AcDbEntity
  8
1
  6
CONTINUOUS
 62
           7
100
AcDbLine
 10
-372.191465019962
 20
418.091306971523
 11
-372.191465019962
 21
412.091306971523
  0
LINE
  5
92
100
AcDbEntity
  8
1
  6
CONTINUOUS
 62
           7
100
AcDbLine
 10
-349.391465019962
 20
410.091306971523
 11
-349.391465019962
 21
420.091306971523
  0
LINE
  5
91
100
AcDbEntity
  8
1
  6
CONTINUOUS
 62
           3
100
AcDbLine
 10
-369.000798113534
 20
417.291306971523
 11
-372.991465019962
 21
417.291306971523
  0
LINE
  5
90
100
AcDbEntity
  8
1
  6
CONTINUOUS
 62
           7
100
AcDbLine
 10
-370.392655576822
 20
418.091306971523
 11
-372.191465019962
 21
418.091306971523
  0
LINE
  5
8F
100
AcDbEntity
  8
1
  6
CONTINUOUS
 62
           7
100
AcDbLine
 10
-371.891465019962
 20
437.341306333092
 11
-371.891465019962
 21
440.341306333092
  0
LINE
  5
8E
100
AcDbEntity
  8
1
  6
CONTINUOUS
 62
           7
100
AcDbLine
 10
-371.891465019962
 20
441.591306333092
 11
-374.691465019961
 21
441.591306333092
  0
LINE
  5
8D
100
AcDbEntity
  8
1
  6
CONTINUOUS
 62
           7
100
AcDbLine
 10
-374.691465019961
 20
441.591306333092
 11
-374.891465019962
 21
441.391306333092
  0
LINE
  5
8C
100
AcDbEntity
  8
1
  6
CONTINUOUS
 62
           7
100
AcDbLine
 10
-374.891465019962
 20
441.391306333092
 11
-374.891465019962
 21
436.291306333092
  0
LINE
  5
8B
100
AcDbEntity
  8
1
  6
CONTINUOUS
 62
           7
100
AcDbLine
 10
-374.891465019962
 20
436.291306333092
 11
-374.691465019961
 21
436.091306333092
  0
LINE
  5
8A
100
AcDbEntity
  8
1
  6
CONTINUOUS
 62
           7
100
AcDbLine
 10
-374.691465019961
 20
436.091306333092
 11
-371.891465019962
 21
436.091306333092
  0
LINE
  5
89
100
AcDbEntity
  8
1
  6
CONTINUOUS
 62
           7
100
AcDbLine
 10
-371.891465019962
 20
436.091306333092
 11
-371.891465019962
 21
437.241306333092
  0
LINE
  5
88
100
AcDbEntity
  8
1
  6
CONTINUOUS
 62
           7
100
AcDbLine
 10
-371.891465019962
 20
440.441306333092
 11
-371.891465019962
 21
441.591306333092
  0
LINE
  5
87
100
AcDbEntity
  8
1
  6
CONTINUOUS
 62
           7
100
AcDbLine
 10
-374.691465019961
 20
441.591306333092
 11
-374.691465019961
 21
436.091306333092
  0
LINE
  5
86
100
AcDbEntity
  8
1
  6
DASH_CENTER
 62
           3
100
AcDbLine
 10
-369.773559897348
 20
367.991306971523
 11
-362.528283293748
 21
367.991306971523
  0
LINE
  5
85
100
AcDbEntity
  8
1
  6
DASH_CENTER
 62
           3
100
AcDbLine
 10
-366.191465019962
 20
371.455527322489
 11
-366.191465019962
 21
364.383790278256
  0
LINE
  5
84
100
AcDbEntity
  8
1
  6
PHANTOM
 62
           3
100
AcDbLine
 10
-363.363037895215
 20
367.991306971523
 11
-366.191465019962
 21
370.819734096269
  0
LINE
  5
83
100
AcDbEntity
  8
1
  6
PHANTOM
 62
           3
100
AcDbLine
 10
-369.019892144708
 20
367.991306971523
 11
-366.191465019962
 21
370.819734096269
  0
LINE
  5
82
100
AcDbEntity
  8
1
  6
PHANTOM
 62
           3
100
AcDbLine
 10
-369.019892144708
 20
367.991306971523
 11
-366.191465019962
 21
365.162879846777
  0
LINE
  5
81
100
AcDbEntity
  8
1
  6
PHANTOM
 62
           3
100
AcDbLine
 10
-366.191465019962
 20
365.162879846777
 11
-363.363037895215
 21
367.991306971523
  0
LINE
  5
80
100
AcDbEntity
  8
1
  6
CONTINUOUS
 62
           7
100
AcDbLine
 10
-401.519777821921
 20
398.841306971523
 11
-400.798089985433
 21
400.091306971523
  0
LINE
  5
7F
100
AcDbEntity
  8
1
  6
CONTINUOUS
 62
           7
100
AcDbLine
 10
-400.798089985433
 20
400.091306971523
 11
-401.519777821921
 21
401.341306971523
  0
LINE
  5
7E
100
AcDbEntity
  8
1
  6
CONTINUOUS
 62
           7
100
AcDbLine
 10
-401.519777821921
 20
401.341306971523
 11
-402.963153494895
 21
401.341306971523
  0
LINE
  5
7D
100
AcDbEntity
  8
1
  6
CONTINUOUS
 62
           7
100
AcDbLine
 10
-402.963153494895
 20
401.341306971523
 11
-403.684841331382
 21
400.091306971523
  0
LINE
  5
7C
100
AcDbEntity
  8
1
  6
CONTINUOUS
 62
           7
100
AcDbLine
 10
-403.684841331382
 20
400.091306971523
 11
-402.963153494895
 21
398.841306971523
  0
LINE
  5
7B
100
AcDbEntity
  8
1
  6
CONTINUOUS
 62
           7
100
AcDbLine
 10
-402.963153494895
 20
398.841306971523
 11
-401.519777821921
 21
398.841306971523
  0
LINE
  5
7A
100
AcDbEntity
  8
1
  6
CONTINUOUS
 62
           7
100
AcDbLine
 10
-406.182981176227
 20
418.74461881582
 11
-406.182981176227
 21
420.187994488795
  0
LINE
  5
79
100
AcDbEntity
  8
1
  6
CONTINUOUS
 62
           7
100
AcDbLine
 10
-406.182981176227
 20
420.187994488795
 11
-407.432981176227
 21
420.909682325282
  0
LINE
  5
78
100
AcDbEntity
  8
1
  6
CONTINUOUS
 62
           7
100
AcDbLine
 10
-407.432981176227
 20
420.909682325282
 11
-408.682981176227
 21
420.187994488795
  0
LINE
  5
77
100
AcDbEntity
  8
1
  6
CONTINUOUS
 62
           7
100
AcDbLine
 10
-408.682981176227
 20
420.187994488795
 11
-408.682981176227
 21
418.74461881582
  0
LINE
  5
76
100
AcDbEntity
  8
1
  6
CONTINUOUS
 62
           7
100
AcDbLine
 10
-408.682981176227
 20
418.74461881582
 11
-407.432981176227
 21
418.022930979333
  0
LINE
  5
75
100
AcDbEntity
  8
1
  6
CONTINUOUS
 62
           7
100
AcDbLine
 10
-407.432981176227
 20
418.022930979333
 11
-406.182981176227
 21
418.74461881582
  0
LINE
  5
74
100
AcDbEntity
  8
1
  6
CONTINUOUS
 62
           7
100
AcDbLine
 10
-420.173089666218
 20
433.649790815273
 11
-420.894777502705
 21
434.899790815273
  0
LINE
  5
73
100
AcDbEntity
  8
1
  6
CONTINUOUS
 62
           7
100
AcDbLine
 10
-420.894777502705
 20
434.899790815273
 11
-422.338153175679
 21
434.899790815273
  0
LINE
  5
72
100
AcDbEntity
  8
1
  6
CONTINUOUS
 62
           7
100
AcDbLine
 10
-422.338153175679
 20
434.899790815273
 11
-423.059841012166
 21
433.649790815273
  0
LINE
  5
71
100
AcDbEntity
  8
1
  6
CONTINUOUS
 62
           7
100
AcDbLine
 10
-423.059841012166
 20
433.649790815273
 11
-422.338153175679
 21
432.399790815273
  0
LINE
  5
70
100
AcDbEntity
  8
1
  6
CONTINUOUS
 62
           7
100
AcDbLine
 10
-422.338153175679
 20
432.399790815273
 11
-420.894777502705
 21
432.399790815273
  0
LINE
  5
6F
100
AcDbEntity
  8
1
  6
CONTINUOUS
 62
           7
100
AcDbLine
 10
-420.894777502705
 20
432.399790815273
 11
-420.173089666218
 21
433.649790815273
  0
LINE
  5
6E
100
AcDbEntity
  8
1
  6
CONTINUOUS
 62
           7
100
AcDbLine
 10
-439.741465019977
 20
438.119618496605
 11
-439.741465019977
 21
439.562994169579
  0
LINE
  5
6D
100
AcDbEntity
  8
1
  6
CONTINUOUS
 62
           7
100
AcDbLine
 10
-440.991465019977
 20
437.397930660118
 11
-439.741465019977
 21
438.119618496605
  0
LINE
  5
6C
100
AcDbEntity
  8
1
  6
CONTINUOUS
 62
           7
100
AcDbLine
 10
-442.241465019977
 20
438.119618496605
 11
-440.991465019977
 21
437.397930660118
  0
LINE
  5
6B
100
AcDbEntity
  8
1
  6
CONTINUOUS
 62
           7
100
AcDbLine
 10
-442.241465019977
 20
439.562994169579
 11
-442.241465019977
 21
438.119618496605
  0
LINE
  5
6A
100
AcDbEntity
  8
1
  6
CONTINUOUS
 62
           7
100
AcDbLine
 10
-440.991465019977
 20
440.284682006066
 11
-442.241465019977
 21
439.562994169579
  0
LINE
  5
69
100
AcDbEntity
  8
1
  6
CONTINUOUS
 62
           7
100
AcDbLine
 10
-439.741465019977
 20
439.562994169579
 11
-440.991465019977
 21
440.284682006066
  0
LINE
  5
68
100
AcDbEntity
  8
1
  6
CONTINUOUS
 62
           7
100
AcDbLine
 10
-459.644776864275
 20
434.899790815273
 11
-461.088152537249
 21
434.899790815273
  0
LINE
  5
67
100
AcDbEntity
  8
1
  6
CONTINUOUS
 62
           7
100
AcDbLine
 10
-461.088152537249
 20
434.899790815273
 11
-461.809840373736
 21
433.649790815273
  0
LINE
  5
66
100
AcDbEntity
  8
1
  6
CONTINUOUS
 62
           7
100
AcDbLine
 10
-461.809840373736
 20
433.649790815273
 11
-461.088152537249
 21
432.399790815273
  0
LINE
  5
65
100
AcDbEntity
  8
1
  6
CONTINUOUS
 62
           7
100
AcDbLine
 10
-461.088152537249
 20
432.399790815273
 11
-459.644776864275
 21
432.399790815273
  0
LINE
  5
64
100
AcDbEntity
  8
1
  6
CONTINUOUS
 62
           7
100
AcDbLine
 10
-459.644776864275
 20
432.399790815273
 11
-458.923089027788
 21
433.649790815273
  0
LINE
  5
63
100
AcDbEntity
  8
1
  6
CONTINUOUS
 62
           7
100
AcDbLine
 10
-458.923089027788
 20
433.649790815273
 11
-459.644776864275
 21
434.899790815273
  0
LINE
  5
62
100
AcDbEntity
  8
1
  6
CONTINUOUS
 62
           7
100
AcDbLine
 10
-474.549948863727
 20
420.909682325282
 11
-475.799948863727
 21
420.187994488795
  0
LINE
  5
61
100
AcDbEntity
  8
1
  6
CONTINUOUS
 62
           7
100
AcDbLine
 10
-475.799948863727
 20
420.187994488795
 11
-475.799948863727
 21
418.744618815821
  0
LINE
  5
60
100
AcDbEntity
  8
1
  6
CONTINUOUS
 62
           7
100
AcDbLine
 10
-475.799948863727
 20
418.744618815821
 11
-474.549948863727
 21
418.022930979334
  0
LINE
  5
5F
100
AcDbEntity
  8
1
  6
CONTINUOUS
 62
           7
100
AcDbLine
 10
-474.549948863727
 20
418.022930979334
 11
-473.299948863727
 21
418.744618815821
  0
LINE
  5
5E
100
AcDbEntity
  8
1
  6
CONTINUOUS
 62
           7
100
AcDbLine
 10
-473.299948863727
 20
418.744618815821
 11
-473.299948863727
 21
420.187994488795
  0
LINE
  5
5D
100
AcDbEntity
  8
1
  6
CONTINUOUS
 62
           7
100
AcDbLine
 10
-473.299948863727
 20
420.187994488795
 11
-474.549948863727
 21
420.909682325282
  0
LINE
  5
5C
100
AcDbEntity
  8
1
  6
CONTINUOUS
 62
           7
100
AcDbLine
 10
-480.463152218034
 20
401.341306971523
 11
-481.184840054521
 21
400.091306971523
  0
LINE
  5
5B
100
AcDbEntity
  8
1
  6
CONTINUOUS
 62
           7
100
AcDbLine
 10
-481.184840054521
 20
400.091306971523
 11
-480.463152218034
 21
398.841306971523
  0
LINE
  5
5A
100
AcDbEntity
  8
1
  6
CONTINUOUS
 62
           7
100
AcDbLine
 10
-480.463152218034
 20
398.841306971523
 11
-479.01977654506
 21
398.841306971523
  0
LINE
  5
59
100
AcDbEntity
  8
1
  6
CONTINUOUS
 62
           7
100
AcDbLine
 10
-479.01977654506
 20
398.841306971523
 11
-478.298088708573
 21
400.091306971523
  0
LINE
  5
58
100
AcDbEntity
  8
1
  6
CONTINUOUS
 62
           7
100
AcDbLine
 10
-478.298088708573
 20
400.091306971523
 11
-479.01977654506
 21
401.341306971523
  0
LINE
  5
57
100
AcDbEntity
  8
1
  6
CONTINUOUS
 62
           7
100
AcDbLine
 10
-479.01977654506
 20
401.341306971523
 11
-480.463152218034
 21
401.341306971523
  0
LINE
  5
56
100
AcDbEntity
  8
1
  6
CONTINUOUS
 62
           7
100
AcDbLine
 10
-475.799948863727
 20
381.437995127225
 11
-475.799948863727
 21
379.994619454251
  0
LINE
  5
55
100
AcDbEntity
  8
1
  6
CONTINUOUS
 62
           7
100
AcDbLine
 10
-475.799948863727
 20
379.994619454251
 11
-474.549948863727
 21
379.272931617764
  0
LINE
  5
54
100
AcDbEntity
  8
1
  6
CONTINUOUS
 62
           7
100
AcDbLine
 10
-474.549948863727
 20
379.272931617764
 11
-473.299948863727
 21
379.994619454251
  0
LINE
  5
53
100
AcDbEntity
  8
1
  6
CONTINUOUS
 62
           7
100
AcDbLine
 10
-473.299948863727
 20
379.994619454251
 11
-473.299948863727
 21
381.437995127225
  0
LINE
  5
52
100
AcDbEntity
  8
1
  6
CONTINUOUS
 62
           7
100
AcDbLine
 10
-473.299948863727
 20
381.437995127225
 11
-474.549948863727
 21
382.159682963712
  0
LINE
  5
51
100
AcDbEntity
  8
1
  6
CONTINUOUS
 62
           7
100
AcDbLine
 10
-474.549948863727
 20
382.159682963712
 11
-475.799948863727
 21
381.437995127225
  0
LINE
  5
50
100
AcDbEntity
  8
1
  6
CONTINUOUS
 62
           7
100
AcDbLine
 10
-461.809840373736
 20
366.532823127773
 11
-461.088152537249
 21
365.282823127773
  0
LINE
  5
4F
100
AcDbEntity
  8
1
  6
CONTINUOUS
 62
           7
100
AcDbLine
 10
-461.088152537249
 20
365.282823127773
 11
-459.644776864275
 21
365.282823127773
  0
LINE
  5
4E
100
AcDbEntity
  8
1
  6
CONTINUOUS
 62
           7
100
AcDbLine
 10
-459.644776864275
 20
365.282823127773
 11
-458.923089027788
 21
366.532823127773
  0
LINE
  5
4D
100
AcDbEntity
  8
1
  6
CONTINUOUS
 62
           7
100
AcDbLine
 10
-458.923089027788
 20
366.532823127773
 11
-459.644776864275
 21
367.782823127773
  0
LINE
  5
4C
100
AcDbEntity
  8
1
  6
CONTINUOUS
 62
           7
100
AcDbLine
 10
-459.644776864275
 20
367.782823127773
 11
-461.088152537249
 21
367.782823127773
  0
LINE
  5
4B
100
AcDbEntity
  8
1
  6
CONTINUOUS
 62
           7
100
AcDbLine
 10
-461.088152537249
 20
367.782823127773
 11
-461.809840373736
 21
366.532823127773
  0
LINE
  5
4A
100
AcDbEntity
  8
1
  6
CONTINUOUS
 62
           7
100
AcDbLine
 10
-442.241465019977
 20
360.619619773466
 11
-440.991465019977
 21
359.897931936979
  0
LINE
  5
49
100
AcDbEntity
  8
1
  6
CONTINUOUS
 62
           7
100
AcDbLine
 10
-440.991465019977
 20
359.897931936979
 11
-439.741465019977
 21
360.619619773466
  0
LINE
  5
48
100
AcDbEntity
  8
1
  6
CONTINUOUS
 62
           7
100
AcDbLine
 10
-439.741465019977
 20
360.619619773466
 11
-439.741465019977
 21
362.06299544644
  0
LINE
  5
47
100
AcDbEntity
  8
1
  6
CONTINUOUS
 62
           7
100
AcDbLine
 10
-439.741465019977
 20
362.06299544644
 11
-440.991465019977
 21
362.784683282927
  0
LINE
  5
46
100
AcDbEntity
  8
1
  6
CONTINUOUS
 62
           7
100
AcDbLine
 10
-440.991465019977
 20
362.784683282927
 11
-442.241465019977
 21
362.06299544644
  0
LINE
  5
45
100
AcDbEntity
  8
1
  6
CONTINUOUS
 62
           7
100
AcDbLine
 10
-442.241465019977
 20
362.06299544644
 11
-442.241465019977
 21
360.619619773466
  0
LINE
  5
44
100
AcDbEntity
  8
1
  6
CONTINUOUS
 62
           7
100
AcDbLine
 10
-422.338153175679
 20
365.282823127773
 11
-420.894777502705
 21
365.282823127773
  0
LINE
  5
43
100
AcDbEntity
  8
1
  6
CONTINUOUS
 62
           7
100
AcDbLine
 10
-420.894777502705
 20
365.282823127773
 11
-420.173089666218
 21
366.532823127773
  0
LINE
  5
42
100
AcDbEntity
  8
1
  6
CONTINUOUS
 62
           7
100
AcDbLine
 10
-420.173089666218
 20
366.532823127773
 11
-420.894777502705
 21
367.782823127773
  0
LINE
  5
41
100
AcDbEntity
  8
1
  6
CONTINUOUS
 62
           7
100
AcDbLine
 10
-420.894777502705
 20
367.782823127773
 11
-422.338153175679
 21
367.782823127773
  0
LINE
  5
40
100
AcDbEntity
  8
1
  6
CONTINUOUS
 62
           7
100
AcDbLine
 10
-422.338153175679
 20
367.782823127773
 11
-423.059841012166
 21
366.532823127773
  0
LINE
  5
3F
100
AcDbEntity
  8
1
  6
CONTINUOUS
 62
           7
100
AcDbLine
 10
-423.059841012166
 20
366.532823127773
 11
-422.338153175679
 21
365.282823127773
  0
LINE
  5
3E
100
AcDbEntity
  8
1
  6
CONTINUOUS
 62
           7
100
AcDbLine
 10
-407.432981176227
 20
379.272931617764
 11
-406.182981176227
 21
379.994619454251
  0
LINE
  5
3D
100
AcDbEntity
  8
1
  6
CONTINUOUS
 62
           7
100
AcDbLine
 10
-406.182981176227
 20
379.994619454251
 11
-406.182981176227
 21
381.437995127225
  0
LINE
  5
3C
100
AcDbEntity
  8
1
  6
CONTINUOUS
 62
           7
100
AcDbLine
 10
-406.182981176227
 20
381.437995127225
 11
-407.432981176227
 21
382.159682963712
  0
LINE
  5
3B
100
AcDbEntity
  8
1
  6
CONTINUOUS
 62
           7
100
AcDbLine
 10
-407.432981176227
 20
382.159682963712
 11
-408.682981176227
 21
381.437995127225
  0
LINE
  5
3A
100
AcDbEntity
  8
1
  6
CONTINUOUS
 62
           7
100
AcDbLine
 10
-408.682981176227
 20
381.437995127225
 11
-408.682981176227
 21
379.994619454251
  0
LINE
  5
39
100
AcDbEntity
  8
1
  6
CONTINUOUS
 62
           7
100
AcDbLine
 10
-408.682981176227
 20
379.994619454251
 11
-407.432981176227
 21
379.272931617764
  0
LINE
  5
38
100
AcDbEntity
  8
1
  6
DASH_CENTER
 62
           3
100
AcDbLine
 10
-440.991465019977
 20
446.399568756896
 11
-440.991465019977
 21
353.783045186149
  0
LINE
  5
37
100
AcDbEntity
  8
1
  6
DASH_CENTER
 62
           3
100
AcDbLine
 10
-308.232964995104
 20
352.091320099839
 11
-343.399176370032
 21
352.091320099839
  0
LINE
  5
36
100
AcDbEntity
  8
1
  6
DASH_CENTER
 62
           3
100
AcDbLine
 10
-297.991465799704
 20
400.091306777257
 11
-179.991465799705
 21
400.091306777257
  0
LINE
  5
35
100
AcDbEntity
  8
1
  6
DASH_CENTER
 62
           3
100
AcDbLine
 10
-238.991465330836
 20
459.091306971523
 11
-238.991465330836
 21
341.091306971523
  0
LINE
  5
34
100
AcDbEntity
  8
1
  6
PHANTOM
 62
           7
100
AcDbLine
 10
-300.324414931926
 20
324.890248337061
 11
-472.324414931926
 21
324.890248337061
  0
LINE
  5
33
100
AcDbEntity
  8
1
  6
PHANTOM
 62
           7
100
AcDbLine
 10
-288.324414931926
 20
252.890248337061
 11
-288.324414931926
 21
312.890248337061
  0
LINE
  5
32
100
AcDbEntity
  8
1
  6
PHANTOM
 62
           7
100
AcDbLine
 10
-472.324414931926
 20
240.890248337061
 11
-300.324414931926
 21
240.890248337061
  0
LINE
  5
31
100
AcDbEntity
  8
1
  6
PHANTOM
 62
           7
100
AcDbLine
 10
-484.324414931926
 20
312.890248337061
 11
-484.324414931926
 21
252.890248337061
  0
INSERT
  5
2D
100
AcDbEntity
  8
0
100
AcDbBlockReference
  2
WBG_025_F
 10
0.0
 20
0.0
  0
CIRCLE
  5
27D
100
AcDbEntity
  8
0
 62
           7
100
AcDbCircle
 10
-428.981031236065
 20
395.116422408242
 40
0.5
  0
HATCH
  5
27E
100
AcDbEntity
  8
0
 62
           7
100
AcDbHatch
 10
0.0
 20
0.0
 30
0.0
210
0.0
220
0.0
230
1.0
  2
SOLID
 70
           1
 71
           1
 91
        1
 92
        1
 93
        1
 72
           2
 10
-428.98103123606478
 20
395.11642240824239
 40
0.5
 50
-180.0
 51
180.0
 73
           1
 97
        1
330
27D
 75
           0
 76
           1
 98
        1
 10
0.0
 20
0.0
  0
CIRCLE
  5
280
100
AcDbEntity
  8
0
 62
           7
100
AcDbCircle
 10
-436.016580456696
 20
388.080873187611
 40
0.5
  0
HATCH
  5
281
100
AcDbEntity
  8
0
 62
           7
100
AcDbHatch
 10
0.0
 20
0.0
 30
0.0
210
0.0
220
0.0
230
1.0
  2
SOLID
 70
           1
 71
           1
 91
        1
 92
        1
 93
        1
 72
           2
 10
-436.01658045669649
 20
388.08087318761068
 40
0.5
 50
-180.0
 51
180.0
 73
           1
 97
        1
330
280
 75
           0
 76
           1
 98
        1
 10
0.0
 20
0.0
  0
CIRCLE
  5
283
100
AcDbEntity
  8
0
 62
           7
100
AcDbCircle
 10
-445.966349583257
 20
388.080873187611
 40
0.5
  0
HATCH
  5
284
100
AcDbEntity
  8
0
 62
           7
100
AcDbHatch
 10
0.0
 20
0.0
 30
0.0
210
0.0
220
0.0
230
1.0
  2
SOLID
 70
           1
 71
           1
 91
        1
 92
        1
 93
        1
 72
           2
 10
-445.96634958325728
 20
388.08087318761062
 40
0.5
 50
-180.0
 51
180.0
 73
           1
 97
        1
330
283
 75
           0
 76
           1
 98
        1
 10
0.0
 20
0.0
  0
CIRCLE
  5
286
100
AcDbEntity
  8
0
 62
           7
100
AcDbCircle
 10
-436.016580456697
 20
412.101740755435
 40
0.5
  0
HATCH
  5
287
100
AcDbEntity
  8
0
 62
           7
100
AcDbHatch
 10
0.0
 20
0.0
 30
0.0
210
0.0
220
0.0
230
1.0
  2
SOLID
 70
           1
 71
           1
 91
        1
 92
        1
 93
        1
 72
           2
 10
-436.01658045669672
 20
412.10174075543489
 40
0.5
 50
-180.0
 51
180.0
 73
           1
 97
        1
330
286
 75
           0
 76
           1
 98
        1
 10
0.0
 20
0.0
  0
CIRCLE
  5
289
100
AcDbEntity
  8
0
 62
           7
100
AcDbCircle
 10
-445.966349583258
 20
412.101740755435
 40
0.5
  0
HATCH
  5
28A
100
AcDbEntity
  8
0
 62
           7
100
AcDbHatch
 10
0.0
 20
0.0
 30
0.0
210
0.0
220
0.0
230
1.0
  2
SOLID
 70
           1
 71
           1
 91
        1
 92
        1
 93
        1
 72
           2
 10
-445.96634958325751
 20
412.10174075543489
 40
0.5
 50
-180.0
 51
180.0
 73
           1
 97
        1
330
289
 75
           0
 76
           1
 98
        1
 10
0.0
 20
0.0
  0
CIRCLE
  5
28C
100
AcDbEntity
  8
0
 62
           7
100
AcDbCircle
 10
-453.001898803889
 20
405.066191534803
 40
0.5
  0
HATCH
  5
28D
100
AcDbEntity
  8
0
 62
           7
100
AcDbHatch
 10
0.0
 20
0.0
 30
0.0
210
0.0
220
0.0
230
1.0
  2
SOLID
 70
           1
 71
           1
 91
        1
 92
        1
 93
        1
 72
           2
 10
-453.00189880388928
 20
405.06619153480312
 40
0.5
 50
-180.0
 51
180.0
 73
           1
 97
        1
330
28C
 75
           0
 76
           1
 98
        1
 10
0.0
 20
0.0
  0
CIRCLE
  5
28F
100
AcDbEntity
  8
0
 62
           7
100
AcDbCircle
 10
-451.598066737775
 20
410.697908689321
 40
0.5
  0
HATCH
  5
290
100
AcDbEntity
  8
0
 62
           7
100
AcDbHatch
 10
0.0
 20
0.0
 30
0.0
210
0.0
220
0.0
230
1.0
  2
SOLID
 70
           1
 71
           1
 91
        1
 92
        1
 93
        1
 72
           2
 10
-451.59806673777518
 20
410.69790868932103
 40
0.5
 50
-180.0
 51
180.0
 73
           1
 97
        1
330
28F
 75
           0
 76
           1
 98
        1
 10
0.0
 20
0.0
  0
CIRCLE
  5
292
100
AcDbEntity
  8
0
 62
           7
100
AcDbCircle
 10
-455.991465019977
 20
400.091306971523
 40
0.5
  0
HATCH
  5
293
100
AcDbEntity
  8
0
 62
           7
100
AcDbHatch
 10
0.0
 20
0.0
 30
0.0
210
0.0
220
0.0
230
1.0
  2
SOLID
 70
           1
 71
           1
 91
        1
 92
        1
 93
        1
 72
           2
 10
-455.991465019977
 20
400.09130697152278
 40
0.5
 50
-180.0
 51
180.0
 73
           1
 97
        1
330
292
 75
           0
 76
           1
 98
        1
 10
0.0
 20
0.0
  0
CIRCLE
  5
295
100
AcDbEntity
  8
0
 62
           7
100
AcDbCircle
 10
-451.598066737775
 20
389.484705253725
 40
0.5
  0
HATCH
  5
296
100
AcDbEntity
  8
0
 62
           7
100
AcDbHatch
 10
0.0
 20
0.0
 30
0.0
210
0.0
220
0.0
230
1.0
  2
SOLID
 70
           1
 71
           1
 91
        1
 92
        1
 93
        1
 72
           2
 10
-451.59806673777518
 20
389.4847052537246
 40
0.5
 50
-180.0
 51
180.0
 73
           1
 97
        1
330
295
 75
           0
 76
           1
 98
        1
 10
0.0
 20
0.0
  0
CIRCLE
  5
298
100
AcDbEntity
  8
0
 62
           7
100
AcDbCircle
 10
-440.991465019977
 20
385.091306971523
 40
0.5
  0
HATCH
  5
299
100
AcDbEntity
  8
0
 62
           7
100
AcDbHatch
 10
0.0
 20
0.0
 30
0.0
210
0.0
220
0.0
230
1.0
  2
SOLID
 70
           1
 71
           1
 91
        1
 92
        1
 93
        1
 72
           2
 10
-440.991465019977
 20
385.09130697152273
 40
0.5
 50
-180.0
 51
180.0
 73
           1
 97
        1
330
298
 75
           0
 76
           1
 98
        1
 10
0.0
 20
0.0
  0
CIRCLE
  5
29B
100
AcDbEntity
  8
0
 62
           7
100
AcDbCircle
 10
-430.384863302179
 20
389.484705253724
 40
0.5
  0
HATCH
  5
29C
100
AcDbEntity
  8
0
 62
           7
100
AcDbHatch
 10
0.0
 20
0.0
 30
0.0
210
0.0
220
0.0
230
1.0
  2
SOLID
 70
           1
 71
           1
 91
        1
 92
        1
 93
        1
 72
           2
 10
-430.38486330217881
 20
389.48470525372448
 40
0.5
 50
-180.0
 51
180.0
 73
           1
 97
        1
330
29B
 75
           0
 76
           1
 98
        1
 10
0.0
 20
0.0
  0
CIRCLE
  5
29E
100
AcDbEntity
  8
0
 62
           7
100
AcDbCircle
 10
-425.991465019977
 20
400.091306971523
 40
0.5
  0
HATCH
  5
29F
100
AcDbEntity
  8
0
 62
           7
100
AcDbHatch
 10
0.0
 20
0.0
 30
0.0
210
0.0
220
0.0
230
1.0
  2
SOLID
 70
           1
 71
           1
 91
        1
 92
        1
 93
        1
 72
           2
 10
-425.99146501997689
 20
400.09130697152278
 40
0.5
 50
-180.0
 51
180.0
 73
           1
 97
        1
330
29E
 75
           0
 76
           1
 98
        1
 10
0.0
 20
0.0
  0
CIRCLE
  5
2A1
100
AcDbEntity
  8
0
 62
           7
100
AcDbCircle
 10
-430.384863302179
 20
410.697908689321
 40
0.5
  0
HATCH
  5
2A2
100
AcDbEntity
  8
0
 62
           7
100
AcDbHatch
 10
0.0
 20
0.0
 30
0.0
210
0.0
220
0.0
230
1.0
  2
SOLID
 70
           1
 71
           1
 91
        1
 92
        1
 93
        1
 72
           2
 10
-430.3848633021787
 20
410.6979086893208
 40
0.5
 50
-180.0
 51
180.0
 73
           1
 97
        1
330
2A1
 75
           0
 76
           1
 98
        1
 10
0.0
 20
0.0
  0
CIRCLE
  5
2A4
100
AcDbEntity
  8
0
 62
           7
100
AcDbCircle
 10
-440.991465019977
 20
415.091306971523
 40
0.5
  0
HATCH
  5
2A5
100
AcDbEntity
  8
0
 62
           7
100
AcDbHatch
 10
0.0
 20
0.0
 30
0.0
210
0.0
220
0.0
230
1.0
  2
SOLID
 70
           1
 71
           1
 91
        1
 92
        1
 93
        1
 72
           2
 10
-440.991465019977
 20
415.09130697152278
 40
0.5
 50
-180.0
 51
180.0
 73
           1
 97
        1
330
2A4
 75
           0
 76
           1
 98
        1
 10
0.0
 20
0.0
  0
CIRCLE
  5
2A7
100
AcDbEntity
  8
0
 62
           7
100
AcDbCircle
 10
-428.981031236065
 20
405.066191534803
 40
0.5
  0
HATCH
  5
2A8
100
AcDbEntity
  8
0
 62
           7
100
AcDbHatch
 10
0.0
 20
0.0
 30
0.0
210
0.0
220
0.0
230
1.0
  2
SOLID
 70
           1
 71
           1
 91
        1
 92
        1
 93
        1
 72
           2
 10
-428.98103123606478
 20
405.06619153480329
 40
0.5
 50
-180.0
 51
180.0
 73
           1
 97
        1
330
2A7
 75
           0
 76
           1
 98
        1
 10
0.0
 20
0.0
  0
CIRCLE
  5
2AA
100
AcDbEntity
  8
0
 62
           7
100
AcDbCircle
 10
-453.001898803889
 20
395.116422408242
 40
0.5
  0
HATCH
  5
2AB
100
AcDbEntity
  8
0
 62
           7
100
AcDbHatch
 10
0.0
 20
0.0
 30
0.0
210
0.0
220
0.0
230
1.0
  2
SOLID
 70
           1
 71
           1
 91
        1
 92
        1
 93
        1
 72
           2
 10
-453.00189880388928
 20
395.11642240824227
 40
0.5
 50
-180.0
 51
180.0
 73
           1
 97
        1
330
2AA
 75
           0
 76
           1
 98
        1
 10
0.0
 20
0.0
  0
ENDSEC
  0
SECTION
  2
OBJECTS
  0
DICTIONARY
  5
19
100
AcDbDictionary
  3
ACAD_GROUP
350
1A
  3
ACAD_MLINESTYLE
350
1B
  0
DICTIONARY
  5
1A
102
{ACAD_REACTORS
330
19
102
}
100
AcDbDictionary
  0
DICTIONARY
  5
1B
102
{ACAD_REACTORS
330
19
102
}
100
AcDbDictionary
  3
STANDARD
350
1C
  0
MLINESTYLE
  5
1C
102
{ACAD_REACTORS
330
1B
102
}
100
AcDbMlineStyle
  2
STANDARD
 70
           0
  3

 62
           0
 51
90.0
 52
90.0
 71
           2
 49
0.5
 62
         256
  6
BYLAYER
 49
-0.5
 62
         256
  6
BYLAYER
  0
ENDSEC
  0
EOF
