  0
SECTION
  2
HEADER
  9
$ACADVER
  1
AC1014
  9
$ACADMAINTVER
 70
           0
  9
$DWGCODEPAGE
  3
DOS932
  9
$INSBASE
 10
0.0
 20
0.0
 30
0.0
  9
$EXTMIN
 10
1.000000000000E+20
 20
1.000000000000E+20
 30
1.000000000000E+20
  9
$EXTMAX
 10
-1.000000000000E+20
 20
-1.000000000000E+20
 30
-1.000000000000E+20
  9
$LIMMIN
 10
0.0
 20
0.0
  9
$LIMMAX
 10
0.0
 20
0.0
  9
$ORTHOMODE
 70
           0
  9
$REGENMODE
 70
           1
  9
$FILLMODE
 70
           1
  9
$QTEXTMODE
 70
           0
  9
$MIRRTEXT
 70
           1
  9
$DRAGMODE
 70
           2
  9
$LTSCALE
 40
1.0
  9
$OSMODE
 70
           0
  9
$ATTMODE
 70
           1
  9
$TEXTSIZE
 40
0.2
  9
$TRACEWID
 40
0.05
  9
$TEXTSTYLE
  7
STANDARD
  9
$CLAYER
  8
0
  9
$CELTYPE
  6
CONTINUOUS
  9
$CECOLOR
 62
         256
  9
$CELTSCALE
 40
1.0
  9
$DELOBJ
 70
           1
  9
$DISPSILH
 70
           0
  9
$DIMSCALE
 40
1.0
  9
$DIMASZ
 40
0.18
  9
$DIMEXO
 40
0.0625
  9
$DIMDLI
 40
0.38
  9
$DIMRND
 40
0.0
  9
$DIMDLE
 40
0.0
  9
$DIMEXE
 40
0.18
  9
$DIMTP
 40
0.0
  9
$DIMTM
 40
0.0
  9
$DIMTXT
 40
0.18
  9
$DIMCEN
 40
0.09
  9
$DIMTSZ
 40
0.0
  9
$DIMTOL
 70
           0
  9
$DIMLIM
 70
           0
  9
$DIMTIH
 70
           1
  9
$DIMTOH
 70
           1
  9
$DIMSE1
 70
           0
  9
$DIMSE2
 70
           0
  9
$DIMTAD
 70
           0
  9
$DIMZIN
 70
           0
  9
$DIMBLK
  1

  9
$DIMASO
 70
           1
  9
$DIMSHO
 70
           1
  9
$DIMPOST
  1

  9
$DIMAPOST
  1

  9
$DIMALT
 70
           0
  9
$DIMALTD
 70
           2
  9
$DIMALTF
 40
25.4
  9
$DIMLFAC
 40
1.0
  9
$DIMTOFL
 70
           0
  9
$DIMTVP
 40
0.0
  9
$DIMTIX
 70
           0
  9
$DIMSOXD
 70
           0
  9
$DIMSAH
 70
           0
  9
$DIMBLK1
  1

  9
$DIMBLK2
  1

  9
$DIMSTYLE
  2
STANDARD
  9
$DIMCLRD
 70
           0
  9
$DIMCLRE
 70
           0
  9
$DIMCLRT
 70
           0
  9
$DIMTFAC
 40
1.0
  9
$DIMGAP
 40
0.09
  9
$DIMJUST
 70
           0
  9
$DIMSD1
 70
           0
  9
$DIMSD2
 70
           0
  9
$DIMTOLJ
 70
           1
  9
$DIMTZIN
 70
           0
  9
$DIMALTZ
 70
           0
  9
$DIMALTTZ
 70
           0
  9
$DIMFIT
 70
           3
  9
$DIMUPT
 70
           0
  9
$DIMUNIT
 70
           2
  9
$DIMDEC
 70
           4
  9
$DIMTDEC
 70
           4
  9
$DIMALTU
 70
           2
  9
$DIMALTTD
 70
           2
  9
$DIMTXSTY
  7
STANDARD
  9
$DIMAUNIT
 70
           0
  9
$LUNITS
 70
           2
  9
$LUPREC
 70
           4
  9
$SKETCHINC
 40
0.1
  9
$FILLETRAD
 40
0.0
  9
$AUNITS
 70
           0
  9
$AUPREC
 70
           0
  9
$MENU
  1
acad
  9
$ELEVATION
 40
0.0
  9
$PELEVATION
 40
0.0
  9
$THICKNESS
 40
0.0
  9
$LIMCHECK
 70
           0
  9
$BLIPMODE
 70
           1
  9
$CHAMFERA
 40
0.0
  9
$CHAMFERB
 40
0.0
  9
$CHAMFERC
 40
0.0
  9
$CHAMFERD
 40
0.0
  9
$SKPOLY
 70
           0
  9
$TDCREATE
 40
0.000000000
  9
$TDUPDATE
 40
0.000000000
  9
$TDINDWG
 40
0.0000000000
  9
$TDUSRTIMER
 40
0.0000000000
  9
$USRTIMER
 70
           1
  9
$ANGBASE
 50
0.0
  9
$ANGDIR
 70
           0
  9
$PDMODE
 70
           0
  9
$PDSIZE
 40
0.0
  9
$PLINEWID
 40
0.0
  9
$COORDS
 70
           0
  9
$SPLFRAME
 70
           0
  9
$SPLINETYPE
 70
           6
  9
$SPLINESEGS
 70
           8
  9
$ATTDIA
 70
           0
  9
$ATTREQ
 70
           1
  9
$HANDLING
 70
           1
  9
$HANDSEED
  5
286
  9
$SURFTAB1
 70
           6
  9
$SURFTAB2
 70
           6
  9
$SURFTYPE
 70
           6
  9
$SURFU
 70
           6
  9
$SURFV
 70
           6
  9
$UCSNAME
  2

  9
$UCSORG
 10
0.0
 20
0.0
 30
0.0
  9
$UCSXDIR
 10
1.0
 20
0.0
 30
0.0
  9
$UCSYDIR
 10
0.0
 20
1.0
 30
0.0
  9
$PUCSNAME
  2

  9
$PUCSORG
 10
0.0
 20
0.0
 30
0.0
  9
$PUCSXDIR
 10
1.0
 20
0.0
 30
0.0
  9
$PUCSYDIR
 10
0.0
 20
1.0
 30
0.0
  9
$USERI1
 70
           0
  9
$USERI2
 70
           0
  9
$USERI3
 70
           0
  9
$USERI4
 70
           0
  9
$USERI5
 70
           0
  9
$USERR1
 40
0.0
  9
$USERR2
 40
0.0
  9
$USERR3
 40
0.0
  9
$USERR4
 40
0.0
  9
$USERR5
 40
0.0
  9
$WORLDVIEW
 70
           1
  9
$SHADEDGE
 70
           3
  9
$SHADEDIF
 70
          70
  9
$TILEMODE
 70
           1
  9
$MAXACTVP
 70
          16
  9
$PINSBASE
 10
0.0
 20
0.0
 30
0.0
  9
$PLIMCHECK
 70
           0
  9
$PEXTMIN
 10
1.000000000000E+20
 20
1.000000000000E+20
 30
1.000000000000E+20
  9
$PEXTMAX
 10
-1.000000000000E+20
 20
-1.000000000000E+20
 30
-1.000000000000E+20
  9
$PLIMMIN
 10
0.0
 20
0.0
  9
$PLIMMAX
 10
12.0
 20
9.0
  9
$UNITMODE
 70
           0
  9
$VISRETAIN
 70
           0
  9
$PLINEGEN
 70
           1
  9
$PSLTSCALE
 70
           0
  9
$TREEDEPTH
 70
        3020
  9
$PICKSTYLE
 70
           1
  9
$CMLSTYLE
  2
STANDARD
  9
$CMLJUST
 70
           0
  9
$CMLSCALE
 40
1.0
  9
$PROXYGRAPHICS
 70
           0
  9
$MEASUREMENT
 70
           0
  0
ENDSEC
  0
SECTION
  2
CLASSES
  0
CLASS
  1
LWPOLYLINE
  2
AcDbPolyline
  3
"AutoCAD"
 90
        0
280
           0
281
           1
  0
CLASS
  1
IMAGE
  2
AcDbRasterImage
  3
ISM
 90
      127
280
           0
281
           1
  0
CLASS
  1
OLE2FRAME
  2
AcDbOle2Frame
  3
""
 90
        0
280
           0
281
           1
  0
CLASS
  1
HATCH
  2
AcDbHatch
  3
"ACAD_SEDONA"
 90
        0
280
           0
281
           1
  0
CLASS
  1
DICTIONARYVAR
  2
AcDbDictionaryVar
  3
"AutoCAD"
 90
        0
280
           0
281
           0
  0
CLASS
  1
RASTERVARIABLES
  2
AcDbRasterVariables
  3
ISM
 90
        0
280
           0
281
           0
  0
CLASS
  1
IMAGEDEF
  2
AcDbRasterImageDef
  3
ISM
 90
        0
280
           0
281
           0
  0
CLASS
  1
IMAGEDEF_REACTOR
  2
AcDbRasterImageDefReactor
  3
ISM
 90
        1
280
           0
281
           0
  0
CLASS
  1
IDBUFFER
  2
AcDbIdBuffer
  3
"Acad"
 90
        0
280
           0
281
           0
  0
CLASS
  1
SPATIAL_FILTER
  2
AcDbSpatialFilter
  3
"Acad"
 90
        0
280
           0
281
           0
  0
CLASS
  1
XRECORD
  2
AcDbXrecord
  3
"<Built In>"
 90
        0
280
           0
281
           0
  0
CLASS
  1
SORTENTSTABLE
  2
AcDbSortentsTable
  3
"AutoCAD"
 90
        0
280
           0
281
           0
  0
CLASS
  1
LAYER_INDEX
  2
AcDbLayerIndex
  3
"Acad"
 90
        0
280
           0
281
           0
  0
CLASS
  1
SPATIAL_INDEX
  2
AcDbSpatialIndex
  3
"Acad"
 90
        0
280
           0
281
           0
  0
CLASS
  1
OBJECT_PTR
  2
CAseDLPNTableRecord
  3
"ASE-LPNTableRecord"
 90
        1
280
           0
281
           0
  0
CLASS
  1
LAYOUT
  2
AcDbLayout
  3
"AutoCAD 2000"
 90
        1
280
           0
281
           0
  0
CLASS
  1
PLOTSETTINGS
  2
AcDbPlotSettings
  3
"AutoCAD 2000"
 90
        1
280
           0
281
           0
  0
CLASS
  1
ACDBDICTIONARYWDFLT
  2
AcDbDictionaryWithDefault
  3
"AutoCAD 2000"
 90
        1
280
           0
281
           0
  0
CLASS
  1
ACDBPLACEHOLDER
  2
AcDbPlaceHolder
  3
"AutoCAD 2000"
 90
        1
280
           0
281
           0
  0
CLASS
  1
VBA_PROJECT
  2
AcDbVbaProject
  3
"acadvba"
 90
        1
280
           0
281
           0
  0
CLASS
  1
WIPEOUT
  2
AcDbWipeout
  3
WipeOut|AutoCAD Express Tool|expresstools@autodesk.com
 90
      127
280
           0
281
           1
  0
CLASS
  1
WIPEOUTVARIABLES
  2
AcDbWipeoutVariables
  3
WipeOut|AutoCAD Express Tool|expresstools@autodesk.com
 90
        0
280
           0
281
           0
  0
CLASS
  1
RTEXT
  2
RText
  3
RText|AutoCAD Express Tool|expresstools@autodesk.com
 90
        0
280
           0
281
           1
  0
CLASS
  1
ARCALIGNEDTEXT
  2
AcDbArcAlignedText
  3
ATEXT|AutoCAD Express Tool|expresstools@autodesk.com
 90
        0
280
           0
281
           1
  0
ENDSEC
  0
SECTION
  2
TABLES
  0
TABLE
  2
VPORT
  5
7
100
AcDbSymbolTable
 70
           1
  0
VPORT
  5
15
100
AcDbSymbolTableRecord
100
AcDbViewportTableRecord
  2
*ACTIVE
 70
           0
 10
0.0
 20
0.0
 11
1.0
 21
1.0
 12
6.591288
 22
4.579184
 13
0.0
 23
0.0
 14
1.0
 24
1.0
 15
0.0
 25
0.0
 16
0.0
 26
0.0
 36
1.0
 17
0.0
 27
0.0
 37
0.0
 40
9.158369
 41
0.688564
 42
50.0
 43
0.0
 44
0.0
 50
0.0
 51
0.0
 71
           0
 72
         100
 73
           1
 74
           1
 75
           0
 76
           0
 77
           0
 78
           0
  0
ENDTAB
  0
TABLE
  2
LTYPE
  5
4
100
AcDbSymbolTable
 70
          10
  0
LTYPE
  5
11
100
AcDbSymbolTableRecord
100
AcDbLinetypeTableRecord
  2
BYBLOCK
 70
          64
  3

 72
          65
 73
           0
 40
0.0
  0
LTYPE
  5
12
100
AcDbSymbolTableRecord
100
AcDbLinetypeTableRecord
  2
BYLAYER
 70
          64
  3

 72
          65
 73
           0
 40
0.0
  0
LTYPE
  5
13
100
AcDbSymbolTableRecord
100
AcDbLinetypeTableRecord
  2
CONTINUOUS
 70
          64
  3
Solid line
 72
          65
 73
           0
 40
0.0
  0
LTYPE
  5
1D
100
AcDbSymbolTableRecord
100
AcDbLinetypeTableRecord
  2
DASHED
 70
          64
  3
Dashed
 72
          65
 73
           2
 40
15.0
 49
12.0
 74
           0
 49
-3.0
 74
           0
  0
LTYPE
  5
1E
100
AcDbSymbolTableRecord
100
AcDbLinetypeTableRecord
  2
DOTTED
 70
          64
  3
Dotted
 72
          65
 73
           2
 40
3.5
 49
0.5
 74
           0
 49
-3.0
 74
           0
  0
LTYPE
  5
1F
100
AcDbSymbolTableRecord
100
AcDbLinetypeTableRecord
  2
DOT_CENTER
 70
          64
  3
Dot_Center
 72
          65
 73
           4
 40
2.0
 49
1.25
 74
           0
 49
-0.25
 74
           0
 49
0.25
 74
           0
 49
-0.25
 74
           0
  0
LTYPE
  5
20
100
AcDbSymbolTableRecord
100
AcDbLinetypeTableRecord
  2
LONG_DASHED
 70
          64
  3
Long_Dashed
 72
          65
 73
           2
 40
2.0
 49
1.5
 74
           0
 49
-0.5
 74
           0
  0
LTYPE
  5
21
100
AcDbSymbolTableRecord
100
AcDbLinetypeTableRecord
  2
DASH_CENTER
 70
          64
  3
Dash_Center
 72
          65
 73
           4
 40
36.0
 49
24.0
 74
           0
 49
-3.0
 74
           0
 49
6.0
 74
           0
 49
-3.0
 74
           0
  0
LTYPE
  5
22
100
AcDbSymbolTableRecord
100
AcDbLinetypeTableRecord
  2
PHANTOM
 70
          64
  3
Phantom
 72
          65
 73
           6
 40
2.5
 49
1.25
 74
           0
 49
-0.25
 74
           0
 49
0.25
 74
           0
 49
-0.25
 74
           0
 49
0.25
 74
           0
 49
-0.25
 74
           0
  0
LTYPE
  5
23
100
AcDbSymbolTableRecord
100
AcDbLinetypeTableRecord
  2
CENTER_DASH_DASH
 70
          64
  3
Center_Dash_Dash
 72
          65
 73
           6
 40
22.0
 49
12.0
 74
           0
 49
-3.0
 74
           0
 49
0.5
 74
           0
 49
-3.0
 74
           0
 49
0.5
 74
           0
 49
-3.0
 74
           0
  0
ENDTAB
  0
TABLE
  2
LAYER
  5
2
100
AcDbSymbolTable
 70
           2
  0
LAYER
  5
14
100
AcDbSymbolTableRecord
100
AcDbLayerTableRecord
  2
0
 70
           0
 62
           7
  6
CONTINUOUS
  0
LAYER
  5
24
100
AcDbSymbolTableRecord
100
AcDbLayerTableRecord
  2
1
 70
           0
 62
           7
  6
CONTINUOUS
  0
ENDTAB
  0
TABLE
  2
STYLE
  5
3
100
AcDbSymbolTable
 70
           3
  0
STYLE
  5
17
100
AcDbSymbolTableRecord
100
AcDbTextStyleTableRecord
  2
STANDARD
 70
           0
 40
0.0
 41
1.0
 50
0.0
 71
           0
 42
0.0
  3
txt
  4

  0
STYLE
  5
278
100
AcDbSymbolTableRecord
100
AcDbTextStyleTableRecord
  2
CONVERTER_1
 70
           0
 40
0.0
 41
0.9
 50
0.0
 71
           0
 42
0.0
  3
txt.shx
  4

  0
STYLE
  5
27B
100
AcDbSymbolTableRecord
100
AcDbTextStyleTableRecord
  2
CONVERTER_2
 70
           0
 40
0.0
 41
0.81
 50
0.0
 71
           0
 42
0.0
  3
txt.shx
  4

  0
ENDTAB
  0
TABLE
  2
VIEW
  5
5
100
AcDbSymbolTable
 70
           0
  0
ENDTAB
  0
TABLE
  2
UCS
  5
6
100
AcDbSymbolTable
 70
           0
  0
ENDTAB
  0
TABLE
  2
APPID
  5
8
100
AcDbSymbolTable
 70
           1
  0
APPID
  5
16
100
AcDbSymbolTableRecord
100
AcDbRegAppTableRecord
  2
ACAD
 70
           0
  0
ENDTAB
  0
TABLE
  2
DIMSTYLE
  5
9
100
AcDbSymbolTable
 70
           1
  0
DIMSTYLE
105
18
100
AcDbSymbolTableRecord
100
AcDbDimStyleTableRecord
  2
STANDARD
 70
           0
  3

  4

  5

  6

  7

 40
1.0
 41
0.18
 42
0.0625
 43
0.38
 44
0.18
 45
0.0
 46
0.0
 47
0.0
 48
0.0
 71
           0
 72
           0
 73
           1
 74
           1
 75
           0
 76
           0
 77
           0
 78
           0
140
0.18
141
0.09
142
0.0
143
25.4
144
1.0
145
0.0
146
1.0
147
0.09
170
           0
171
           2
172
           0
173
           0
174
           0
175
           0
176
           0
177
           0
178
           0
270
           2
271
           4
272
           4
273
           2
274
           2
275
           0
280
           0
281
           0
282
           0
283
           1
284
           0
285
           0
286
           0
287
           0
288
           0
340
17
  0
ENDTAB
  0
TABLE
  2
BLOCK_RECORD
  5
1
100
AcDbSymbolTable
 70
           0
  0
BLOCK_RECORD
  5
A
100
AcDbSymbolTableRecord
100
AcDbBlockTableRecord
  2
*MODEL_SPACE
  0
BLOCK_RECORD
  5
B
100
AcDbSymbolTableRecord
100
AcDbBlockTableRecord
  2
*PAPER_SPACE
  0
ENDTAB
  0
ENDSEC
  0
SECTION
  2
BLOCKS
  0
BLOCK
  5
D
100
AcDbEntity
  8
0
100
AcDbBlockBegin
  2
*MODEL_SPACE
 70
           0
 10
0.0
 20
0.0
 30
0.0
  3
*MODEL_SPACE
  1

  0
ENDBLK
  5
E
100
AcDbEntity
  8
0
100
AcDbBlockEnd
  0
BLOCK
  5
F
100
AcDbEntity
 67
           1
  8
0
100
AcDbBlockBegin
  2
*PAPER_SPACE
 70
           0
 10
0.0
 20
0.0
 30
0.0
  3
*PAPER_SPACE
  1

  0
ENDBLK
  5
10
100
AcDbEntity
 67
           1
  8
0
100
AcDbBlockEnd
  0
ENDSEC
  0
SECTION
  2
ENTITIES
  0
TEXT
  5
284
100
AcDbEntity
  8
1
 62
           7
100
AcDbText
 10
-438.813214124662
 20
563.577818596133
 40
5.0
  1
The reference drawing
 41
0.81
  7
CONVERTER_2
100
AcDbText
  0
TEXT
  5
283
100
AcDbEntity
  8
1
 62
           3
100
AcDbText
 10
-440.324414931926
 20
555.558542922429
 40
3.5
  1
All speciffcations and dimensions mentioned in the drawing are
 41
0.81
  7
CONVERTER_2
100
AcDbText
  0
TEXT
  5
282
100
AcDbEntity
  8
1
 62
           3
100
AcDbText
 10
-440.324414931926
 20
548.598542922429
 40
3.5
  1
subject to change without notification.
 41
0.81
  7
CONVERTER_2
100
AcDbText
  0
TEXT
  5
281
100
AcDbEntity
  8
1
 62
           3
100
AcDbText
 10
-440.324414931926
 20
541.638542922429
 40
3.5
  1
This drawing itself is also a property of Harmonic Drive Systems,Ins.
 41
0.81
  7
CONVERTER_2
100
AcDbText
  0
TEXT
  5
280
100
AcDbEntity
  8
1
 62
           3
100
AcDbText
 10
-440.324414931926
 20
530.718542922429
 40
3.5
  1
Harmonic Drive Systems,Inc.
 41
0.81
  7
CONVERTER_2
100
AcDbText
  0
TEXT
  5
27F
100
AcDbEntity
  8
1
 62
           3
100
AcDbText
 10
-440.324414931926
 20
523.758542922429
 40
3.5
  1
Ichigo Omori Bldg.,4F 6-25-3 Minami-Oi, Shinagawa-ku, Tokyo 140-0013
 41
0.81
  7
CONVERTER_2
100
AcDbText
  0
TEXT
  5
27E
100
AcDbEntity
  8
1
 62
           3
100
AcDbText
 10
-440.324414931926
 20
516.798542922429
 40
3.5
  1
JAPAN
 41
0.81
  7
CONVERTER_2
100
AcDbText
  0
TEXT
  5
27D
100
AcDbEntity
  8
1
 62
           3
100
AcDbText
 10
-440.324414931926
 20
509.838542922429
 40
3.5
  1
Tel.03-5471-7800 Fax.03-5471-7811
 41
0.81
  7
CONVERTER_2
100
AcDbText
  0
TEXT
  5
27C
100
AcDbEntity
  8
1
 62
           3
100
AcDbText
 10
-440.324414931926
 20
502.878542922429
 40
3.5
  1
http://www.hds.co.jp
 41
0.81
  7
CONVERTER_2
100
AcDbText
  0
MTEXT
  5
27A
100
AcDbEntity
  8
1
 62
           3
100
AcDbMText
 10
-208.45850325335
 20
570.738412874268
 30
0.0
 40
3.5
 41
0.0
 71
           5
 72
           1
  1
CSG-17-50-2UH-LW-SP-A
  7
CONVERTER_1
  0
MTEXT
  5
279
100
AcDbEntity
  8
1
 62
           3
100
AcDbMText
 10
-213.95850325335
 20
559.988412874268
 30
0.0
 40
4.5
 41
0.0
 71
           6
 72
           1
  1
C007622
  7
CONVERTER_1
  0
LEADER
  5
277
100
AcDbEntity
  8
1
  6
DASH_CENTER
 62
           7
100
AcDbLeader
  3
Standard
 71
           0
 73
           3
 74
           0
 75
           0
 40
0.0
 76
           2
 10
-419.132714884201
 20
623.54382246633
 30
0.0
 10
-419.032714884201
 20
623.54382246633
 30
0.0
 77
           7
  0
LEADER
  5
274
100
AcDbEntity
  8
1
  6
DASH_CENTER
 62
           7
100
AcDbLeader
  3
Standard
 71
           0
 73
           3
 74
           0
 75
           0
 40
0.0
 76
           2
 10
-406.142333827434
 20
623.54382246633
 30
0.0
 10
-406.042333827434
 20
623.54382246633
 30
0.0
 77
           7
  0
LEADER
  5
271
100
AcDbEntity
  8
1
  6
DASH_CENTER
 62
           7
100
AcDbLeader
  3
Standard
 71
           0
 73
           3
 74
           0
 75
           0
 40
0.0
 76
           2
 10
-412.637524355817
 20
634.79382246633
 30
0.0
 10
-412.537524355817
 20
634.79382246633
 30
0.0
 77
           7
  0
LEADER
  5
26E
100
AcDbEntity
  8
1
  6
DASH_CENTER
 62
           7
100
AcDbLeader
  3
Standard
 71
           0
 73
           3
 74
           0
 75
           0
 40
0.0
 76
           2
 10
-407.812919081782
 20
619.110107909373
 30
0.0
 10
-407.712919081782
 20
619.110107909373
 30
0.0
 77
           7
  0
LEADER
  5
26B
100
AcDbEntity
  8
1
  6
DASH_CENTER
 62
           7
100
AcDbLeader
  3
Standard
 71
           0
 73
           3
 74
           0
 75
           0
 40
0.0
 76
           2
 10
-417.387524355817
 20
619.066581130378
 30
0.0
 10
-417.287524355817
 20
619.066581130378
 30
0.0
 77
           7
  0
LEADER
  5
268
100
AcDbEntity
  8
1
  6
DASH_CENTER
 62
           7
100
AcDbLeader
  3
Standard
 71
           0
 73
           3
 74
           0
 75
           0
 40
0.0
 76
           2
 10
-422.137524355817
 20
627.29382246633
 30
0.0
 10
-422.037524355817
 20
627.29382246633
 30
0.0
 77
           7
  0
LEADER
  5
265
100
AcDbEntity
  8
1
  6
DASH_CENTER
 62
           7
100
AcDbLeader
  3
Standard
 71
           0
 73
           3
 74
           0
 75
           0
 40
0.0
 76
           2
 10
-417.387524355817
 20
635.521063802282
 30
0.0
 10
-417.287524355817
 20
635.521063802282
 30
0.0
 77
           7
  0
LEADER
  5
262
100
AcDbEntity
  8
1
  6
DASH_CENTER
 62
           7
100
AcDbLeader
  3
Standard
 71
           0
 73
           3
 74
           0
 75
           0
 40
0.0
 76
           2
 10
-407.887524355817
 20
635.521063802282
 30
0.0
 10
-407.787524355817
 20
635.521063802282
 30
0.0
 77
           7
  0
LEADER
  5
25F
100
AcDbEntity
  8
1
  6
DASH_CENTER
 62
           7
100
AcDbLeader
  3
Standard
 71
           0
 73
           3
 74
           0
 75
           0
 40
0.0
 76
           2
 10
-403.137524355817
 20
627.29382246633
 30
0.0
 10
-403.037524355817
 20
627.29382246633
 30
0.0
 77
           7
  0
LEADER
  5
25C
100
AcDbEntity
  8
1
  6
DASH_CENTER
 62
           7
100
AcDbLeader
  3
Standard
 71
           0
 73
           3
 74
           0
 75
           0
 40
0.0
 76
           2
 10
-406.142333827434
 20
631.04382246633
 30
0.0
 10
-406.042333827434
 20
631.04382246633
 30
0.0
 77
           7
  0
LEADER
  5
259
100
AcDbEntity
  8
1
  6
DASH_CENTER
 62
           7
100
AcDbLeader
  3
Standard
 71
           0
 73
           3
 74
           0
 75
           0
 40
0.0
 76
           2
 10
-419.132714884201
 20
631.04382246633
 30
0.0
 10
-419.032714884201
 20
631.04382246633
 30
0.0
 77
           7
  0
LEADER
  5
256
100
AcDbEntity
  8
1
  6
DASH_CENTER
 62
           7
100
AcDbLeader
  3
Standard
 71
           0
 73
           3
 74
           0
 75
           0
 40
0.0
 76
           2
 10
-412.637524355817
 20
619.79382246633
 30
0.0
 10
-412.537524355817
 20
619.79382246633
 30
0.0
 77
           7
  0
ARC
  5
253
100
AcDbEntity
  8
1
  6
CONTINUOUS
 62
           7
100
AcDbCircle
 10
-351.037524355817
 20
621.89382246633
 40
0.4
100
AcDbArc
 50
0.0
 51
90.0
  0
ARC
  5
252
100
AcDbEntity
  8
1
  6
CONTINUOUS
 62
           7
100
AcDbCircle
 10
-351.037524355817
 20
632.69382246633
 40
0.4
100
AcDbArc
 50
-90.0
 51
0.0
  0
ARC
  5
251
100
AcDbEntity
  8
1
  6
CONTINUOUS
 62
           7
100
AcDbCircle
 10
-337.537524355817
 20
595.39382246633
 40
0.4
100
AcDbArc
 50
0.0
 51
90.0
  0
ARC
  5
250
100
AcDbEntity
  8
1
  6
CONTINUOUS
 62
           7
100
AcDbCircle
 10
-328.737524355817
 20
602.89382246633
 40
0.4
100
AcDbArc
 50
90.0
 51
180.0
  0
ARC
  5
24F
100
AcDbEntity
  8
1
  6
CONTINUOUS
 62
           7
100
AcDbCircle
 10
-329.237524355817
 20
600.59382246633
 40
0.1
100
AcDbArc
 50
-90.0
 51
0.0
  0
ARC
  5
24E
100
AcDbEntity
  8
1
  6
CONTINUOUS
 62
           7
100
AcDbCircle
 10
-329.237524355817
 20
597.69382246633
 40
0.1
100
AcDbArc
 50
0.0
 51
90.0
  0
ARC
  5
24D
100
AcDbEntity
  8
1
  6
CONTINUOUS
 62
           7
100
AcDbCircle
 10
-330.537524355817
 20
597.89382246633
 40
0.1
100
AcDbArc
 50
180.0
 51
-90.0
  0
ARC
  5
24C
100
AcDbEntity
  8
1
  6
CONTINUOUS
 62
           7
100
AcDbCircle
 10
-330.537524355817
 20
600.39382246633
 40
0.1
100
AcDbArc
 50
90.0
 51
180.0
  0
ARC
  5
24B
100
AcDbEntity
  8
1
  6
CONTINUOUS
 62
           7
100
AcDbCircle
 10
-337.537524355817
 20
659.19382246633
 40
0.4
100
AcDbArc
 50
-90.0
 51
0.0
  0
ARC
  5
24A
100
AcDbEntity
  8
1
  6
CONTINUOUS
 62
           7
100
AcDbCircle
 10
-328.737524355817
 20
651.69382246633
 40
0.4
100
AcDbArc
 50
180.0
 51
-90.0
  0
ARC
  5
249
100
AcDbEntity
  8
1
  6
CONTINUOUS
 62
           7
100
AcDbCircle
 10
-321.437524354043
 20
613.69382246633
 40
0.1
100
AcDbArc
 50
90.0
 51
180.0
  0
ARC
  5
248
100
AcDbEntity
  8
1
  6
CONTINUOUS
 62
           7
100
AcDbCircle
 10
-321.437524354043
 20
616.39382246633
 40
0.1
100
AcDbArc
 50
180.0
 51
-90.0
  0
ARC
  5
247
100
AcDbEntity
  8
1
  6
CONTINUOUS
 62
           7
100
AcDbCircle
 10
-308.337524353765
 20
589.59382246633
 40
0.2
100
AcDbArc
 50
0.0
 51
90.0
  0
ARC
  5
246
100
AcDbEntity
  8
1
  6
CONTINUOUS
 62
           7
100
AcDbCircle
 10
-360.437524355817
 20
597.29382246633
 40
0.8
100
AcDbArc
 50
180.0
 51
-90.000000000008
  0
ARC
  5
245
100
AcDbEntity
  8
1
  6
CONTINUOUS
 62
           7
100
AcDbCircle
 10
-363.937524355817
 20
604.44382246633
 40
0.905538513814
100
AcDbArc
 50
173.659808254096
 51
-96.340191745908
  0
ARC
  5
244
100
AcDbEntity
  8
1
  6
CONTINUOUS
 62
           7
100
AcDbCircle
 10
-363.937524355817
 20
650.14382246633
 40
0.905538513814
100
AcDbArc
 50
96.340191745906
 51
-173.65980825411
  0
ARC
  5
243
100
AcDbEntity
  8
1
  6
CONTINUOUS
 62
           7
100
AcDbCircle
 10
-360.437524355817
 20
657.29382246633
 40
0.8
100
AcDbArc
 50
90.000000000008
 51
180.0
  0
ARC
  5
242
100
AcDbEntity
  8
1
  6
PHANTOM
 62
           3
100
AcDbCircle
 10
-355.199046724732
 20
606.04382246633
 40
0.2
100
AcDbArc
 50
-44.999999999988
 51
44.999999999988
  0
ARC
  5
241
100
AcDbEntity
  8
1
  6
PHANTOM
 62
           3
100
AcDbCircle
 10
-357.037524355817
 20
604.205344835245
 40
0.2
100
AcDbArc
 50
-135.000000000023
 51
-45.0
  0
ARC
  5
240
100
AcDbEntity
  8
1
  6
PHANTOM
 62
           3
100
AcDbCircle
 10
-358.876001986902
 20
606.04382246633
 40
0.2
100
AcDbArc
 50
135.0
 51
-135.0
  0
ARC
  5
23F
100
AcDbEntity
  8
1
  6
PHANTOM
 62
           3
100
AcDbCircle
 10
-357.037524355817
 20
607.882300097415
 40
0.2
100
AcDbArc
 50
45.000000000023
 51
135.0
  0
ARC
  5
23E
100
AcDbEntity
  8
1
  6
CONTINUOUS
 62
           7
100
AcDbCircle
 10
-347.837524355817
 20
634.09382246633
 40
0.2
100
AcDbArc
 50
0.0
 51
90.0
  0
CIRCLE
  5
23D
100
AcDbEntity
  8
1
  6
CONTINUOUS
 62
           7
100
AcDbCircle
 10
-262.168367981679
 20
607.042383113683
 40
1.7
  0
CIRCLE
  5
23C
100
AcDbEntity
  8
1
  6
DASHED
 62
           4
100
AcDbCircle
 10
-262.168367981679
 20
607.042383113683
 40
3.25
  0
CIRCLE
  5
23B
100
AcDbEntity
  8
1
  6
CONTINUOUS
 62
           7
100
AcDbCircle
 10
-233.528507791589
 20
618.905401628887
 40
1.7
  0
CIRCLE
  5
23A
100
AcDbEntity
  8
1
  6
DASHED
 62
           4
100
AcDbCircle
 10
-233.528507791589
 20
618.905401628887
 40
3.25
  0
CIRCLE
  5
239
100
AcDbEntity
  8
1
  6
DASHED
 62
           4
100
AcDbCircle
 10
-241.529947144235
 20
627.29382246633
 40
1.45
  0
CIRCLE
  5
238
100
AcDbEntity
  8
1
  6
DASHED
 62
           4
100
AcDbCircle
 10
-266.029947144235
 20
627.29382246633
 40
1.45
  0
CIRCLE
  5
237
100
AcDbEntity
  8
1
  6
CONTINUOUS
 62
           7
100
AcDbCircle
 10
-274.031386496884
 20
635.682243303773
 40
1.7
  0
CIRCLE
  5
236
100
AcDbEntity
  8
1
  6
DASHED
 62
           4
100
AcDbCircle
 10
-274.031386496884
 20
635.682243303773
 40
3.25
  0
CIRCLE
  5
235
100
AcDbEntity
  8
1
  6
CONTINUOUS
 62
           7
100
AcDbCircle
 10
-245.391526306794
 20
647.545261818978
 40
1.7
  0
CIRCLE
  5
234
100
AcDbEntity
  8
1
  6
DASHED
 62
           4
100
AcDbCircle
 10
-245.391526306794
 20
647.545261818978
 40
3.25
  0
CIRCLE
  5
233
100
AcDbEntity
  8
1
  6
CONTINUOUS
 62
           7
100
AcDbCircle
 10
-253.779947144236
 20
591.79382246633
 40
2.25
  0
CIRCLE
  5
232
100
AcDbEntity
  8
1
  6
CONTINUOUS
 62
           7
100
AcDbCircle
 10
-218.279947144236
 20
627.29382246633
 40
2.25
  0
CIRCLE
  5
231
100
AcDbEntity
  8
1
  6
CONTINUOUS
 62
           7
100
AcDbCircle
 10
-228.677656412114
 20
652.396113198453
 40
2.25
  0
CIRCLE
  5
230
100
AcDbEntity
  8
1
  6
CONTINUOUS
 62
           7
100
AcDbCircle
 10
-253.779947144236
 20
662.79382246633
 40
2.25
  0
CIRCLE
  5
22F
100
AcDbEntity
  8
1
  6
CONTINUOUS
 62
           7
100
AcDbCircle
 10
-278.882237876359
 20
652.396113198453
 40
2.25
  0
CIRCLE
  5
22E
100
AcDbEntity
  8
1
  6
CONTINUOUS
 62
           7
100
AcDbCircle
 10
-289.279947144236
 20
627.29382246633
 40
2.25
  0
CIRCLE
  5
22D
100
AcDbEntity
  8
1
  6
CONTINUOUS
 62
           7
100
AcDbCircle
 10
-278.882237876359
 20
602.191531734208
 40
2.25
  0
CIRCLE
  5
22C
100
AcDbEntity
  8
1
  6
CONTINUOUS
 62
           7
100
AcDbCircle
 10
-253.779947144236
 20
627.29382246633
 40
5.0
  0
CIRCLE
  5
22B
100
AcDbEntity
  8
1
  6
CONTINUOUS
 62
           7
100
AcDbCircle
 10
-228.677656412114
 20
602.191531734208
 40
2.25
  0
CIRCLE
  5
22A
100
AcDbEntity
  8
1
  6
CONTINUOUS
 62
           7
100
AcDbCircle
 10
-400.946181404727
 20
634.04382246633
 40
2.0
  0
CIRCLE
  5
229
100
AcDbEntity
  8
1
  6
CONTINUOUS
 62
           3
100
AcDbCircle
 10
-400.946181404727
 20
634.04382246633
 40
2.5
  0
CIRCLE
  5
228
100
AcDbEntity
  8
1
  6
CONTINUOUS
 62
           7
100
AcDbCircle
 10
-412.637524355817
 20
640.79382246633
 40
2.0
  0
CIRCLE
  5
227
100
AcDbEntity
  8
1
  6
CONTINUOUS
 62
           3
100
AcDbCircle
 10
-412.637524355817
 20
640.79382246633
 40
2.5
  0
CIRCLE
  5
226
100
AcDbEntity
  8
1
  6
CONTINUOUS
 62
           7
100
AcDbCircle
 10
-424.328867306907
 20
634.04382246633
 40
2.0
  0
CIRCLE
  5
225
100
AcDbEntity
  8
1
  6
CONTINUOUS
 62
           3
100
AcDbCircle
 10
-424.328867306907
 20
634.04382246633
 40
2.5
  0
CIRCLE
  5
224
100
AcDbEntity
  8
1
  6
CONTINUOUS
 62
           7
100
AcDbCircle
 10
-424.328867306907
 20
620.54382246633
 40
2.0
  0
CIRCLE
  5
223
100
AcDbEntity
  8
1
  6
CONTINUOUS
 62
           3
100
AcDbCircle
 10
-424.328867306907
 20
620.54382246633
 40
2.5
  0
CIRCLE
  5
222
100
AcDbEntity
  8
1
  6
CONTINUOUS
 62
           7
100
AcDbCircle
 10
-412.637524355817
 20
613.79382246633
 40
2.0
  0
CIRCLE
  5
221
100
AcDbEntity
  8
1
  6
CONTINUOUS
 62
           3
100
AcDbCircle
 10
-412.637524355817
 20
613.79382246633
 40
2.5
  0
CIRCLE
  5
220
100
AcDbEntity
  8
1
  6
CONTINUOUS
 62
           7
100
AcDbCircle
 10
-400.946181404727
 20
620.54382246633
 40
2.0
  0
CIRCLE
  5
21F
100
AcDbEntity
  8
1
  6
DASH_CENTER
 62
           3
100
AcDbCircle
 10
-412.637524355817
 20
627.29382246633
 40
7.5
  0
CIRCLE
  5
21E
100
AcDbEntity
  8
1
  6
DASH_CENTER
 62
           3
100
AcDbCircle
 10
-412.637524355817
 20
627.29382246633
 40
7.5
  0
CIRCLE
  5
21D
100
AcDbEntity
  8
1
  6
CONTINUOUS
 62
           7
100
AcDbCircle
 10
-412.637524355817
 20
627.29382246633
 40
24.75
  0
CIRCLE
  5
21C
100
AcDbEntity
  8
1
  6
DASH_CENTER
 62
           3
100
AcDbCircle
 10
-412.637524355817
 20
627.29382246633
 40
28.0
  0
CIRCLE
  5
21B
100
AcDbEntity
  8
1
  6
DASH_CENTER
 62
           3
100
AcDbCircle
 10
-412.637524355817
 20
627.29382246633
 40
13.5
  0
CIRCLE
  5
21A
100
AcDbEntity
  8
1
  6
CONTINUOUS
 62
           3
100
AcDbCircle
 10
-400.946181404727
 20
620.54382246633
 40
2.5
  0
CIRCLE
  5
219
100
AcDbEntity
  8
1
  6
DASH_CENTER
 62
           3
100
AcDbCircle
 10
-412.637524355817
 20
627.29382246633
 40
9.5
  0
CIRCLE
  5
218
100
AcDbEntity
  8
1
  6
CONTINUOUS
 62
           7
100
AcDbCircle
 10
-412.637524355817
 20
627.29382246633
 40
31.5
  0
CIRCLE
  5
217
100
AcDbEntity
  8
1
  6
CONTINUOUS
 62
           7
100
AcDbCircle
 10
-412.637524355817
 20
627.29382246633
 40
31.0
  0
CIRCLE
  5
216
100
AcDbEntity
  8
1
  6
CONTINUOUS
 62
           7
100
AcDbCircle
 10
-412.637524355817
 20
627.29382246633
 40
23.5
  0
CIRCLE
  5
215
100
AcDbEntity
  8
1
  6
CONTINUOUS
 62
           7
100
AcDbCircle
 10
-412.637524355817
 20
627.29382246633
 40
19.0
  0
CIRCLE
  5
214
100
AcDbEntity
  8
1
  6
CONTINUOUS
 62
           7
100
AcDbCircle
 10
-412.637524355817
 20
627.29382246633
 40
5.0
  0
CIRCLE
  5
213
100
AcDbEntity
  8
1
  6
CONTINUOUS
 62
           7
100
AcDbCircle
 10
-412.637524355817
 20
627.29382246633
 40
3.5
  0
CIRCLE
  5
212
100
AcDbEntity
  8
1
  6
CONTINUOUS
 62
           7
100
AcDbCircle
 10
-412.637524355817
 20
627.29382246633
 40
18.0
  0
CIRCLE
  5
211
100
AcDbEntity
  8
1
  6
CONTINUOUS
 62
           7
100
AcDbCircle
 10
-412.637524355817
 20
627.29382246633
 40
16.9
  0
CIRCLE
  5
210
100
AcDbEntity
  8
1
  6
CONTINUOUS
 62
           7
100
AcDbCircle
 10
-253.779947144236
 20
627.29382246633
 40
16.8
  0
CIRCLE
  5
20F
100
AcDbEntity
  8
1
  6
CONTINUOUS
 62
           3
100
AcDbCircle
 10
-321.837524355817
 20
627.29382246633
 40
1.5
  0
CIRCLE
  5
20E
100
AcDbEntity
  8
1
  6
CONTINUOUS
 62
           7
100
AcDbCircle
 10
-321.837524355817
 20
627.29382246633
 40
1.2
  0
CIRCLE
  5
20D
100
AcDbEntity
  8
1
  6
CONTINUOUS
 62
           7
100
AcDbCircle
 10
-384.637524355817
 20
627.29382246633
 40
2.75
  0
CIRCLE
  5
20C
100
AcDbEntity
  8
1
  6
CONTINUOUS
 62
           7
100
AcDbCircle
 10
-384.637524355817
 20
627.29382246633
 40
2.403589838486
  0
CIRCLE
  5
20B
100
AcDbEntity
  8
1
  6
CONTINUOUS
 62
           7
100
AcDbCircle
 10
-392.838534482594
 20
647.092812339553
 40
2.75
  0
CIRCLE
  5
20A
100
AcDbEntity
  8
1
  6
CONTINUOUS
 62
           7
100
AcDbCircle
 10
-392.838534482594
 20
647.092812339553
 40
2.403589838486
  0
CIRCLE
  5
209
100
AcDbEntity
  8
1
  6
CONTINUOUS
 62
           7
100
AcDbCircle
 10
-412.637524355817
 20
655.29382246633
 40
2.75
  0
CIRCLE
  5
208
100
AcDbEntity
  8
1
  6
CONTINUOUS
 62
           7
100
AcDbCircle
 10
-412.637524355817
 20
655.29382246633
 40
2.403589838486
  0
CIRCLE
  5
207
100
AcDbEntity
  8
1
  6
CONTINUOUS
 62
           7
100
AcDbCircle
 10
-432.436514229041
 20
647.092812339553
 40
2.75
  0
CIRCLE
  5
206
100
AcDbEntity
  8
1
  6
CONTINUOUS
 62
           7
100
AcDbCircle
 10
-432.436514229041
 20
647.092812339553
 40
2.403589838486
  0
CIRCLE
  5
205
100
AcDbEntity
  8
1
  6
CONTINUOUS
 62
           7
100
AcDbCircle
 10
-440.637524355817
 20
627.29382246633
 40
2.75
  0
CIRCLE
  5
204
100
AcDbEntity
  8
1
  6
CONTINUOUS
 62
           7
100
AcDbCircle
 10
-440.637524355817
 20
627.29382246633
 40
2.403589838486
  0
CIRCLE
  5
203
100
AcDbEntity
  8
1
  6
CONTINUOUS
 62
           7
100
AcDbCircle
 10
-432.436514229041
 20
607.494832593107
 40
2.75
  0
CIRCLE
  5
202
100
AcDbEntity
  8
1
  6
CONTINUOUS
 62
           7
100
AcDbCircle
 10
-432.436514229041
 20
607.494832593107
 40
2.403589838486
  0
CIRCLE
  5
201
100
AcDbEntity
  8
1
  6
CONTINUOUS
 62
           7
100
AcDbCircle
 10
-412.637524355817
 20
599.29382246633
 40
2.75
  0
CIRCLE
  5
200
100
AcDbEntity
  8
1
  6
CONTINUOUS
 62
           7
100
AcDbCircle
 10
-412.637524355817
 20
599.29382246633
 40
2.403589838486
  0
CIRCLE
  5
1FF
100
AcDbEntity
  8
1
  6
CONTINUOUS
 62
           7
100
AcDbCircle
 10
-392.838534482594
 20
607.494832593107
 40
2.75
  0
CIRCLE
  5
1FE
100
AcDbEntity
  8
1
  6
CONTINUOUS
 62
           7
100
AcDbCircle
 10
-392.838534482594
 20
607.494832593107
 40
2.403589838486
  0
CIRCLE
  5
1FD
100
AcDbEntity
  8
1
  6
CONTINUOUS
 62
           7
100
AcDbCircle
 10
-220.982223740086
 20
613.708560617369
 40
2.980384757729
  0
CIRCLE
  5
1FC
100
AcDbEntity
  8
1
  6
CONTINUOUS
 62
           7
100
AcDbCircle
 10
-220.982223740086
 20
613.708560617369
 40
3.5
  0
CIRCLE
  5
1FB
100
AcDbEntity
  8
1
  6
CONTINUOUS
 62
           7
100
AcDbCircle
 10
-240.194685295276
 20
660.091545870481
 40
2.980384757729
  0
CIRCLE
  5
1FA
100
AcDbEntity
  8
1
  6
CONTINUOUS
 62
           7
100
AcDbCircle
 10
-240.194685295276
 20
660.091545870481
 40
3.5
  0
CIRCLE
  5
1F9
100
AcDbEntity
  8
1
  6
CONTINUOUS
 62
           7
100
AcDbCircle
 10
-286.577670548387
 20
640.879084315291
 40
2.980384757729
  0
CIRCLE
  5
1F8
100
AcDbEntity
  8
1
  6
CONTINUOUS
 62
           7
100
AcDbCircle
 10
-286.577670548387
 20
640.879084315291
 40
3.5
  0
CIRCLE
  5
1F7
100
AcDbEntity
  8
1
  6
CONTINUOUS
 62
           7
100
AcDbCircle
 10
-267.365208993197
 20
594.496099062179
 40
2.980384757729
  0
CIRCLE
  5
1F6
100
AcDbEntity
  8
1
  6
CONTINUOUS
 62
           7
100
AcDbCircle
 10
-267.365208993197
 20
594.496099062179
 40
3.5
  0
ARC
  5
1F5
100
AcDbEntity
  8
1
  6
PHANTOM
 62
           7
100
AcDbCircle
 10
-264.324414931926
 20
504.890248337061
 40
12.0
100
AcDbArc
 50
-90.0
 51
0.0
  0
ARC
  5
1F4
100
AcDbEntity
  8
1
  6
PHANTOM
 62
           7
100
AcDbCircle
 10
-264.324414931926
 20
564.890248337061
 40
12.0
100
AcDbArc
 50
0.0
 51
90.0
  0
ARC
  5
1F3
100
AcDbEntity
  8
1
  6
PHANTOM
 62
           7
100
AcDbCircle
 10
-436.324414931926
 20
564.890248337061
 40
12.0
100
AcDbArc
 50
90.0
 51
180.0
  0
ARC
  5
1F2
100
AcDbEntity
  8
1
  6
PHANTOM
 62
           7
100
AcDbCircle
 10
-436.324414931926
 20
504.890248337061
 40
12.0
100
AcDbArc
 50
180.0
 51
-90.0
  0
ARC
  5
1F1
100
AcDbEntity
  8
1
  6
CONTINUOUS
 62
           3
100
AcDbCircle
 10
-354.15478256173
 20
613.317100082244
 40
7.000000000001
100
AcDbArc
 50
47.238465026761
 51
112.29451275146
  0
ARC
  5
1F0
100
AcDbEntity
  8
1
  6
CONTINUOUS
 62
           3
100
AcDbCircle
 10
-340.242174535446
 20
615.082299309477
 40
4.000000000002
100
AcDbArc
 50
-140.374636329723
 51
-53.472261499912
  0
ARC
  5
1EF
100
AcDbEntity
  8
1
  6
CONTINUOUS
 62
           3
100
AcDbCircle
 10
-333.740717911359
 20
605.010868677874
 40
8.000000000001
100
AcDbArc
 50
34.371015591834
 51
121.002544066023
  0
ARC
  5
1EE
100
AcDbEntity
  8
1
  6
CONTINUOUS
 62
           3
100
AcDbCircle
 10
-338.204953293079
 20
599.453967007825
 40
5.000000000002
100
AcDbArc
 50
-77.673293065279
 51
-20.478358935398
  0
ARC
  5
1ED
100
AcDbEntity
  8
1
  6
CONTINUOUS
 62
           3
100
AcDbCircle
 10
-321.295164341146
 20
593.285352808023
 40
13.0
100
AcDbArc
 50
146.743708419514
 51
160.126189226346
  0
ARC
  5
1EC
100
AcDbEntity
  8
1
  6
CONTINUOUS
 62
           3
100
AcDbCircle
 10
-328.914247556035
 20
598.08510004141
 40
4.000000000001
100
AcDbArc
 50
93.199867724262
 51
144.386493437353
  0
ARC
  5
1EB
100
AcDbEntity
  8
1
  6
CONTINUOUS
 62
           3
100
AcDbCircle
 10
-340.242174535446
 20
639.505345623184
 40
4.0
100
AcDbArc
 50
100.739118935282
 51
102.934525763958
  0
ARC
  5
1EA
100
AcDbEntity
  8
1
  6
CONTINUOUS
 62
           3
100
AcDbCircle
 10
-340.242174535446
 20
639.505345623184
 40
4.000000000002
100
AcDbArc
 50
53.472261499912
 51
100.739118935282
  0
ARC
  5
1E9
100
AcDbEntity
  8
1
  6
CONTINUOUS
 62
           3
100
AcDbCircle
 10
-346.26966208403
 20
600.116339178363
 40
22.322848482401
100
AcDbArc
 50
118.176744880303
 51
152.876214304246
  0
ARC
  5
1E8
100
AcDbEntity
  8
1
  6
DASH_CENTER
 62
           3
100
AcDbCircle
 10
-253.779947144236
 20
627.29382246633
 40
35.5
100
AcDbArc
 50
-86.367969261495
 51
-90.0
  0
ARC
  5
1E7
100
AcDbEntity
  8
1
  6
DASH_CENTER
 62
           3
100
AcDbCircle
 10
-253.779947144236
 20
627.29382246633
 40
35.5
100
AcDbArc
 50
-90.0
 51
-86.367969261495
  0
ARC
  5
1E6
100
AcDbEntity
  8
1
  6
CONTINUOUS
 62
           7
100
AcDbCircle
 10
-253.779947144236
 20
627.29382246633
 40
39.5
100
AcDbArc
 50
0.0
 51
101.25
  0
ARC
  5
1E5
100
AcDbEntity
  8
1
  6
CONTINUOUS
 62
           7
100
AcDbCircle
 10
-253.779947144236
 20
627.29382246633
 40
39.5
100
AcDbArc
 50
101.25
 51
-112.5
  0
ARC
  5
1E4
100
AcDbEntity
  8
1
  6
CONTINUOUS
 62
           7
100
AcDbCircle
 10
-253.779947144236
 20
627.29382246633
 40
39.5
100
AcDbArc
 50
-90.0
 51
0.0
  0
ARC
  5
1E3
100
AcDbEntity
  8
1
  6
CONTINUOUS
 62
           7
100
AcDbCircle
 10
-253.779947144236
 20
627.29382246633
 40
39.5
100
AcDbArc
 50
-112.5
 51
-90.0
  0
ARC
  5
1E2
100
AcDbEntity
  8
1
  6
DASH_CENTER
 62
           3
100
AcDbCircle
 10
-253.779947144236
 20
627.29382246633
 40
21.92
100
AcDbArc
 50
-90.0
 51
-103.997159312698
  0
ARC
  5
1E1
100
AcDbEntity
  8
1
  6
DASH_CENTER
 62
           3
100
AcDbCircle
 10
-253.779947144236
 20
627.29382246633
 40
21.92
100
AcDbArc
 50
-103.997159312698
 51
-90.0
  0
ARC
  5
1E0
100
AcDbEntity
  8
1
  6
DASHED
 62
           4
100
AcDbCircle
 10
-241.529947144235
 20
627.29382246633
 40
2.75
100
AcDbArc
 50
-90.0
 51
90.0
  0
ARC
  5
1DF
100
AcDbEntity
  8
1
  6
DASHED
 62
           4
100
AcDbCircle
 10
-266.029947144235
 20
627.29382246633
 40
2.75
100
AcDbArc
 50
89.999999999996
 51
-89.999999999996
  0
ARC
  5
1DE
100
AcDbEntity
  8
1
  6
DASHED
 62
           4
100
AcDbCircle
 10
-253.779947144236
 20
627.29382246633
 40
9.5
100
AcDbArc
 50
-23.445749870329
 51
21.434438237763
  0
ARC
  5
1DD
100
AcDbEntity
  8
1
  6
DASHED
 62
           4
100
AcDbCircle
 10
-253.779947144236
 20
627.29382246633
 40
9.5
100
AcDbArc
 50
156.366695286337
 51
-154.796924309115
  0
ARC
  5
1DC
100
AcDbEntity
  8
1
  6
CONTINUOUS
 62
           7
100
AcDbCircle
 10
-253.779947144236
 20
627.29382246633
 40
14.4
100
AcDbArc
 50
10.456394244001
 51
168.997903270226
  0
ARC
  5
1DB
100
AcDbEntity
  8
1
  6
CONTINUOUS
 62
           7
100
AcDbCircle
 10
-253.779947144236
 20
627.29382246633
 40
11.0
100
AcDbArc
 50
18.193978088997
 51
161.8806193421
  0
ARC
  5
1DA
100
AcDbEntity
  8
1
  6
DASHED
 62
           4
100
AcDbCircle
 10
-253.779947144236
 20
627.29382246633
 40
9.5
100
AcDbArc
 50
81.317696808417
 51
124.038968585837
  0
ARC
  5
1D9
100
AcDbEntity
  8
1
  6
CONTINUOUS
 62
           3
100
AcDbCircle
 10
-352.43934955579
 20
652.850057095889
 40
14.418701110416
100
AcDbArc
 50
-119.2131134491
 51
-66.786999697066
  0
ARC
  5
1D8
100
AcDbEntity
  8
1
  6
CONTINUOUS
 62
           3
100
AcDbCircle
 10
-376.229401521601
 20
584.851368901624
 40
43.0
100
AcDbArc
 50
40.069617052842
 51
51.399256161583
  0
ARC
  5
1D7
100
AcDbEntity
  8
1
  6
CONTINUOUS
 62
           3
100
AcDbCircle
 10
-333.740717911359
 20
649.576776254787
 40
8.000000000001
100
AcDbArc
 50
-121.002544066023
 51
-34.371015591835
  0
ARC
  5
1D6
100
AcDbEntity
  8
1
  6
CONTINUOUS
 62
           3
100
AcDbCircle
 10
-340.242174535446
 20
639.505345623184
 40
4.000000000002
100
AcDbArc
 50
102.934525763958
 51
140.374636329725
  0
ARC
  5
1D5
100
AcDbEntity
  8
1
  6
CONTINUOUS
 62
           3
100
AcDbCircle
 10
-352.225196376252
 20
650.864453411008
 40
12.523140623191
100
AcDbArc
 50
-64.105827833648
 51
-44.69573224841
  0
ARC
  5
1D4
100
AcDbEntity
  8
1
  6
CONTINUOUS
 62
           3
100
AcDbCircle
 10
-347.125437955889
 20
659.667596150734
 40
23.000000000001
100
AcDbArc
 50
-144.446110034349
 51
-122.479928098993
  0
ARC
  5
1D3
100
AcDbEntity
  8
1
  6
CONTINUOUS
 62
           7
100
AcDbCircle
 10
-253.779947144236
 20
627.29382246633
 40
11.0
100
AcDbArc
 50
-156.471770591755
 51
-22.283575594063
  0
ARC
  5
1D2
100
AcDbEntity
  8
1
  6
CONTINUOUS
 62
           7
100
AcDbCircle
 10
-253.779947144236
 20
627.29382246633
 40
14.4
100
AcDbArc
 50
-166.914167472669
 51
-15.211272330554
  0
LINE
  5
1D1
100
AcDbEntity
  8
1
  6
PHANTOM
 62
           7
100
AcDbLine
 10
-264.324414931926
 20
576.890248337061
 11
-436.324414931926
 21
576.890248337061
  0
LINE
  5
1D0
100
AcDbEntity
  8
1
  6
PHANTOM
 62
           7
100
AcDbLine
 10
-252.324414931926
 20
504.890248337061
 11
-252.324414931926
 21
564.890248337061
  0
LINE
  5
1CF
100
AcDbEntity
  8
1
  6
PHANTOM
 62
           7
100
AcDbLine
 10
-436.324414931926
 20
492.890248337061
 11
-264.324414931926
 21
492.890248337061
  0
LINE
  5
1CE
100
AcDbEntity
  8
1
  6
PHANTOM
 62
           7
100
AcDbLine
 10
-448.324414931926
 20
564.890248337061
 11
-448.324414931926
 21
504.890248337061
  0
LINE
  5
1CD
100
AcDbEntity
  8
1
  6
CONTINUOUS
 62
           7
100
AcDbLine
 10
-355.637524355817
 20
607.617229506669
 11
-355.637524355817
 21
620.158260566554
  0
LINE
  5
1CC
100
AcDbEntity
  8
1
  6
CONTINUOUS
 62
           7
100
AcDbLine
 10
-355.637524355817
 20
597.29382246633
 11
-355.637524355817
 21
604.58587890359
  0
LINE
  5
1CB
100
AcDbEntity
  8
1
  6
CONTINUOUS
 62
           7
100
AcDbLine
 10
-341.137524355817
 20
611.183793352169
 11
-341.137524355817
 21
595.94382246633
  0
LINE
  5
1CA
100
AcDbEntity
  8
1
  6
CONTINUOUS
 62
           7
100
AcDbLine
 10
-340.987524355817
 20
595.79382246633
 11
-340.987524355817
 21
611.15235609802
  0
LINE
  5
1C9
100
AcDbEntity
  8
1
  6
CONTINUOUS
 62
           7
100
AcDbLine
 10
-337.137524355817
 20
612.253914030409
 11
-337.137524355817
 21
595.39382246633
  0
LINE
  5
1C8
100
AcDbEntity
  8
1
  6
CONTINUOUS
 62
           7
100
AcDbLine
 10
-337.137524355817
 20
595.39382246633
 11
-337.137524355817
 21
588.29382246633
  0
LINE
  5
1C7
100
AcDbEntity
  8
1
  6
CONTINUOUS
 62
           7
100
AcDbLine
 10
-341.137524355817
 20
658.64382246633
 11
-341.137524355817
 21
643.403851580493
  0
LINE
  5
1C6
100
AcDbEntity
  8
1
  6
CONTINUOUS
 62
           7
100
AcDbLine
 10
-340.987524355817
 20
643.43528883464
 11
-340.987524355817
 21
658.79382246633
  0
LINE
  5
1C5
100
AcDbEntity
  8
1
  6
CONTINUOUS
 62
           7
100
AcDbLine
 10
-337.137524355817
 20
659.19382246633
 11
-337.137524355817
 21
642.333730902251
  0
LINE
  5
1C4
100
AcDbEntity
  8
1
  6
CONTINUOUS
 62
           7
100
AcDbLine
 10
-329.137524355817
 20
651.69382246633
 11
-329.137524355817
 21
643.033794588129
  0
LINE
  5
1C3
100
AcDbEntity
  8
1
  6
DASH_CENTER
 62
           3
100
AcDbLine
 10
-319.893508079437
 20
627.29382246633
 11
-318.411588004406
 21
627.29382246633
  0
LINE
  5
1C2
100
AcDbEntity
  8
1
  6
CONTINUOUS
 62
           7
100
AcDbLine
 10
-347.637524355817
 20
627.29382246633
 11
-347.637524355817
 21
630.79382246633
  0
LINE
  5
1C1
100
AcDbEntity
  8
1
  6
DASH_CENTER
 62
           3
100
AcDbLine
 10
-347.637524355817
 20
627.29382246633
 11
-319.893508079437
 21
627.29382246633
  0
LINE
  5
1C0
100
AcDbEntity
  8
1
  6
DASH_CENTER
 62
           3
100
AcDbLine
 10
-356.637524355817
 20
627.29382246633
 11
-347.637524355817
 21
627.29382246633
  0
LINE
  5
1BF
100
AcDbEntity
  8
1
  6
CONTINUOUS
 62
           7
100
AcDbLine
 10
-329.137524355817
 20
590.19382246633
 11
-329.137524355817
 21
588.29382246633
  0
LINE
  5
1BE
100
AcDbEntity
  8
1
  6
DASH_CENTER
 62
           3
100
AcDbLine
 10
-238.903128711043
 20
663.209639292706
 11
-241.486241879508
 21
656.973452448255
  0
LINE
  5
1BD
100
AcDbEntity
  8
1
  6
DASH_CENTER
 62
           3
100
AcDbLine
 10
-226.291171025609
 20
654.782598584957
 11
-231.064141798618
 21
650.009627811948
  0
LINE
  5
1BC
100
AcDbEntity
  8
1
  6
DASH_CENTER
 62
           3
100
AcDbLine
 10
-289.695763970613
 20
642.170640899523
 11
-283.459577126161
 21
639.587527731059
  0
LINE
  5
1BB
100
AcDbEntity
  8
1
  6
DASH_CENTER
 62
           3
100
AcDbLine
 10
-281.268723262863
 20
654.782598584957
 11
-276.495752489854
 21
650.009627811948
  0
LINE
  5
1BA
100
AcDbEntity
  8
1
  6
DASH_CENTER
 62
           3
100
AcDbLine
 10
-262.16883099093
 20
669.467589523669
 11
-255.326911044619
 21
635.070935175616
  0
LINE
  5
1B9
100
AcDbEntity
  8
1
  6
DASH_CENTER
 62
           3
100
AcDbLine
 10
-217.86413031786
 20
612.417004033137
 11
-224.100317162311
 21
615.000117201601
  0
LINE
  5
1B8
100
AcDbEntity
  8
1
  6
DASH_CENTER
 62
           3
100
AcDbLine
 10
-226.291171025609
 20
599.805046347703
 11
-231.064141798618
 21
604.578017120712
  0
LINE
  5
1B7
100
AcDbEntity
  8
1
  6
DASH_CENTER
 62
           3
100
AcDbLine
 10
-281.268723262863
 20
599.805046347703
 11
-276.495752489854
 21
604.578017120712
  0
LINE
  5
1B6
100
AcDbEntity
  8
1
  6
DASH_CENTER
 62
           3
100
AcDbLine
 10
-270.578407873967
 20
634.251972727576
 11
-277.434379007703
 21
637.091808954408
  0
LINE
  5
1B5
100
AcDbEntity
  8
1
  6
DASH_CENTER
 62
           3
100
AcDbLine
 10
-243.981960656158
 20
650.948254329796
 11
-246.82179688299
 21
644.092283196061
  0
LINE
  5
1B4
100
AcDbEntity
  8
1
  6
DASHED
 62
           4
100
AcDbLine
 10
-266.029947144235
 20
630.04382246633
 11
-262.873213883971
 21
630.04382246633
  0
LINE
  5
1B3
100
AcDbEntity
  8
1
  6
DASHED
 62
           4
100
AcDbLine
 10
-266.029947144235
 20
624.54382246633
 11
-262.873213883971
 21
624.54382246633
  0
LINE
  5
1B2
100
AcDbEntity
  8
1
  6
DASH_CENTER
 62
           3
100
AcDbLine
 10
-308.137524353671
 20
627.29382246633
 11
-306.209527542328
 21
627.29382246633
  0
LINE
  5
1B1
100
AcDbEntity
  8
1
  6
DASH_CENTER
 62
           3
100
AcDbLine
 10
-310.637524353732
 20
627.29382246633
 11
-308.137524353671
 21
627.29382246633
  0
LINE
  5
1B0
100
AcDbEntity
  8
1
  6
CONTINUOUS
 62
           7
100
AcDbLine
 10
-310.637524353732
 20
627.29382246633
 11
-310.637524353732
 21
622.29382246633
  0
LINE
  5
1AF
100
AcDbEntity
  8
1
  6
DASH_CENTER
 62
           3
100
AcDbLine
 10
-318.137524353906
 20
627.29382246633
 11
-310.637524353732
 21
627.29382246633
  0
LINE
  5
1AE
100
AcDbEntity
  8
1
  6
CONTINUOUS
 62
           7
100
AcDbLine
 10
-318.137524353906
 20
627.29382246633
 11
-318.137524353906
 21
632.29382246633
  0
LINE
  5
1AD
100
AcDbEntity
  8
1
  6
CONTINUOUS
 62
           7
100
AcDbLine
 10
-316.137524353906
 20
614.04382246633
 11
-316.137524353906
 21
591.79382246633
  0
LINE
  5
1AC
100
AcDbEntity
  8
1
  6
CONTINUOUS
 62
           7
100
AcDbLine
 10
-316.137524353907
 20
616.04382246633
 11
-312.137524353907
 21
616.04382246633
  0
LINE
  5
1AB
100
AcDbEntity
  8
1
  6
CONTINUOUS
 62
           7
100
AcDbLine
 10
-312.137524353906
 20
614.04382246633
 11
-316.137524353906
 21
614.04382246633
  0
LINE
  5
1AA
100
AcDbEntity
  8
1
  6
CONTINUOUS
 62
           7
100
AcDbLine
 10
-313.137524353906
 20
616.29382246633
 11
-313.137524353906
 21
613.79382246633
  0
LINE
  5
1A9
100
AcDbEntity
  8
1
  6
CONTINUOUS
 62
           7
100
AcDbLine
 10
-312.137524353907
 20
616.04382246633
 11
-312.137524353906
 21
614.04382246633
  0
LINE
  5
1A8
100
AcDbEntity
  8
1
  6
CONTINUOUS
 62
           7
100
AcDbLine
 10
-316.137524353906
 20
589.79382246633
 11
-316.137524353906
 21
588.29382246633
  0
LINE
  5
1A7
100
AcDbEntity
  8
1
  6
DASH_CENTER
 62
           3
100
AcDbLine
 10
-236.981486414505
 20
620.335672205084
 11
-230.12551528077
 21
617.495835978252
  0
LINE
  5
1A6
100
AcDbEntity
  8
1
  6
DASH_CENTER
 62
           3
100
AcDbLine
 10
-404.843295721757
 20
631.79382246633
 11
-407.441371933111
 21
630.29382246633
  0
LINE
  5
1A5
100
AcDbEntity
  8
1
  6
DASH_CENTER
 62
           3
100
AcDbLine
 10
-377.637524355817
 20
627.29382246633
 11
-447.637524355817
 21
627.29382246633
  0
LINE
  5
1A4
100
AcDbEntity
  8
1
  6
DASH_CENTER
 62
           3
100
AcDbLine
 10
-407.441371933111
 20
624.29382246633
 11
-404.843295721757
 21
622.79382246633
  0
LINE
  5
1A3
100
AcDbEntity
  8
1
  6
DASH_CENTER
 62
           3
100
AcDbLine
 10
-412.637524355817
 20
662.29382246633
 11
-412.637524355817
 21
592.29382246633
  0
LINE
  5
1A2
100
AcDbEntity
  8
1
  6
DASH_CENTER
 62
           3
100
AcDbLine
 10
-389.9217190102
 20
650.009627811948
 11
-395.755349954989
 21
644.175996867159
  0
LINE
  5
1A1
100
AcDbEntity
  8
1
  6
DASH_CENTER
 62
           3
100
AcDbLine
 10
-435.353329701435
 20
650.009627811948
 11
-429.519698756646
 21
644.175996867159
  0
LINE
  5
1A0
100
AcDbEntity
  8
1
  6
DASH_CENTER
 62
           3
100
AcDbLine
 10
-389.9217190102
 20
604.578017120712
 11
-395.755349954989
 21
610.411648065501
  0
LINE
  5
19F
100
AcDbEntity
  8
1
  6
DASH_CENTER
 62
           3
100
AcDbLine
 10
-435.353329701435
 20
604.578017120712
 11
-429.519698756646
 21
610.411648065501
  0
LINE
  5
19E
100
AcDbEntity
  8
1
  6
DASH_CENTER
 62
           3
100
AcDbLine
 10
-427.576462571099
 20
635.91882246633
 11
-421.081272042716
 21
632.16882246633
  0
LINE
  5
19D
100
AcDbEntity
  8
1
  6
DASH_CENTER
 62
           3
100
AcDbLine
 10
-397.698586140536
 20
635.91882246633
 11
-404.193776668919
 21
632.16882246633
  0
LINE
  5
19C
100
AcDbEntity
  8
1
  6
DASH_CENTER
 62
           3
100
AcDbLine
 10
-427.576462571099
 20
618.66882246633
 11
-421.081272042716
 21
622.41882246633
  0
LINE
  5
19B
100
AcDbEntity
  8
1
  6
DASH_CENTER
 62
           3
100
AcDbLine
 10
-397.698586140536
 20
618.66882246633
 11
-404.193776668919
 21
622.41882246633
  0
LINE
  5
19A
100
AcDbEntity
  8
1
  6
DASH_CENTER
 62
           3
100
AcDbLine
 10
-416.631617379431
 20
634.225432735144
 11
-418.14342880249
 21
636.816690533468
  0
LINE
  5
199
100
AcDbEntity
  8
1
  6
DASH_CENTER
 62
           3
100
AcDbLine
 10
-407.137524355817
 20
636.820101907959
 11
-408.637524355817
 21
634.222025696606
  0
LINE
  5
198
100
AcDbEntity
  8
1
  6
DASH_CENTER
 62
           3
100
AcDbLine
 10
-407.05701463511
 20
617.814481178187
 11
-408.568826058169
 21
620.405738976511
  0
LINE
  5
197
100
AcDbEntity
  8
1
  6
DASH_CENTER
 62
           3
100
AcDbLine
 10
-418.137524355817
 20
617.767543024701
 11
-416.637524355817
 21
620.365619236055
  0
LINE
  5
196
100
AcDbEntity
  8
1
  6
CONTINUOUS
 62
           7
100
AcDbLine
 10
-356.637524355817
 20
630.79382246633
 11
-356.637524355817
 21
627.29382246633
  0
LINE
  5
195
100
AcDbEntity
  8
1
  6
CONTINUOUS
 62
           7
100
AcDbLine
 10
-347.637524355817
 20
630.79382246633
 11
-347.637524355817
 21
639.29382246633
  0
LINE
  5
194
100
AcDbEntity
  8
1
  6
CONTINUOUS
 62
           7
100
AcDbLine
 10
-347.637524355817
 20
623.79382246633
 11
-347.637524355817
 21
627.29382246633
  0
LINE
  5
193
100
AcDbEntity
  8
1
  6
CONTINUOUS
 62
           7
100
AcDbLine
 10
-350.637524355817
 20
634.29382246633
 11
-350.637524355817
 21
632.69382246633
  0
LINE
  5
192
100
AcDbEntity
  8
1
  6
CONTINUOUS
 62
           7
100
AcDbLine
 10
-365.637524355817
 20
632.29382246633
 11
-351.037524355817
 21
632.29382246633
  0
LINE
  5
191
100
AcDbEntity
  8
1
  6
DASH_CENTER
 62
           3
100
AcDbLine
 10
-417.833676778524
 20
630.29382246633
 11
-420.431752989877
 21
631.79382246633
  0
LINE
  5
190
100
AcDbEntity
  8
1
  6
DASH_CENTER
 62
           3
100
AcDbLine
 10
-420.431752989877
 20
622.79382246633
 11
-417.833676778524
 21
624.29382246633
  0
LINE
  5
18F
100
AcDbEntity
  8
1
  6
CONTINUOUS
 62
           7
100
AcDbLine
 10
-350.637524355817
 20
619.369281070362
 11
-350.637524355817
 21
621.89382246633
  0
LINE
  5
18E
100
AcDbEntity
  8
1
  6
CONTINUOUS
 62
           7
100
AcDbLine
 10
-356.637524355817
 20
623.79382246633
 11
-356.637524355817
 21
622.79382246633
  0
LINE
  5
18D
100
AcDbEntity
  8
1
  6
CONTINUOUS
 62
           7
100
AcDbLine
 10
-365.637524355817
 20
622.29382246633
 11
-351.037524355817
 21
622.29382246633
  0
LINE
  5
18C
100
AcDbEntity
  8
1
  6
CONTINUOUS
 62
           7
100
AcDbLine
 10
-347.637524355817
 20
616.968413599677
 11
-347.637524355817
 21
623.79382246633
  0
LINE
  5
18B
100
AcDbEntity
  8
1
  6
DASHED
 62
           4
100
AcDbLine
 10
-244.6866804045
 20
624.54382246633
 11
-241.529947144235
 21
624.54382246633
  0
LINE
  5
18A
100
AcDbEntity
  8
1
  6
DASHED
 62
           4
100
AcDbLine
 10
-244.6866804045
 20
630.04382246633
 11
-241.529947144235
 21
630.04382246633
  0
LINE
  5
189
100
AcDbEntity
  8
1
  6
CONTINUOUS
 62
           7
100
AcDbLine
 10
-318.137524353906
 20
622.29382246633
 11
-318.137524353906
 21
627.29382246633
  0
LINE
  5
188
100
AcDbEntity
  8
1
  6
CONTINUOUS
 62
           7
100
AcDbLine
 10
-310.637524353732
 20
632.29382246633
 11
-310.637524353732
 21
627.29382246633
  0
LINE
  5
187
100
AcDbEntity
  8
1
  6
CONTINUOUS
 62
           7
100
AcDbLine
 10
-317.637524353906
 20
636.79382246633
 11
-316.137524353906
 21
636.79382246633
  0
LINE
  5
186
100
AcDbEntity
  8
1
  6
CONTINUOUS
 62
           7
100
AcDbLine
 10
-318.137524353906
 20
636.29382246633
 11
-318.137524353906
 21
632.29382246633
  0
LINE
  5
185
100
AcDbEntity
  8
1
  6
CONTINUOUS
 62
           7
100
AcDbLine
 10
-318.137524353906
 20
622.29382246633
 11
-318.137524353906
 21
618.29382246633
  0
LINE
  5
184
100
AcDbEntity
  8
1
  6
DASH_CENTER
 62
           3
100
AcDbLine
 10
-319.893508079437
 20
627.29382246633
 11
-318.137524353906
 21
627.29382246633
  0
LINE
  5
183
100
AcDbEntity
  8
1
  6
CONTINUOUS
 62
           7
100
AcDbLine
 10
-318.137524353906
 20
622.29382246633
 11
-310.637524353732
 21
622.29382246633
  0
LINE
  5
182
100
AcDbEntity
  8
1
  6
CONTINUOUS
 62
           7
100
AcDbLine
 10
-310.637524353732
 20
616.29382246633
 11
-308.637524353765
 21
616.29382246633
  0
LINE
  5
181
100
AcDbEntity
  8
1
  6
CONTINUOUS
 62
           7
100
AcDbLine
 10
-315.637524353906
 20
587.79382246633
 11
-308.637524353765
 21
587.79382246633
  0
LINE
  5
180
100
AcDbEntity
  8
1
  6
CONTINUOUS
 62
           7
100
AcDbLine
 10
-316.137524353906
 20
588.29382246633
 11
-315.637524353906
 21
587.79382246633
  0
LINE
  5
17F
100
AcDbEntity
  8
1
  6
CONTINUOUS
 62
           7
100
AcDbLine
 10
-308.637524353765
 20
587.79382246633
 11
-308.137524353765
 21
588.29382246633
  0
LINE
  5
17E
100
AcDbEntity
  8
1
  6
CONTINUOUS
 62
           7
100
AcDbLine
 10
-310.637524353732
 20
632.29382246633
 11
-318.137524353906
 21
632.29382246633
  0
LINE
  5
17D
100
AcDbEntity
  8
1
  6
CONTINUOUS
 62
           7
100
AcDbLine
 10
-310.637524353732
 20
638.29382246633
 11
-310.637524353732
 21
632.29382246633
  0
LINE
  5
17C
100
AcDbEntity
  8
1
  6
CONTINUOUS
 62
           7
100
AcDbLine
 10
-308.637524353576
 20
638.29382246633
 11
-310.637524353732
 21
638.29382246633
  0
LINE
  5
17B
100
AcDbEntity
  8
1
  6
CONTINUOUS
 62
           7
100
AcDbLine
 10
-308.637524353576
 20
666.79382246633
 11
-315.637524353906
 21
666.79382246633
  0
LINE
  5
17A
100
AcDbEntity
  8
1
  6
CONTINUOUS
 62
           7
100
AcDbLine
 10
-316.137524353906
 20
666.29382246633
 11
-315.637524353906
 21
666.79382246633
  0
LINE
  5
179
100
AcDbEntity
  8
1
  6
CONTINUOUS
 62
           7
100
AcDbLine
 10
-308.637524353576
 20
666.79382246633
 11
-308.137524353576
 21
666.29382246633
  0
LINE
  5
178
100
AcDbEntity
  8
1
  6
CONTINUOUS
 62
           7
100
AcDbLine
 10
-308.637524353765
 20
616.29382246633
 11
-308.137524353765
 21
615.79382246633
  0
LINE
  5
177
100
AcDbEntity
  8
1
  6
CONTINUOUS
 62
           7
100
AcDbLine
 10
-308.637524353576
 20
638.29382246633
 11
-308.137524353576
 21
638.79382246633
  0
LINE
  5
176
100
AcDbEntity
  8
1
  6
CONTINUOUS
 62
           7
100
AcDbLine
 10
-308.137524353765
 20
594.04382246633
 11
-337.137524355817
 21
594.04382246633
  0
LINE
  5
175
100
AcDbEntity
  8
1
  6
CONTINUOUS
 62
           7
100
AcDbLine
 10
-308.137524353765
 20
589.54382246633
 11
-316.137524353906
 21
589.54382246633
  0
LINE
  5
174
100
AcDbEntity
  8
1
  6
CONTINUOUS
 62
           7
100
AcDbLine
 10
-308.137524353765
 20
612.49382246633
 11
-309.637524353576
 21
612.49382246633
  0
LINE
  5
173
100
AcDbEntity
  8
1
  6
CONTINUOUS
 62
           7
100
AcDbLine
 10
-309.637524353576
 20
612.49382246633
 11
-309.637524353576
 21
609.79382246633
  0
LINE
  5
172
100
AcDbEntity
  8
1
  6
CONTINUOUS
 62
           7
100
AcDbLine
 10
-309.637524353576
 20
609.79382246633
 11
-308.137524353765
 21
609.79382246633
  0
LINE
  5
171
100
AcDbEntity
  8
1
  6
CONTINUOUS
 62
           7
100
AcDbLine
 10
-316.137524353906
 20
609.79382246633
 11
-314.637524353906
 21
609.79382246633
  0
LINE
  5
170
100
AcDbEntity
  8
1
  6
CONTINUOUS
 62
           7
100
AcDbLine
 10
-314.637524353906
 20
609.79382246633
 11
-314.637524353906
 21
612.49382246633
  0
LINE
  5
16F
100
AcDbEntity
  8
1
  6
CONTINUOUS
 62
           7
100
AcDbLine
 10
-314.637524353906
 20
612.49382246633
 11
-316.137524353906
 21
612.49382246633
  0
LINE
  5
16E
100
AcDbEntity
  8
1
  6
CONTINUOUS
 62
           7
100
AcDbLine
 10
-310.637524353732
 20
622.29382246633
 11
-310.637524353732
 21
616.29382246633
  0
LINE
  5
16D
100
AcDbEntity
  8
1
  6
CONTINUOUS
 62
           3
100
AcDbLine
 10
-316.137524353906
 20
616.29382246633
 11
-313.137524353906
 21
616.29382246633
  0
LINE
  5
16C
100
AcDbEntity
  8
1
  6
CONTINUOUS
 62
           3
100
AcDbLine
 10
-313.137524353906
 20
616.29382246633
 11
-312.704511652014
 21
616.04382246633
  0
LINE
  5
16B
100
AcDbEntity
  8
1
  6
CONTINUOUS
 62
           3
100
AcDbLine
 10
-312.704511652014
 20
614.04382246633
 11
-313.137524353906
 21
613.79382246633
  0
LINE
  5
16A
100
AcDbEntity
  8
1
  6
CONTINUOUS
 62
           3
100
AcDbLine
 10
-313.137524353906
 20
613.79382246633
 11
-316.137524353906
 21
613.79382246633
  0
LINE
  5
169
100
AcDbEntity
  8
1
  6
CONTINUOUS
 62
           7
100
AcDbLine
 10
-312.137524353907
 20
616.04382246633
 11
-311.560174084717
 21
615.04382246633
  0
LINE
  5
168
100
AcDbEntity
  8
1
  6
CONTINUOUS
 62
           7
100
AcDbLine
 10
-311.560174084717
 20
615.04382246633
 11
-312.137524353906
 21
614.04382246633
  0
LINE
  5
167
100
AcDbEntity
  8
1
  6
CONTINUOUS
 62
           7
100
AcDbLine
 10
-309.637524353388
 20
644.79382246633
 11
-309.637524353388
 21
642.09382246633
  0
LINE
  5
166
100
AcDbEntity
  8
1
  6
CONTINUOUS
 62
           7
100
AcDbLine
 10
-309.637524353388
 20
642.09382246633
 11
-308.137524353576
 21
642.09382246633
  0
LINE
  5
165
100
AcDbEntity
  8
1
  6
CONTINUOUS
 62
           7
100
AcDbLine
 10
-308.137524353576
 20
644.79382246633
 11
-309.637524353388
 21
644.79382246633
  0
LINE
  5
164
100
AcDbEntity
  8
1
  6
CONTINUOUS
 62
           7
100
AcDbLine
 10
-314.637524353906
 20
642.09382246633
 11
-314.637524353906
 21
644.79382246633
  0
LINE
  5
163
100
AcDbEntity
  8
1
  6
CONTINUOUS
 62
           7
100
AcDbLine
 10
-314.637524353906
 20
644.79382246633
 11
-316.137524353906
 21
644.79382246633
  0
LINE
  5
162
100
AcDbEntity
  8
1
  6
CONTINUOUS
 62
           7
100
AcDbLine
 10
-316.137524353906
 20
642.09382246633
 11
-314.637524353906
 21
642.09382246633
  0
LINE
  5
161
100
AcDbEntity
  8
1
  6
CONTINUOUS
 62
           7
100
AcDbLine
 10
-317.637524353906
 20
636.79382246633
 11
-318.137524353906
 21
636.29382246633
  0
LINE
  5
160
100
AcDbEntity
  8
1
  6
CONTINUOUS
 62
           7
100
AcDbLine
 10
-317.637524353906
 20
617.79382246633
 11
-318.137524353906
 21
618.29382246633
  0
LINE
  5
15F
100
AcDbEntity
  8
1
  6
CONTINUOUS
 62
         250
100
AcDbLine
 10
-418.382714884201
 20
622.244784360653
 11
-419.132714884201
 21
623.54382246633
  0
LINE
  5
15E
100
AcDbEntity
  8
1
  6
CONTINUOUS
 62
         250
100
AcDbLine
 10
-411.137524355817
 20
634.79382246633
 11
-412.637524355817
 21
634.79382246633
  0
LINE
  5
15D
100
AcDbEntity
  8
1
  6
CONTINUOUS
 62
           7
100
AcDbLine
 10
-356.637524355817
 20
627.29382246633
 11
-356.637524355817
 21
623.79382246633
  0
LINE
  5
15C
100
AcDbEntity
  8
1
  6
DASH_CENTER
 62
           3
100
AcDbLine
 10
-371.137524355817
 20
627.29382246633
 11
-356.637524355817
 21
627.29382246633
  0
LINE
  5
15B
100
AcDbEntity
  8
1
  6
CONTINUOUS
 62
           7
100
AcDbLine
 10
-353.137524355817
 20
622.29382246633
 11
-351.137524355817
 21
622.29382246633
  0
LINE
  5
15A
100
AcDbEntity
  8
1
  6
CONTINUOUS
 62
           7
100
AcDbLine
 10
-353.137524355817
 20
632.29382246633
 11
-351.137524355817
 21
632.29382246633
  0
LINE
  5
159
100
AcDbEntity
  8
1
  6
CONTINUOUS
 62
           7
100
AcDbLine
 10
-353.637524355817
 20
634.04382246633
 11
-347.637524355817
 21
634.04382246633
  0
LINE
  5
158
100
AcDbEntity
  8
1
  6
CONTINUOUS
 62
           7
100
AcDbLine
 10
-353.637524355817
 20
634.29382246633
 11
-353.637524355817
 21
632.29382246633
  0
LINE
  5
157
100
AcDbEntity
  8
1
  6
CONTINUOUS
 62
           7
100
AcDbLine
 10
-353.637524355817
 20
622.29382246633
 11
-353.637524355817
 21
621.29382246633
  0
LINE
  5
156
100
AcDbEntity
  8
1
  6
CONTINUOUS
 62
           7
100
AcDbLine
 10
-350.637524355817
 20
621.79382246633
 11
-350.637524355817
 21
621.29382246633
  0
LINE
  5
155
100
AcDbEntity
  8
1
  6
CONTINUOUS
 62
           7
100
AcDbLine
 10
-350.637524355817
 20
621.79382246633
 11
-351.137524355817
 21
622.29382246633
  0
LINE
  5
154
100
AcDbEntity
  8
1
  6
CONTINUOUS
 62
           7
100
AcDbLine
 10
-350.637524355817
 20
632.79382246633
 11
-351.137524355817
 21
632.29382246633
  0
LINE
  5
153
100
AcDbEntity
  8
1
  6
CONTINUOUS
 62
           7
100
AcDbLine
 10
-353.637524355817
 20
632.79382246633
 11
-353.137524355817
 21
632.29382246633
  0
LINE
  5
152
100
AcDbEntity
  8
1
  6
CONTINUOUS
 62
           7
100
AcDbLine
 10
-353.637524355817
 20
621.79382246633
 11
-353.137524355817
 21
622.29382246633
  0
LINE
  5
151
100
AcDbEntity
  8
1
  6
CONTINUOUS
 62
         250
100
AcDbLine
 10
-411.137524355817
 20
619.79382246633
 11
-414.137524355817
 21
619.79382246633
  0
LINE
  5
150
100
AcDbEntity
  8
1
  6
CONTINUOUS
 62
         250
100
AcDbLine
 10
-419.132714884201
 20
631.04382246633
 11
-418.382714884201
 21
632.342860572007
  0
LINE
  5
14F
100
AcDbEntity
  8
1
  6
CONTINUOUS
 62
           7
100
AcDbLine
 10
-329.137524355817
 20
590.19382246633
 11
-337.137524355817
 21
590.19382246633
  0
LINE
  5
14E
100
AcDbEntity
  8
1
  6
CONTINUOUS
 62
           3
100
AcDbLine
 10
-329.137524355817
 20
589.79382246633
 11
-337.137524355817
 21
589.79382246633
  0
LINE
  5
14D
100
AcDbEntity
  8
1
  6
CONTINUOUS
 62
           7
100
AcDbLine
 10
-356.637524355817
 20
630.79382246633
 11
-347.637524355817
 21
630.79382246633
  0
LINE
  5
14C
100
AcDbEntity
  8
1
  6
CONTINUOUS
 62
           7
100
AcDbLine
 10
-356.637524355817
 20
623.79382246633
 11
-347.637524355817
 21
623.79382246633
  0
LINE
  5
14B
100
AcDbEntity
  8
1
  6
CONTINUOUS
 62
           7
100
AcDbLine
 10
-350.637524355817
 20
634.29382246633
 11
-350.637524355817
 21
632.79382246633
  0
LINE
  5
14A
100
AcDbEntity
  8
1
  6
CONTINUOUS
 62
           7
100
AcDbLine
 10
-356.637524355817
 20
622.79382246633
 11
-356.137524355817
 21
622.29382246633
  0
LINE
  5
149
100
AcDbEntity
  8
1
  6
CONTINUOUS
 62
           7
100
AcDbLine
 10
-356.137524355817
 20
632.29382246633
 11
-356.637524355817
 21
631.79382246633
  0
LINE
  5
148
100
AcDbEntity
  8
1
  6
CONTINUOUS
 62
           7
100
AcDbLine
 10
-356.637524355817
 20
631.79382246633
 11
-356.637524355817
 21
630.79382246633
  0
LINE
  5
147
100
AcDbEntity
  8
1
  6
CONTINUOUS
 62
           7
100
AcDbLine
 10
-330.637524355817
 20
600.39382246633
 11
-330.637524355817
 21
597.89382246633
  0
LINE
  5
146
100
AcDbEntity
  8
1
  6
CONTINUOUS
 62
           7
100
AcDbLine
 10
-329.237524355817
 20
600.49382246633
 11
-330.537524355817
 21
600.49382246633
  0
LINE
  5
145
100
AcDbEntity
  8
1
  6
CONTINUOUS
 62
           7
100
AcDbLine
 10
-329.237524355817
 20
597.79382246633
 11
-330.537524355817
 21
597.79382246633
  0
LINE
  5
144
100
AcDbEntity
  8
1
  6
CONTINUOUS
 62
           7
100
AcDbLine
 10
-327.337524355817
 20
603.29382246633
 11
-327.137524355817
 21
603.49382246633
  0
LINE
  5
143
100
AcDbEntity
  8
1
  6
CONTINUOUS
 62
           7
100
AcDbLine
 10
-329.637524355817
 20
587.79382246633
 11
-329.137524355817
 21
588.29382246633
  0
LINE
  5
142
100
AcDbEntity
  8
1
  6
CONTINUOUS
 62
           7
100
AcDbLine
 10
-336.637524355817
 20
587.79382246633
 11
-337.137524355817
 21
588.29382246633
  0
LINE
  5
141
100
AcDbEntity
  8
1
  6
CONTINUOUS
 62
           7
100
AcDbLine
 10
-327.137524355817
 20
609.527264903634
 11
-327.137524355817
 21
603.49382246633
  0
LINE
  5
140
100
AcDbEntity
  8
1
  6
CONTINUOUS
 62
           7
100
AcDbLine
 10
-337.537524355817
 20
595.79382246633
 11
-340.987524355817
 21
595.79382246633
  0
LINE
  5
13F
100
AcDbEntity
  8
1
  6
CONTINUOUS
 62
           7
100
AcDbLine
 10
-329.637524355817
 20
587.79382246633
 11
-336.637524355817
 21
587.79382246633
  0
LINE
  5
13E
100
AcDbEntity
  8
1
  6
CONTINUOUS
 62
           7
100
AcDbLine
 10
-355.437524355817
 20
658.29382246633
 11
-355.637524355817
 21
658.09382246633
  0
LINE
  5
13D
100
AcDbEntity
  8
1
  6
CONTINUOUS
 62
           7
100
AcDbLine
 10
-355.437524355817
 20
658.29382246633
 11
-341.137524355817
 21
658.64382246633
  0
LINE
  5
13C
100
AcDbEntity
  8
1
  6
CONTINUOUS
 62
           7
100
AcDbLine
 10
-355.637524355817
 20
658.09382246633
 11
-355.637524355817
 21
638.79051870873
  0
LINE
  5
13B
100
AcDbEntity
  8
1
  6
CONTINUOUS
 62
           7
100
AcDbLine
 10
-327.137524355817
 20
650.79382246633
 11
-327.637524355817
 21
651.29382246633
  0
LINE
  5
13A
100
AcDbEntity
  8
1
  6
CONTINUOUS
 62
           7
100
AcDbLine
 10
-329.137524355817
 20
666.29382246633
 11
-329.637524355817
 21
666.79382246633
  0
LINE
  5
139
100
AcDbEntity
  8
1
  6
CONTINUOUS
 62
           7
100
AcDbLine
 10
-337.137524355817
 20
666.29382246633
 11
-336.637524355817
 21
666.79382246633
  0
LINE
  5
138
100
AcDbEntity
  8
1
  6
CONTINUOUS
 62
           7
100
AcDbLine
 10
-341.137524355817
 20
658.64382246633
 11
-340.987524355817
 21
658.79382246633
  0
LINE
  5
137
100
AcDbEntity
  8
1
  6
CONTINUOUS
 62
           7
100
AcDbLine
 10
-327.137524355817
 20
650.79382246633
 11
-327.137524355817
 21
645.060380029026
  0
LINE
  5
136
100
AcDbEntity
  8
1
  6
CONTINUOUS
 62
           7
100
AcDbLine
 10
-329.137524355817
 20
666.29382246633
 11
-329.137524355817
 21
651.69382246633
  0
LINE
  5
135
100
AcDbEntity
  8
1
  6
CONTINUOUS
 62
           7
100
AcDbLine
 10
-337.137524355817
 20
666.29382246633
 11
-337.137524355817
 21
659.19382246633
  0
LINE
  5
134
100
AcDbEntity
  8
1
  6
CONTINUOUS
 62
           7
100
AcDbLine
 10
-340.987524355817
 20
658.79382246633
 11
-337.537524355817
 21
658.79382246633
  0
LINE
  5
133
100
AcDbEntity
  8
1
  6
CONTINUOUS
 62
           7
100
AcDbLine
 10
-328.737524355817
 20
651.29382246633
 11
-327.637524355817
 21
651.29382246633
  0
LINE
  5
132
100
AcDbEntity
  8
1
  6
CONTINUOUS
 62
           7
100
AcDbLine
 10
-336.637524355817
 20
666.79382246633
 11
-329.637524355817
 21
666.79382246633
  0
LINE
  5
131
100
AcDbEntity
  8
1
  6
CONTINUOUS
 62
           7
100
AcDbLine
 10
-340.987524355817
 20
595.79382246633
 11
-341.137524355817
 21
595.94382246633
  0
LINE
  5
130
100
AcDbEntity
  8
1
  6
CONTINUOUS
 62
           7
100
AcDbLine
 10
-341.137524355817
 20
595.94382246633
 11
-355.437524355817
 21
596.29382246633
  0
LINE
  5
12F
100
AcDbEntity
  8
1
  6
CONTINUOUS
 62
           7
100
AcDbLine
 10
-355.637524355817
 20
597.29382246633
 11
-355.637524355817
 21
596.49382246633
  0
LINE
  5
12E
100
AcDbEntity
  8
1
  6
CONTINUOUS
 62
           7
100
AcDbLine
 10
-355.637524355817
 20
596.49382246633
 11
-355.437524355817
 21
596.29382246633
  0
LINE
  5
12D
100
AcDbEntity
  8
1
  6
DASH_CENTER
 62
           3
100
AcDbLine
 10
-209.779947144236
 20
627.29382246633
 11
-297.779947144236
 21
627.29382246633
  0
LINE
  5
12C
100
AcDbEntity
  8
1
  6
DASH_CENTER
 62
           3
100
AcDbLine
 10
-253.779947144236
 20
671.29382246633
 11
-253.779947144236
 21
583.29382246633
  0
LINE
  5
12B
100
AcDbEntity
  8
1
  6
CONTINUOUS
 62
           7
100
AcDbLine
 10
-323.434650275616
 20
666.79382246633
 11
-324.887524355953
 21
666.793822466246
  0
LINE
  5
12A
100
AcDbEntity
  8
1
  6
CONTINUOUS
 62
           7
100
AcDbLine
 10
-329.137524355817
 20
589.54382246633
 11
-329.137524355817
 21
588.29382246633
  0
LINE
  5
129
100
AcDbEntity
  8
1
  6
CONTINUOUS
 62
           7
100
AcDbLine
 10
-324.887524355953
 20
666.793822466246
 11
-328.637524355817
 21
666.79382246633
  0
LINE
  5
128
100
AcDbEntity
  8
1
  6
CONTINUOUS
 62
           7
100
AcDbLine
 10
-326.137524355953
 20
636.79382246633
 11
-326.137524355953
 21
651.29382246633
  0
LINE
  5
127
100
AcDbEntity
  8
1
  6
CONTINUOUS
 62
           7
100
AcDbLine
 10
-316.137524353906
 20
589.54382246633
 11
-316.137524353906
 21
588.29382246633
  0
LINE
  5
126
100
AcDbEntity
  8
1
  6
CONTINUOUS
 62
           7
100
AcDbLine
 10
-316.13752435377
 20
613.59382246633
 11
-316.137524353906
 21
594.04382246633
  0
LINE
  5
125
100
AcDbEntity
  8
1
  6
CONTINUOUS
 62
           7
100
AcDbLine
 10
-321.537524354043
 20
616.49382246633
 11
-316.13752435377
 21
616.49382246633
  0
LINE
  5
124
100
AcDbEntity
  8
1
  6
CONTINUOUS
 62
           7
100
AcDbLine
 10
-321.537524354043
 20
613.59382246633
 11
-316.13752435377
 21
613.59382246633
  0
LINE
  5
123
100
AcDbEntity
  8
1
  6
CONTINUOUS
 62
           7
100
AcDbLine
 10
-321.537524354043
 20
612.29382246633
 11
-326.137524355953
 21
612.29382246633
  0
LINE
  5
122
100
AcDbEntity
  8
1
  6
CONTINUOUS
 62
           7
100
AcDbLine
 10
-328.637524355817
 20
587.79382246633
 11
-316.637524353906
 21
587.79382246633
  0
LINE
  5
121
100
AcDbEntity
  8
1
  6
CONTINUOUS
 62
           7
100
AcDbLine
 10
-328.637524355817
 20
651.29382246633
 11
-326.137524355953
 21
651.29382246633
  0
LINE
  5
120
100
AcDbEntity
  8
1
  6
CONTINUOUS
 62
           7
100
AcDbLine
 10
-329.137524355817
 20
589.54382246633
 11
-316.137524353906
 21
589.54382246633
  0
LINE
  5
11F
100
AcDbEntity
  8
1
  6
CONTINUOUS
 62
           7
100
AcDbLine
 10
-316.637524353906
 20
666.79382246633
 11
-323.434650275616
 21
666.79382246633
  0
LINE
  5
11E
100
AcDbEntity
  8
1
  6
CONTINUOUS
 62
           7
100
AcDbLine
 10
-316.637524353906
 20
666.79382246633
 11
-316.137524353906
 21
666.29382246633
  0
LINE
  5
11D
100
AcDbEntity
  8
1
  6
CONTINUOUS
 62
           7
100
AcDbLine
 10
-328.637524355817
 20
666.79382246633
 11
-329.137524355817
 21
666.29382246633
  0
LINE
  5
11C
100
AcDbEntity
  8
1
  6
CONTINUOUS
 62
           7
100
AcDbLine
 10
-328.637524355817
 20
651.29382246633
 11
-329.137524355817
 21
651.79382246633
  0
LINE
  5
11B
100
AcDbEntity
  8
1
  6
CONTINUOUS
 62
           7
100
AcDbLine
 10
-316.137524353906
 20
617.29382246633
 11
-316.637524353906
 21
617.79382246633
  0
LINE
  5
11A
100
AcDbEntity
  8
1
  6
CONTINUOUS
 62
           7
100
AcDbLine
 10
-329.137524355817
 20
588.29382246633
 11
-328.637524355817
 21
587.79382246633
  0
LINE
  5
119
100
AcDbEntity
  8
1
  6
CONTINUOUS
 62
           7
100
AcDbLine
 10
-316.137524353906
 20
588.29382246633
 11
-316.637524353906
 21
587.79382246633
  0
LINE
  5
118
100
AcDbEntity
  8
1
  6
CONTINUOUS
 62
           7
100
AcDbLine
 10
-329.137524355817
 20
602.79382246633
 11
-328.637524355817
 21
603.29382246633
  0
LINE
  5
117
100
AcDbEntity
  8
1
  6
CONTINUOUS
 62
           7
100
AcDbLine
 10
-319.487524355953
 20
666.793822466246
 11
-319.487524355953
 21
636.79382246633
  0
LINE
  5
116
100
AcDbEntity
  8
1
  6
CONTINUOUS
 62
           7
100
AcDbLine
 10
-324.287524355954
 20
636.79382246633
 11
-324.287524355954
 21
666.793822466246
  0
LINE
  5
115
100
AcDbEntity
  8
1
  6
CONTINUOUS
 62
           7
100
AcDbLine
 10
-318.887524355953
 20
658.793822466246
 11
-324.887524355953
 21
658.793822466246
  0
LINE
  5
114
100
AcDbEntity
  8
1
  6
CONTINUOUS
 62
           3
100
AcDbLine
 10
-324.287524355954
 20
657.754591981704
 11
-324.887524355953
 21
658.793822466246
  0
LINE
  5
113
100
AcDbEntity
  8
1
  6
CONTINUOUS
 62
           3
100
AcDbLine
 10
-324.887524355953
 20
658.793822466246
 11
-324.887524355953
 21
666.793822466246
  0
LINE
  5
112
100
AcDbEntity
  8
1
  6
CONTINUOUS
 62
           3
100
AcDbLine
 10
-318.887524355953
 20
666.793822466246
 11
-318.887524355953
 21
658.793822466246
  0
LINE
  5
111
100
AcDbEntity
  8
1
  6
CONTINUOUS
 62
           3
100
AcDbLine
 10
-318.887524355953
 20
658.793822466246
 11
-319.487524355953
 21
657.754591981704
  0
LINE
  5
110
100
AcDbEntity
  8
1
  6
DASH_CENTER
 62
           3
100
AcDbLine
 10
-321.887524355953
 20
668.593822466246
 11
-321.887524355953
 21
635.09382246633
  0
LINE
  5
10F
100
AcDbEntity
  8
1
  6
CONTINUOUS
 62
           7
100
AcDbLine
 10
-316.637524353906
 20
636.79382246633
 11
-318.737524354043
 21
636.79382246633
  0
LINE
  5
10E
100
AcDbEntity
  8
1
  6
CONTINUOUS
 62
           7
100
AcDbLine
 10
-316.637524353906
 20
636.79382246633
 11
-316.137524353906
 21
637.29382246633
  0
LINE
  5
10D
100
AcDbEntity
  8
1
  6
CONTINUOUS
 62
           7
100
AcDbLine
 10
-326.137524355953
 20
636.79382246633
 11
-318.737524354043
 21
636.79382246633
  0
LINE
  5
10C
100
AcDbEntity
  8
1
  6
CONTINUOUS
 62
           7
100
AcDbLine
 10
-316.13752435377
 20
613.59382246633
 11
-316.137524353906
 21
614.04382246633
  0
LINE
  5
10B
100
AcDbEntity
  8
1
  6
DASH_CENTER
 62
           3
100
AcDbLine
 10
-332.029854193365
 20
627.29382246633
 11
-313.329854191455
 21
627.29382246633
  0
LINE
  5
10A
100
AcDbEntity
  8
1
  6
CONTINUOUS
 62
           7
100
AcDbLine
 10
-326.137524355953
 20
603.29382246633
 11
-326.137524355953
 21
618.28132246633
  0
LINE
  5
109
100
AcDbEntity
  8
1
  6
CONTINUOUS
 62
           7
100
AcDbLine
 10
-321.537524354043
 20
618.28132246633
 11
-326.137524355953
 21
618.28132246633
  0
LINE
  5
108
100
AcDbEntity
  8
1
  6
CONTINUOUS
 62
           7
100
AcDbLine
 10
-328.737524355817
 20
612.14382246633
 11
-330.118429925604
 21
612.14382246633
  0
LINE
  5
107
100
AcDbEntity
  8
1
  6
CONTINUOUS
 62
           7
100
AcDbLine
 10
-320.637524355817
 20
635.29382246633
 11
-320.637524355817
 21
631.29382246633
  0
LINE
  5
106
100
AcDbEntity
  8
1
  6
CONTINUOUS
 62
           7
100
AcDbLine
 10
-323.037524355817
 20
635.29382246633
 11
-323.037524355817
 21
631.29382246633
  0
LINE
  5
105
100
AcDbEntity
  8
1
  6
DASH_CENTER
 62
           3
100
AcDbLine
 10
-321.837524355817
 20
624.49382246633
 11
-321.837524355817
 21
629.69382246633
  0
LINE
  5
104
100
AcDbEntity
  8
1
  6
DASH_CENTER
 62
           3
100
AcDbLine
 10
-321.837524355817
 20
637.09382246633
 11
-321.837524355817
 21
624.49382246633
  0
LINE
  5
103
100
AcDbEntity
  8
1
  6
CONTINUOUS
 62
           7
100
AcDbLine
 10
-328.737524355817
 20
635.29382246633
 11
-319.337524355817
 21
635.29382246633
  0
LINE
  5
102
100
AcDbEntity
  8
1
  6
CONTINUOUS
 62
           7
100
AcDbLine
 10
-335.837524355817
 20
631.29382246633
 11
-319.837524355817
 21
631.29382246633
  0
LINE
  5
101
100
AcDbEntity
  8
1
  6
CONTINUOUS
 62
           3
100
AcDbLine
 10
-320.337524355817
 20
635.29382246633
 11
-320.337524355817
 21
631.29382246633
  0
LINE
  5
100
100
AcDbEntity
  8
1
  6
CONTINUOUS
 62
           3
100
AcDbLine
 10
-323.337524355817
 20
635.29382246633
 11
-323.337524355817
 21
631.29382246633
  0
LINE
  5
FF
100
AcDbEntity
  8
1
  6
DASH_CENTER
 62
           3
100
AcDbLine
 10
-336.953314208596
 20
627.29382246633
 11
-317.994038343007
 21
627.29382246633
  0
LINE
  5
FE
100
AcDbEntity
  8
1
  6
CONTINUOUS
 62
           7
100
AcDbLine
 10
-335.837524355817
 20
623.29382246633
 11
-319.837524355817
 21
623.29382246633
  0
LINE
  5
FD
100
AcDbEntity
  8
1
  6
CONTINUOUS
 62
           7
100
AcDbLine
 10
-336.337524355817
 20
631.79382246633
 11
-335.837524355817
 21
631.29382246633
  0
LINE
  5
FC
100
AcDbEntity
  8
1
  6
CONTINUOUS
 62
           7
100
AcDbLine
 10
-319.337524355817
 20
631.79382246633
 11
-319.837524355817
 21
631.29382246633
  0
LINE
  5
FB
100
AcDbEntity
  8
1
  6
CONTINUOUS
 62
           7
100
AcDbLine
 10
-319.337524355817
 20
622.79382246633
 11
-319.837524355817
 21
623.29382246633
  0
LINE
  5
FA
100
AcDbEntity
  8
1
  6
CONTINUOUS
 62
           7
100
AcDbLine
 10
-336.337524355817
 20
622.79382246633
 11
-335.837524355817
 21
623.29382246633
  0
LINE
  5
F9
100
AcDbEntity
  8
1
  6
CONTINUOUS
 62
           7
100
AcDbLine
 10
-328.737524355817
 20
619.29382246633
 11
-328.737524355817
 21
612.14382246633
  0
LINE
  5
F8
100
AcDbEntity
  8
1
  6
CONTINUOUS
 62
           7
100
AcDbLine
 10
-328.737524355817
 20
642.44382246633
 11
-330.118429925604
 21
642.44382246633
  0
LINE
  5
F7
100
AcDbEntity
  8
1
  6
CONTINUOUS
 62
           7
100
AcDbLine
 10
-328.737524355817
 20
642.44382246633
 11
-328.737524355817
 21
635.29382246633
  0
LINE
  5
F6
100
AcDbEntity
  8
1
  6
CONTINUOUS
 62
           7
100
AcDbLine
 10
-336.337524355817
 20
612.577677535643
 11
-336.337524355817
 21
642.009967397017
  0
LINE
  5
F5
100
AcDbEntity
  8
1
  6
CONTINUOUS
 62
           7
100
AcDbLine
 10
-319.337524355817
 20
619.29382246633
 11
-328.737524355817
 21
619.29382246633
  0
LINE
  5
F4
100
AcDbEntity
  8
1
  6
CONTINUOUS
 62
           7
100
AcDbLine
 10
-319.337524355817
 20
635.29382246633
 11
-319.337524355817
 21
619.29382246633
  0
LINE
  5
F3
100
AcDbEntity
  8
1
  6
CONTINUOUS
 62
           7
100
AcDbLine
 10
-321.537524354043
 20
618.28132246633
 11
-321.537524354043
 21
612.29382246633
  0
LINE
  5
F2
100
AcDbEntity
  8
1
  6
CONTINUOUS
 62
           7
100
AcDbLine
 10
-323.837524354043
 20
617.29382246633
 11
-323.837524354043
 21
612.79382246633
  0
LINE
  5
F1
100
AcDbEntity
  8
1
  6
CONTINUOUS
 62
           7
100
AcDbLine
 10
-313.897524354043
 20
613.79382246633
 11
-313.897524354043
 21
616.29382246633
  0
LINE
  5
F0
100
AcDbEntity
  8
1
  6
CONTINUOUS
 62
           7
100
AcDbLine
 10
-313.897524354043
 20
616.29382246633
 11
-321.437524354043
 21
616.29382246633
  0
LINE
  5
EF
100
AcDbEntity
  8
1
  6
CONTINUOUS
 62
           7
100
AcDbLine
 10
-321.437524354043
 20
613.79382246633
 11
-313.897524354043
 21
613.79382246633
  0
LINE
  5
EE
100
AcDbEntity
  8
1
  6
CONTINUOUS
 62
           7
100
AcDbLine
 10
-320.737524354043
 20
616.29382246633
 11
-320.737524354043
 21
613.79382246633
  0
LINE
  5
ED
100
AcDbEntity
  8
1
  6
CONTINUOUS
 62
           7
100
AcDbLine
 10
-313.537524354043
 20
615.93382246633
 11
-313.897524354043
 21
616.29382246633
  0
LINE
  5
EC
100
AcDbEntity
  8
1
  6
CONTINUOUS
 62
           7
100
AcDbLine
 10
-313.537524354043
 20
614.15382246633
 11
-313.537524354043
 21
615.93382246633
  0
LINE
  5
EB
100
AcDbEntity
  8
1
  6
CONTINUOUS
 62
           7
100
AcDbLine
 10
-313.897524354043
 20
613.79382246633
 11
-313.537524354043
 21
614.15382246633
  0
LINE
  5
EA
100
AcDbEntity
  8
1
  6
CONTINUOUS
 62
           7
100
AcDbLine
 10
-323.837524354043
 20
612.79382246633
 11
-321.537524354043
 21
612.79382246633
  0
LINE
  5
E9
100
AcDbEntity
  8
1
  6
CONTINUOUS
 62
           7
100
AcDbLine
 10
-324.037524354043
 20
612.99382246633
 11
-323.837524354043
 21
612.79382246633
  0
LINE
  5
E8
100
AcDbEntity
  8
1
  6
CONTINUOUS
 62
           7
100
AcDbLine
 10
-324.037524354043
 20
617.09382246633
 11
-324.037524354043
 21
612.99382246633
  0
LINE
  5
E7
100
AcDbEntity
  8
1
  6
CONTINUOUS
 62
           7
100
AcDbLine
 10
-323.837524354043
 20
617.29382246633
 11
-324.037524354043
 21
617.09382246633
  0
LINE
  5
E6
100
AcDbEntity
  8
1
  6
CONTINUOUS
 62
           7
100
AcDbLine
 10
-321.537524354043
 20
617.29382246633
 11
-323.837524354043
 21
617.29382246633
  0
LINE
  5
E5
100
AcDbEntity
  8
1
  6
CONTINUOUS
 62
           3
100
AcDbLine
 10
-320.737524354043
 20
614.15382246633
 11
-321.361062644768
 21
613.79382246633
  0
LINE
  5
E4
100
AcDbEntity
  8
1
  6
CONTINUOUS
 62
           3
100
AcDbLine
 10
-320.737524354043
 20
615.93382246633
 11
-321.361062644768
 21
616.29382246633
  0
LINE
  5
E3
100
AcDbEntity
  8
1
  6
CONTINUOUS
 62
           3
100
AcDbLine
 10
-320.737524354043
 20
614.15382246633
 11
-313.537524354043
 21
614.15382246633
  0
LINE
  5
E2
100
AcDbEntity
  8
1
  6
CONTINUOUS
 62
           3
100
AcDbLine
 10
-320.737524354043
 20
615.93382246633
 11
-313.537524354043
 21
615.93382246633
  0
LINE
  5
E1
100
AcDbEntity
  8
1
  6
CONTINUOUS
 62
           7
100
AcDbLine
 10
-336.137524353765
 20
591.79382246633
 11
-336.137524353765
 21
590.39382246633
  0
LINE
  5
E0
100
AcDbEntity
  8
1
  6
CONTINUOUS
 62
           7
100
AcDbLine
 10
-335.537524353765
 20
591.79382246633
 11
-335.537524353765
 21
589.79382246633
  0
LINE
  5
DF
100
AcDbEntity
  8
1
  6
CONTINUOUS
 62
           7
100
AcDbLine
 10
-304.437524353765
 20
588.29382246633
 11
-304.437524353765
 21
591.79382246633
  0
LINE
  5
DE
100
AcDbEntity
  8
1
  6
CONTINUOUS
 62
           7
100
AcDbLine
 10
-335.537524353765
 20
589.79382246633
 11
-308.337524353765
 21
589.79382246633
  0
LINE
  5
DD
100
AcDbEntity
  8
1
  6
CONTINUOUS
 62
           7
100
AcDbLine
 10
-317.137524353765
 20
589.79382246633
 11
-317.137524353765
 21
591.79382246633
  0
LINE
  5
DC
100
AcDbEntity
  8
1
  6
CONTINUOUS
 62
           7
100
AcDbLine
 10
-336.137524353765
 20
590.39382246633
 11
-335.537524353765
 21
589.79382246633
  0
LINE
  5
DB
100
AcDbEntity
  8
1
  6
CONTINUOUS
 62
           7
100
AcDbLine
 10
-304.137524353765
 20
588.59382246633
 11
-304.137524353765
 21
591.79382246633
  0
LINE
  5
DA
100
AcDbEntity
  8
1
  6
CONTINUOUS
 62
           7
100
AcDbLine
 10
-304.437524353765
 20
588.29382246633
 11
-304.137524353765
 21
588.59382246633
  0
LINE
  5
D9
100
AcDbEntity
  8
1
  6
CONTINUOUS
 62
           7
100
AcDbLine
 10
-308.137524353765
 20
588.29382246633
 11
-304.437524353765
 21
588.29382246633
  0
LINE
  5
D8
100
AcDbEntity
  8
1
  6
CONTINUOUS
 62
           3
100
AcDbLine
 10
-317.137524353765
 20
590.39382246633
 11
-316.098293869224
 21
589.79382246633
  0
LINE
  5
D7
100
AcDbEntity
  8
1
  6
CONTINUOUS
 62
           3
100
AcDbLine
 10
-317.137524353765
 20
590.39382246633
 11
-336.137524353765
 21
590.39382246633
  0
LINE
  5
D6
100
AcDbEntity
  8
1
  6
CONTINUOUS
 62
           7
100
AcDbLine
 10
-357.937524355817
 20
607.866387658417
 11
-357.937524355817
 21
619.147118310465
  0
LINE
  5
D5
100
AcDbEntity
  8
1
  6
CONTINUOUS
 62
           7
100
AcDbLine
 10
-361.237524355817
 20
597.29382246633
 11
-361.237524355817
 21
616.677518586276
  0
LINE
  5
D4
100
AcDbEntity
  8
1
  6
CONTINUOUS
 62
           7
100
AcDbLine
 10
-357.937524355817
 20
657.29382246633
 11
-357.937524355817
 21
639.520802968975
  0
LINE
  5
D3
100
AcDbEntity
  8
1
  6
CONTINUOUS
 62
           7
100
AcDbLine
 10
-365.037524355817
 20
647.531500611977
 11
-365.037524355817
 21
645.239943507234
  0
LINE
  5
D2
100
AcDbEntity
  8
1
  6
CONTINUOUS
 62
           7
100
AcDbLine
 10
-364.837524355817
 20
648.29382246633
 11
-364.837524355817
 21
644.995105041128
  0
LINE
  5
D1
100
AcDbEntity
  8
1
  6
CONTINUOUS
 62
           7
100
AcDbLine
 10
-361.237524355817
 20
651.04382246633
 11
-361.237524355817
 21
641.505850159752
  0
LINE
  5
D0
100
AcDbEntity
  8
1
  6
CONTINUOUS
 62
           7
100
AcDbLine
 10
-361.237524355817
 20
651.04382246633
 11
-364.037524355817
 21
651.04382246633
  0
LINE
  5
CF
100
AcDbEntity
  8
1
  6
CONTINUOUS
 62
           7
100
AcDbLine
 10
-361.237524355817
 20
657.29382246633
 11
-361.237524355817
 21
651.04382246633
  0
LINE
  5
CE
100
AcDbEntity
  8
1
  6
CONTINUOUS
 62
           7
100
AcDbLine
 10
-364.837524355817
 20
612.507628660261
 11
-364.837524355817
 21
604.54382246633
  0
LINE
  5
CD
100
AcDbEntity
  8
1
  6
CONTINUOUS
 62
           7
100
AcDbLine
 10
-360.437524355817
 20
596.49382246633
 11
-357.937524355817
 21
596.49382246633
  0
LINE
  5
CC
100
AcDbEntity
  8
1
  6
CONTINUOUS
 62
           7
100
AcDbLine
 10
-357.937524355817
 20
596.49382246633
 11
-357.937524355817
 21
604.365622329227
  0
LINE
  5
CB
100
AcDbEntity
  8
1
  6
CONTINUOUS
 62
           7
100
AcDbLine
 10
-364.837524355817
 20
604.79382246633
 11
-365.037524355817
 21
604.79382246633
  0
LINE
  5
CA
100
AcDbEntity
  8
1
  6
CONTINUOUS
 62
           7
100
AcDbLine
 10
-364.037524355817
 20
603.54382246633
 11
-361.237524355817
 21
603.54382246633
  0
LINE
  5
C9
100
AcDbEntity
  8
1
  6
CONTINUOUS
 62
           7
100
AcDbLine
 10
-365.037524355817
 20
604.79382246633
 11
-365.037524355817
 21
612.202567296162
  0
LINE
  5
C8
100
AcDbEntity
  8
1
  6
CONTINUOUS
 62
           7
100
AcDbLine
 10
-365.037524355817
 20
647.531500611977
 11
-365.037524355817
 21
649.79382246633
  0
LINE
  5
C7
100
AcDbEntity
  8
1
  6
CONTINUOUS
 62
           7
100
AcDbLine
 10
-364.837524355817
 20
650.04382246633
 11
-364.837524355817
 21
649.79382246633
  0
LINE
  5
C6
100
AcDbEntity
  8
1
  6
CONTINUOUS
 62
           7
100
AcDbLine
 10
-365.037524355817
 20
649.79382246633
 11
-364.837524355817
 21
649.79382246633
  0
LINE
  5
C5
100
AcDbEntity
  8
1
  6
CONTINUOUS
 62
           7
100
AcDbLine
 10
-357.937524355817
 20
657.29382246633
 11
-357.937524355817
 21
658.09382246633
  0
LINE
  5
C4
100
AcDbEntity
  8
1
  6
CONTINUOUS
 62
           7
100
AcDbLine
 10
-357.937524355817
 20
658.09382246633
 11
-360.437524355817
 21
658.09382246633
  0
LINE
  5
C3
100
AcDbEntity
  8
1
  6
CONTINUOUS
 62
           7
100
AcDbLine
 10
-364.837524355817
 20
649.79382246633
 11
-364.837524355817
 21
648.29382246633
  0
LINE
  5
C2
100
AcDbEntity
  8
1
  6
PHANTOM
 62
           3
100
AcDbLine
 10
-357.037524355817
 20
608.483523948902
 11
-357.037524355817
 21
603.337087249485
  0
LINE
  5
C1
100
AcDbEntity
  8
1
  6
PHANTOM
 62
           3
100
AcDbLine
 10
-359.624113819223
 20
606.04382246633
 11
-354.624113819223
 21
606.04382246633
  0
LINE
  5
C0
100
AcDbEntity
  8
1
  6
CONTINUOUS
 62
           7
100
AcDbLine
 10
-365.037524355817
 20
608.29382246633
 11
-365.837524355817
 21
608.29382246633
  0
LINE
  5
BF
100
AcDbEntity
  8
1
  6
CONTINUOUS
 62
           3
100
AcDbLine
 10
-365.592535361974
 20
611.29382246633
 11
-366.137524355817
 21
611.29382246633
  0
LINE
  5
BE
100
AcDbEntity
  8
1
  6
CONTINUOUS
 62
           7
100
AcDbLine
 10
-365.294539177654
 20
611.79382246633
 11
-366.137524355817
 21
611.79382246633
  0
LINE
  5
BD
100
AcDbEntity
  8
1
  6
CONTINUOUS
 62
           7
100
AcDbLine
 10
-355.637524355817
 20
597.29382246633
 11
-357.937524355817
 21
597.29382246633
  0
LINE
  5
BC
100
AcDbEntity
  8
1
  6
CONTINUOUS
 62
           7
100
AcDbLine
 10
-357.937524355817
 20
657.29382246633
 11
-355.637524355817
 21
657.29382246633
  0
LINE
  5
BB
100
AcDbEntity
  8
1
  6
PHANTOM
 62
           3
100
AcDbLine
 10
-356.89610299958
 20
608.023721453652
 11
-355.057625368495
 21
606.185243822567
  0
LINE
  5
BA
100
AcDbEntity
  8
1
  6
PHANTOM
 62
           3
100
AcDbLine
 10
-356.89610299958
 20
604.063923479008
 11
-355.057625368495
 21
605.902401110093
  0
LINE
  5
B9
100
AcDbEntity
  8
1
  6
PHANTOM
 62
           3
100
AcDbLine
 10
-357.178945712055
 20
604.063923479008
 11
-359.01742334314
 21
605.902401110093
  0
LINE
  5
B8
100
AcDbEntity
  8
1
  6
PHANTOM
 62
           3
100
AcDbLine
 10
-357.178945712055
 20
608.023721453652
 11
-359.01742334314
 21
606.185243822567
  0
LINE
  5
B7
100
AcDbEntity
  8
1
  6
DASH_CENTER
 62
           3
100
AcDbLine
 10
-367.137524355817
 20
613.79382246633
 11
-363.911544502741
 21
613.79382246633
  0
LINE
  5
B6
100
AcDbEntity
  8
1
  6
CONTINUOUS
 62
           7
100
AcDbLine
 10
-366.137524355817
 20
615.79382246633
 11
-362.16073134081
 21
615.79382246633
  0
LINE
  5
B5
100
AcDbEntity
  8
1
  6
CONTINUOUS
 62
           3
100
AcDbLine
 10
-366.137524355817
 20
616.29382246633
 11
-361.651423973872
 21
616.29382246633
  0
LINE
  5
B4
100
AcDbEntity
  8
1
  6
CONTINUOUS
 62
           7
100
AcDbLine
 10
-366.137524355817
 20
608.59382246633
 11
-365.837524355817
 21
608.29382246633
  0
LINE
  5
B3
100
AcDbEntity
  8
1
  6
CONTINUOUS
 62
           7
100
AcDbLine
 10
-366.137524355817
 20
645.99382246633
 11
-366.137524355817
 21
627.29382246633
  0
LINE
  5
B2
100
AcDbEntity
  8
1
  6
CONTINUOUS
 62
           7
100
AcDbLine
 10
-354.137524355817
 20
622.29382246633
 11
-353.637524355817
 21
621.79382246633
  0
LINE
  5
B1
100
AcDbEntity
  8
1
  6
CONTINUOUS
 62
           7
100
AcDbLine
 10
-365.637524355817
 20
622.29382246633
 11
-366.137524355817
 21
621.79382246633
  0
LINE
  5
B0
100
AcDbEntity
  8
1
  6
CONTINUOUS
 62
           7
100
AcDbLine
 10
-365.837524355817
 20
646.29382246633
 11
-365.037524355817
 21
646.29382246633
  0
LINE
  5
AF
100
AcDbEntity
  8
1
  6
CONTINUOUS
 62
           7
100
AcDbLine
 10
-365.837524355817
 20
646.29382246633
 11
-366.137524355817
 21
645.99382246633
  0
LINE
  5
AE
100
AcDbEntity
  8
1
  6
DASH_CENTER
 62
           3
100
AcDbLine
 10
-340.537524355817
 20
636.79382246633
 11
-366.886311591946
 21
636.79382246633
  0
LINE
  5
AD
100
AcDbEntity
  8
1
  6
CONTINUOUS
 62
           7
100
AcDbLine
 10
-361.637524355817
 20
638.59382246633
 11
-366.137524355817
 21
638.59382246633
  0
LINE
  5
AC
100
AcDbEntity
  8
1
  6
CONTINUOUS
 62
           3
100
AcDbLine
 10
-360.937524355817
 20
639.29382246633
 11
-366.137524355817
 21
639.29382246633
  0
LINE
  5
AB
100
AcDbEntity
  8
1
  6
CONTINUOUS
 62
           7
100
AcDbLine
 10
-366.137524355817
 20
634.99382246633
 11
-361.637524355817
 21
634.99382246633
  0
LINE
  5
AA
100
AcDbEntity
  8
1
  6
CONTINUOUS
 62
           3
100
AcDbLine
 10
-366.137524355817
 20
634.29382246633
 11
-360.937524355817
 21
634.29382246633
  0
LINE
  5
A9
100
AcDbEntity
  8
1
  6
CONTINUOUS
 62
           7
100
AcDbLine
 10
-366.137524355817
 20
632.79382246633
 11
-365.637524355817
 21
632.29382246633
  0
LINE
  5
A8
100
AcDbEntity
  8
1
  6
CONTINUOUS
 62
           7
100
AcDbLine
 10
-353.637524355817
 20
632.79382246633
 11
-354.137524355817
 21
632.29382246633
  0
LINE
  5
A7
100
AcDbEntity
  8
1
  6
CONTINUOUS
 62
           7
100
AcDbLine
 10
-353.637524355817
 20
620.298299181449
 11
-353.637524355817
 21
621.79382246633
  0
LINE
  5
A6
100
AcDbEntity
  8
1
  6
CONTINUOUS
 62
           7
100
AcDbLine
 10
-366.137524355817
 20
627.29382246633
 11
-366.137524355817
 21
608.59382246633
  0
LINE
  5
A5
100
AcDbEntity
  8
1
  6
CONTINUOUS
 62
           7
100
AcDbLine
 10
-357.351319056903
 20
639.29382246633
 11
-360.937524355817
 21
639.29382246633
  0
LINE
  5
A4
100
AcDbEntity
  8
1
  6
CONTINUOUS
 62
           3
100
AcDbLine
 10
-354.597755425519
 20
638.59382246633
 11
-361.637524355817
 21
638.59382246633
  0
LINE
  5
A3
100
AcDbEntity
  8
1
  6
CONTINUOUS
 62
           3
100
AcDbLine
 10
-349.237524355817
 20
634.99382246633
 11
-361.637524355817
 21
634.99382246633
  0
LINE
  5
A2
100
AcDbEntity
  8
1
  6
CONTINUOUS
 62
           3
100
AcDbLine
 10
-349.237524355817
 20
638.59382246633
 11
-350.280943686062
 21
638.59382246633
  0
LINE
  5
A1
100
AcDbEntity
  8
1
  6
CONTINUOUS
 62
           3
100
AcDbLine
 10
-349.237524355817
 20
634.99382246633
 11
-348.025088790519
 21
634.29382246633
  0
LINE
  5
A0
100
AcDbEntity
  8
1
  6
CONTINUOUS
 62
           3
100
AcDbLine
 10
-349.237524355817
 20
638.59382246633
 11
-348.633010653476
 21
638.942838615106
  0
LINE
  5
9F
100
AcDbEntity
  8
1
  6
CONTINUOUS
 62
           7
100
AcDbLine
 10
-347.637524355817
 20
639.29382246633
 11
-347.637524355817
 21
632.54382246633
  0
LINE
  5
9E
100
AcDbEntity
  8
1
  6
CONTINUOUS
 62
           7
100
AcDbLine
 10
-347.637524355817
 20
632.54382246633
 11
-342.937524355817
 21
632.54382246633
  0
LINE
  5
9D
100
AcDbEntity
  8
1
  6
CONTINUOUS
 62
           7
100
AcDbLine
 10
-342.937524355817
 20
632.54382246633
 11
-342.637524355817
 21
632.84382246633
  0
LINE
  5
9C
100
AcDbEntity
  8
1
  6
CONTINUOUS
 62
           7
100
AcDbLine
 10
-342.637524355817
 20
632.84382246633
 11
-342.637524355817
 21
640.74382246633
  0
LINE
  5
9B
100
AcDbEntity
  8
1
  6
CONTINUOUS
 62
           7
100
AcDbLine
 10
-342.637524355817
 20
640.74382246633
 11
-342.937524355817
 21
641.04382246633
  0
LINE
  5
9A
100
AcDbEntity
  8
1
  6
CONTINUOUS
 62
           7
100
AcDbLine
 10
-342.937524355817
 20
641.04382246633
 11
-344.454465463612
 21
641.04382246633
  0
LINE
  5
99
100
AcDbEntity
  8
1
  6
CONTINUOUS
 62
           7
100
AcDbLine
 10
-360.937524355817
 20
639.29382246633
 11
-361.637524355817
 21
638.59382246633
  0
LINE
  5
98
100
AcDbEntity
  8
1
  6
CONTINUOUS
 62
           7
100
AcDbLine
 10
-361.637524355817
 20
638.59382246633
 11
-361.637524355817
 21
634.99382246633
  0
LINE
  5
97
100
AcDbEntity
  8
1
  6
CONTINUOUS
 62
           7
100
AcDbLine
 10
-361.637524355817
 20
634.99382246633
 11
-360.937524355817
 21
634.29382246633
  0
LINE
  5
96
100
AcDbEntity
  8
1
  6
CONTINUOUS
 62
           7
100
AcDbLine
 10
-360.937524355817
 20
634.29382246633
 11
-347.837524355817
 21
634.29382246633
  0
LINE
  5
95
100
AcDbEntity
  8
1
  6
CONTINUOUS
 62
           7
100
AcDbLine
 10
-349.237524355817
 20
634.29382246633
 11
-349.237524355817
 21
638.791349577048
  0
LINE
  5
94
100
AcDbEntity
  8
1
  6
CONTINUOUS
 62
           7
100
AcDbLine
 10
-360.937524355817
 20
639.29382246633
 11
-360.937524355817
 21
634.29382246633
  0
LINE
  5
93
100
AcDbEntity
  8
1
  6
CONTINUOUS
 62
           7
100
AcDbLine
 10
-342.937524355817
 20
632.54382246633
 11
-342.937524355817
 21
641.04382246633
  0
LINE
  5
92
100
AcDbEntity
  8
1
  6
CONTINUOUS
 62
           7
100
AcDbLine
 10
-361.237524355817
 20
654.29382246633
 11
-361.237524355817
 21
655.79382246633
  0
LINE
  5
91
100
AcDbEntity
  8
1
  6
CONTINUOUS
 62
           7
100
AcDbLine
 10
-361.237524355817
 20
657.04382246633
 11
-364.037524355817
 21
657.04382246633
  0
LINE
  5
90
100
AcDbEntity
  8
1
  6
CONTINUOUS
 62
           7
100
AcDbLine
 10
-364.037524355817
 20
657.04382246633
 11
-364.237524355817
 21
656.84382246633
  0
LINE
  5
8F
100
AcDbEntity
  8
1
  6
CONTINUOUS
 62
           7
100
AcDbLine
 10
-364.237524355817
 20
656.84382246633
 11
-364.237524355817
 21
651.74382246633
  0
LINE
  5
8E
100
AcDbEntity
  8
1
  6
CONTINUOUS
 62
           7
100
AcDbLine
 10
-364.237524355817
 20
651.74382246633
 11
-364.037524355817
 21
651.54382246633
  0
LINE
  5
8D
100
AcDbEntity
  8
1
  6
CONTINUOUS
 62
           7
100
AcDbLine
 10
-364.037524355817
 20
651.54382246633
 11
-361.237524355817
 21
651.54382246633
  0
LINE
  5
8C
100
AcDbEntity
  8
1
  6
CONTINUOUS
 62
           7
100
AcDbLine
 10
-361.237524355817
 20
651.54382246633
 11
-361.237524355817
 21
652.69382246633
  0
LINE
  5
8B
100
AcDbEntity
  8
1
  6
CONTINUOUS
 62
           7
100
AcDbLine
 10
-361.237524355817
 20
652.79382246633
 11
-361.237524355817
 21
654.29382246633
  0
LINE
  5
8A
100
AcDbEntity
  8
1
  6
CONTINUOUS
 62
           7
100
AcDbLine
 10
-361.237524355817
 20
655.89382246633
 11
-361.237524355817
 21
657.04382246633
  0
LINE
  5
89
100
AcDbEntity
  8
1
  6
CONTINUOUS
 62
           7
100
AcDbLine
 10
-364.037524355817
 20
657.04382246633
 11
-364.037524355817
 21
651.54382246633
  0
LINE
  5
88
100
AcDbEntity
  8
1
  6
CONTINUOUS
 62
           7
100
AcDbLine
 10
-383.564887193227
 20
626.328015627069
 11
-383.264792516573
 21
627.739850078547
  0
LINE
  5
87
100
AcDbEntity
  8
1
  6
CONTINUOUS
 62
           7
100
AcDbLine
 10
-383.264792516573
 20
627.739850078547
 11
-384.337429679164
 21
628.705656917807
  0
LINE
  5
86
100
AcDbEntity
  8
1
  6
CONTINUOUS
 62
           7
100
AcDbLine
 10
-384.337429679164
 20
628.705656917807
 11
-385.710161518408
 21
628.259629305591
  0
LINE
  5
85
100
AcDbEntity
  8
1
  6
CONTINUOUS
 62
           7
100
AcDbLine
 10
-385.710161518408
 20
628.259629305591
 11
-386.010256195061
 21
626.847794854114
  0
LINE
  5
84
100
AcDbEntity
  8
1
  6
CONTINUOUS
 62
           7
100
AcDbLine
 10
-386.010256195061
 20
626.847794854114
 11
-384.937619032471
 21
625.881988014853
  0
LINE
  5
83
100
AcDbEntity
  8
1
  6
CONTINUOUS
 62
           7
100
AcDbLine
 10
-384.937619032471
 20
625.881988014853
 11
-383.564887193227
 21
626.328015627069
  0
LINE
  5
82
100
AcDbEntity
  8
1
  6
CONTINUOUS
 62
           7
100
AcDbLine
 10
-391.628017787182
 20
646.306693605861
 11
-391.552477341119
 21
647.748091182639
  0
LINE
  5
81
100
AcDbEntity
  8
1
  6
CONTINUOUS
 62
           7
100
AcDbLine
 10
-391.552477341119
 20
647.748091182639
 11
-392.762994036531
 21
648.534209916332
  0
LINE
  5
80
100
AcDbEntity
  8
1
  6
CONTINUOUS
 62
           7
100
AcDbLine
 10
-392.762994036531
 20
648.534209916332
 11
-394.049051178006
 21
647.878931073246
  0
LINE
  5
7F
100
AcDbEntity
  8
1
  6
CONTINUOUS
 62
           7
100
AcDbLine
 10
-394.049051178006
 20
647.878931073246
 11
-394.124591624069
 21
646.437533496468
  0
LINE
  5
7E
100
AcDbEntity
  8
1
  6
CONTINUOUS
 62
           7
100
AcDbLine
 10
-394.124591624069
 20
646.437533496468
 11
-392.914074928657
 21
645.651414762775
  0
LINE
  5
7D
100
AcDbEntity
  8
1
  6
CONTINUOUS
 62
           7
100
AcDbLine
 10
-392.914074928657
 20
645.651414762775
 11
-391.628017787182
 21
646.306693605861
  0
LINE
  5
7C
100
AcDbEntity
  8
1
  6
CONTINUOUS
 62
           7
100
AcDbLine
 10
-411.91583651933
 20
654.04382246633
 11
-411.194148682843
 21
655.29382246633
  0
LINE
  5
7B
100
AcDbEntity
  8
1
  6
CONTINUOUS
 62
           7
100
AcDbLine
 10
-411.194148682843
 20
655.29382246633
 11
-411.91583651933
 21
656.54382246633
  0
LINE
  5
7A
100
AcDbEntity
  8
1
  6
CONTINUOUS
 62
           7
100
AcDbLine
 10
-411.91583651933
 20
656.54382246633
 11
-413.359212192304
 21
656.54382246633
  0
LINE
  5
79
100
AcDbEntity
  8
1
  6
CONTINUOUS
 62
           7
100
AcDbLine
 10
-413.359212192304
 20
656.54382246633
 11
-414.080900028792
 21
655.29382246633
  0
LINE
  5
78
100
AcDbEntity
  8
1
  6
CONTINUOUS
 62
           7
100
AcDbLine
 10
-414.080900028792
 20
655.29382246633
 11
-413.359212192304
 21
654.04382246633
  0
LINE
  5
77
100
AcDbEntity
  8
1
  6
CONTINUOUS
 62
           7
100
AcDbLine
 10
-413.359212192304
 20
654.04382246633
 11
-411.91583651933
 21
654.04382246633
  0
LINE
  5
76
100
AcDbEntity
  8
1
  6
CONTINUOUS
 62
           7
100
AcDbLine
 10
-431.528168486093
 20
645.971098764436
 11
-431.010908905746
 21
647.318606040807
  0
LINE
  5
75
100
AcDbEntity
  8
1
  6
CONTINUOUS
 62
           7
100
AcDbLine
 10
-431.010908905746
 20
647.318606040807
 11
-431.919254648693
 21
648.440319615924
  0
LINE
  5
74
100
AcDbEntity
  8
1
  6
CONTINUOUS
 62
           7
100
AcDbLine
 10
-431.919254648693
 20
648.440319615924
 11
-433.344859971989
 21
648.21452591467
  0
LINE
  5
73
100
AcDbEntity
  8
1
  6
CONTINUOUS
 62
           7
100
AcDbLine
 10
-433.344859971989
 20
648.21452591467
 11
-433.862119552336
 21
646.8670186383
  0
LINE
  5
72
100
AcDbEntity
  8
1
  6
CONTINUOUS
 62
           7
100
AcDbLine
 10
-433.862119552336
 20
646.8670186383
 11
-432.953773809388
 21
645.745305063183
  0
LINE
  5
71
100
AcDbEntity
  8
1
  6
CONTINUOUS
 62
           7
100
AcDbLine
 10
-432.953773809388
 20
645.745305063183
 11
-431.528168486093
 21
645.971098764436
  0
LINE
  5
70
100
AcDbEntity
  8
1
  6
CONTINUOUS
 62
           7
100
AcDbLine
 10
-439.564887193227
 20
626.328015627069
 11
-439.264792516573
 21
627.739850078547
  0
LINE
  5
6F
100
AcDbEntity
  8
1
  6
CONTINUOUS
 62
           7
100
AcDbLine
 10
-439.264792516573
 20
627.739850078547
 11
-440.337429679164
 21
628.705656917807
  0
LINE
  5
6E
100
AcDbEntity
  8
1
  6
CONTINUOUS
 62
           7
100
AcDbLine
 10
-440.337429679164
 20
628.705656917807
 11
-441.710161518408
 21
628.259629305591
  0
LINE
  5
6D
100
AcDbEntity
  8
1
  6
CONTINUOUS
 62
           7
100
AcDbLine
 10
-441.710161518408
 20
628.259629305591
 11
-442.010256195061
 21
626.847794854114
  0
LINE
  5
6C
100
AcDbEntity
  8
1
  6
CONTINUOUS
 62
           7
100
AcDbLine
 10
-442.010256195061
 20
626.847794854114
 11
-440.937619032471
 21
625.881988014853
  0
LINE
  5
6B
100
AcDbEntity
  8
1
  6
CONTINUOUS
 62
           7
100
AcDbLine
 10
-440.937619032471
 20
625.881988014853
 11
-439.564887193227
 21
626.328015627069
  0
LINE
  5
6A
100
AcDbEntity
  8
1
  6
CONTINUOUS
 62
           7
100
AcDbLine
 10
-431.225997533629
 20
606.708713859414
 11
-431.150457087566
 21
608.150111436192
  0
LINE
  5
69
100
AcDbEntity
  8
1
  6
CONTINUOUS
 62
           7
100
AcDbLine
 10
-431.150457087566
 20
608.150111436192
 11
-432.360973782978
 21
608.936230169885
  0
LINE
  5
68
100
AcDbEntity
  8
1
  6
CONTINUOUS
 62
           7
100
AcDbLine
 10
-432.360973782978
 20
608.936230169885
 11
-433.647030924453
 21
608.2809513268
  0
LINE
  5
67
100
AcDbEntity
  8
1
  6
CONTINUOUS
 62
           7
100
AcDbLine
 10
-433.647030924453
 20
608.2809513268
 11
-433.722571370515
 21
606.839553750021
  0
LINE
  5
66
100
AcDbEntity
  8
1
  6
CONTINUOUS
 62
           7
100
AcDbLine
 10
-433.722571370515
 20
606.839553750021
 11
-432.512054675104
 21
606.053435016329
  0
LINE
  5
65
100
AcDbEntity
  8
1
  6
CONTINUOUS
 62
           7
100
AcDbLine
 10
-432.512054675104
 20
606.053435016329
 11
-431.225997533629
 21
606.708713859414
  0
LINE
  5
64
100
AcDbEntity
  8
1
  6
CONTINUOUS
 62
           7
100
AcDbLine
 10
-411.91583651933
 20
598.04382246633
 11
-411.194148682843
 21
599.29382246633
  0
LINE
  5
63
100
AcDbEntity
  8
1
  6
CONTINUOUS
 62
           7
100
AcDbLine
 10
-411.194148682843
 20
599.29382246633
 11
-411.91583651933
 21
600.54382246633
  0
LINE
  5
62
100
AcDbEntity
  8
1
  6
CONTINUOUS
 62
           7
100
AcDbLine
 10
-411.91583651933
 20
600.54382246633
 11
-413.359212192304
 21
600.54382246633
  0
LINE
  5
61
100
AcDbEntity
  8
1
  6
CONTINUOUS
 62
           7
100
AcDbLine
 10
-413.359212192304
 20
600.54382246633
 11
-414.080900028792
 21
599.29382246633
  0
LINE
  5
60
100
AcDbEntity
  8
1
  6
CONTINUOUS
 62
           7
100
AcDbLine
 10
-414.080900028792
 20
599.29382246633
 11
-413.359212192304
 21
598.04382246633
  0
LINE
  5
5F
100
AcDbEntity
  8
1
  6
CONTINUOUS
 62
           7
100
AcDbLine
 10
-413.359212192304
 20
598.04382246633
 11
-411.91583651933
 21
598.04382246633
  0
LINE
  5
5E
100
AcDbEntity
  8
1
  6
CONTINUOUS
 62
           7
100
AcDbLine
 10
-391.930188739646
 20
606.37311901799
 11
-391.412929159299
 21
607.720626294361
  0
LINE
  5
5D
100
AcDbEntity
  8
1
  6
CONTINUOUS
 62
           7
100
AcDbLine
 10
-391.412929159299
 20
607.720626294361
 11
-392.321274902247
 21
608.842339869478
  0
LINE
  5
5C
100
AcDbEntity
  8
1
  6
CONTINUOUS
 62
           7
100
AcDbLine
 10
-392.321274902247
 20
608.842339869478
 11
-393.746880225542
 21
608.616546168224
  0
LINE
  5
5B
100
AcDbEntity
  8
1
  6
CONTINUOUS
 62
           7
100
AcDbLine
 10
-393.746880225542
 20
608.616546168224
 11
-394.264139805889
 21
607.269038891853
  0
LINE
  5
5A
100
AcDbEntity
  8
1
  6
CONTINUOUS
 62
           7
100
AcDbLine
 10
-394.264139805889
 20
607.269038891853
 11
-393.355794062941
 21
606.147325316736
  0
LINE
  5
59
100
AcDbEntity
  8
1
  6
CONTINUOUS
 62
           7
100
AcDbLine
 10
-393.355794062941
 20
606.147325316736
 11
-391.930188739646
 21
606.37311901799
  0
LINE
  5
58
100
AcDbEntity
  8
1
  6
DASH_CENTER
 62
           3
100
AcDbLine
 10
-260.691387187247
 20
610.608130178966
 11
-263.798623799878
 21
603.106597407248
  0
LINE
  5
57
100
AcDbEntity
  8
1
  6
DASH_CENTER
 62
           3
100
AcDbLine
 10
-265.91168830248
 20
598.005208426899
 11
-268.895942722657
 21
590.800580932134
  0
LINE
  5
56
100
AcDbEntity
  8
1
  6
CONTINUOUS
 62
           7
100
AcDbLine
 10
-219.482223740086
 20
612.842535213585
 11
-219.482223740086
 21
614.574586021154
  0
LINE
  5
55
100
AcDbEntity
  8
1
  6
CONTINUOUS
 62
           7
100
AcDbLine
 10
-220.982223740086
 20
611.976509809801
 11
-219.482223740086
 21
612.842535213585
  0
LINE
  5
54
100
AcDbEntity
  8
1
  6
CONTINUOUS
 62
           7
100
AcDbLine
 10
-222.482223740086
 20
612.842535213585
 11
-220.982223740086
 21
611.976509809801
  0
LINE
  5
53
100
AcDbEntity
  8
1
  6
CONTINUOUS
 62
           7
100
AcDbLine
 10
-222.482223740086
 20
614.574586021154
 11
-222.482223740086
 21
612.842535213585
  0
LINE
  5
52
100
AcDbEntity
  8
1
  6
CONTINUOUS
 62
           7
100
AcDbLine
 10
-220.982223740086
 20
615.440611424938
 11
-222.482223740086
 21
614.574586021154
  0
LINE
  5
51
100
AcDbEntity
  8
1
  6
CONTINUOUS
 62
           7
100
AcDbLine
 10
-219.482223740086
 20
614.574586021154
 11
-220.982223740086
 21
615.440611424938
  0
LINE
  5
50
100
AcDbEntity
  8
1
  6
CONTINUOUS
 62
           7
100
AcDbLine
 10
-238.694685295276
 20
659.225520466696
 11
-238.694685295276
 21
660.957571274265
  0
LINE
  5
4F
100
AcDbEntity
  8
1
  6
CONTINUOUS
 62
           7
100
AcDbLine
 10
-240.194685295276
 20
658.359495062912
 11
-238.694685295276
 21
659.225520466696
  0
LINE
  5
4E
100
AcDbEntity
  8
1
  6
CONTINUOUS
 62
           7
100
AcDbLine
 10
-241.694685295276
 20
659.225520466696
 11
-240.194685295276
 21
658.359495062912
  0
LINE
  5
4D
100
AcDbEntity
  8
1
  6
CONTINUOUS
 62
           7
100
AcDbLine
 10
-241.694685295276
 20
660.957571274265
 11
-241.694685295276
 21
659.225520466696
  0
LINE
  5
4C
100
AcDbEntity
  8
1
  6
CONTINUOUS
 62
           7
100
AcDbLine
 10
-240.194685295276
 20
661.82359667805
 11
-241.694685295276
 21
660.957571274265
  0
LINE
  5
4B
100
AcDbEntity
  8
1
  6
CONTINUOUS
 62
           7
100
AcDbLine
 10
-238.694685295276
 20
660.957571274265
 11
-240.194685295276
 21
661.82359667805
  0
LINE
  5
4A
100
AcDbEntity
  8
1
  6
DASHED
 62
           4
100
AcDbLine
 10
-259.11789273157
 20
666.431481273503
 11
-253.219302318322
 21
636.777264741115
  0
LINE
  5
49
100
AcDbEntity
  8
1
  6
DASHED
 62
           4
100
AcDbLine
 10
-257.927071664258
 20
635.840831195438
 11
-263.825662077505
 21
665.495047727825
  0
LINE
  5
48
100
AcDbEntity
  8
1
  6
DASHED
 62
           4
100
AcDbLine
 10
-256.958843456119
 20
658.652706122875
 11
-262.843555138538
 21
657.482164190778
  0
LINE
  5
47
100
AcDbEntity
  8
1
  6
DASHED
 62
           3
100
AcDbLine
 10
-262.052340160419
 20
656.579956421803
 11
-262.843555138538
 21
657.482164190778
  0
LINE
  5
46
100
AcDbEntity
  8
1
  6
DASHED
 62
           3
100
AcDbLine
 10
-262.843555138538
 20
657.482164190778
 11
-264.406113081743
 21
665.337673447383
  0
LINE
  5
45
100
AcDbEntity
  8
1
  6
DASHED
 62
           3
100
AcDbLine
 10
-258.521401399323
 20
666.50821537948
 11
-256.958843456119
 21
658.652706122875
  0
LINE
  5
44
100
AcDbEntity
  8
1
  6
DASHED
 62
           3
100
AcDbLine
 10
-256.958843456119
 20
658.652706122875
 11
-257.344570814483
 21
657.516389967481
  0
LINE
  5
43
100
AcDbEntity
  8
1
  6
CONTINUOUS
 62
           7
100
AcDbLine
 10
-285.077670548387
 20
640.013058911506
 11
-285.077670548387
 21
641.745109719075
  0
LINE
  5
42
100
AcDbEntity
  8
1
  6
CONTINUOUS
 62
           7
100
AcDbLine
 10
-286.577670548387
 20
639.147033507722
 11
-285.077670548387
 21
640.013058911506
  0
LINE
  5
41
100
AcDbEntity
  8
1
  6
CONTINUOUS
 62
           7
100
AcDbLine
 10
-288.077670548387
 20
640.013058911506
 11
-286.577670548387
 21
639.147033507722
  0
LINE
  5
40
100
AcDbEntity
  8
1
  6
CONTINUOUS
 62
           7
100
AcDbLine
 10
-288.077670548387
 20
641.745109719075
 11
-288.077670548387
 21
640.013058911506
  0
LINE
  5
3F
100
AcDbEntity
  8
1
  6
CONTINUOUS
 62
           7
100
AcDbLine
 10
-286.577670548387
 20
642.61113512286
 11
-288.077670548387
 21
641.745109719075
  0
LINE
  5
3E
100
AcDbEntity
  8
1
  6
CONTINUOUS
 62
           7
100
AcDbLine
 10
-285.077670548387
 20
641.745109719075
 11
-286.577670548387
 21
642.61113512286
  0
LINE
  5
3D
100
AcDbEntity
  8
1
  6
CONTINUOUS
 62
           7
100
AcDbLine
 10
-265.865208993197
 20
593.630073658395
 11
-265.865208993197
 21
595.362124465964
  0
LINE
  5
3C
100
AcDbEntity
  8
1
  6
CONTINUOUS
 62
           7
100
AcDbLine
 10
-267.365208993197
 20
592.76404825461
 11
-265.865208993197
 21
593.630073658395
  0
LINE
  5
3B
100
AcDbEntity
  8
1
  6
CONTINUOUS
 62
           7
100
AcDbLine
 10
-268.865208993197
 20
593.630073658395
 11
-267.365208993197
 21
592.76404825461
  0
LINE
  5
3A
100
AcDbEntity
  8
1
  6
CONTINUOUS
 62
           7
100
AcDbLine
 10
-268.865208993197
 20
595.362124465964
 11
-268.865208993197
 21
593.630073658395
  0
LINE
  5
39
100
AcDbEntity
  8
1
  6
CONTINUOUS
 62
           7
100
AcDbLine
 10
-267.365208993197
 20
596.228149869748
 11
-268.865208993197
 21
595.362124465964
  0
LINE
  5
38
100
AcDbEntity
  8
1
  6
CONTINUOUS
 62
           7
100
AcDbLine
 10
-265.865208993197
 20
595.362124465964
 11
-267.365208993197
 21
596.228149869748
  0
LINE
  5
37
100
AcDbEntity
  8
1
  6
DASH_CENTER
 62
           3
100
AcDbLine
 10
-303.126234709965
 20
591.79382246633
 11
-338.119951868936
 21
591.79382246633
  0
LINE
  5
36
100
AcDbEntity
  8
1
  6
CONTINUOUS
 62
           7
100
AcDbLine
 10
-308.137524353765
 20
588.29382246633
 11
-308.137524353576
 21
666.29382246633
  0
LINE
  5
35
100
AcDbEntity
  8
1
  6
CONTINUOUS
 62
           7
100
AcDbLine
 10
-316.137524353906
 20
636.79382246633
 11
-316.137524353906
 21
666.29382246633
  0
LINE
  5
34
100
AcDbEntity
  8
1
  6
CONTINUOUS
 62
           7
100
AcDbLine
 10
-316.137524353907
 20
616.04382246633
 11
-316.137524353906
 21
617.79382246633
  0
LINE
  5
33
100
AcDbEntity
  8
1
  6
CONTINUOUS
 62
           7
100
AcDbLine
 10
-316.137524353906
 20
617.79382246633
 11
-321.537524354043
 21
617.79382246633
  0
LINE
  5
32
100
AcDbEntity
  8
1
  6
DASH_CENTER
 62
           3
100
AcDbLine
 10
-310.985211142824
 20
615.04382246633
 11
-326.765804428315
 21
615.04382246633
  0
LINE
  5
31
100
AcDbEntity
  8
1
  6
CONTINUOUS
 62
           7
100
AcDbLine
 10
-326.137524355953
 20
603.29382246633
 11
-328.737524355817
 21
603.29382246633
  0
LINE
  5
30
100
AcDbEntity
  8
1
  6
CONTINUOUS
 62
           7
100
AcDbLine
 10
-329.137524355817
 20
611.553850344531
 11
-329.137524355817
 21
594.04382246633
  0
LINE
  5
2F
100
AcDbEntity
  8
1
  6
CONTINUOUS
 62
           7
100
AcDbLine
 10
-330.118429925604
 20
642.44382246633
 11
-329.037524355817
 21
642.44382246633
  0
LINE
  5
2E
100
AcDbEntity
  8
1
  6
CONTINUOUS
 62
           7
100
AcDbLine
 10
-328.799145693076
 20
611.302201129071
 11
-328.737524355817
 21
611.36382246633
  0
LINE
  5
2D
100
AcDbEntity
  8
1
  6
CONTINUOUS
 62
           7
100
AcDbLine
 10
-329.037524355817
 20
612.14382246633
 11
-328.737524355817
 21
611.84382246633
  0
LINE
  5
2C
100
AcDbEntity
  8
1
  6
CONTINUOUS
 62
           7
100
AcDbLine
 10
-328.737524355817
 20
611.36382246633
 11
-328.737524355817
 21
611.84382246633
  0
LINE
  5
2B
100
AcDbEntity
  8
1
  6
CONTINUOUS
 62
           7
100
AcDbLine
 10
-329.037524355817
 20
612.14382246633
 11
-330.118429925604
 21
612.14382246633
  0
LINE
  5
2A
100
AcDbEntity
  8
1
  6
CONTINUOUS
 62
           7
100
AcDbLine
 10
-328.737524355817
 20
642.74382246633
 11
-328.737524355817
 21
643.22382246633
  0
LINE
  5
29
100
AcDbEntity
  8
1
  6
CONTINUOUS
 62
           7
100
AcDbLine
 10
-328.737524355817
 20
642.74382246633
 11
-329.037524355817
 21
642.44382246633
  0
LINE
  5
28
100
AcDbEntity
  8
1
  6
CONTINUOUS
 62
           7
100
AcDbLine
 10
-328.737524355817
 20
643.22382246633
 11
-328.799145693076
 21
643.285443803589
  0
CIRCLE
  5
254
100
AcDbEntity
  8
0
 62
           7
100
AcDbCircle
 10
-412.637524355817
 20
619.79382246633
 40
0.5
  0
HATCH
  5
255
100
AcDbEntity
  8
0
 62
           7
100
AcDbHatch
 10
0.0
 20
0.0
 30
0.0
210
0.0
220
0.0
230
1.0
  2
SOLID
 70
           1
 71
           1
 91
        1
 92
        1
 93
        1
 72
           2
 10
-412.63752435581739
 20
619.79382246633008
 40
0.5
 50
-180.0
 51
180.0
 73
           1
 97
        1
330
254
 75
           0
 76
           1
 98
        1
 10
0.0
 20
0.0
  0
CIRCLE
  5
257
100
AcDbEntity
  8
0
 62
           7
100
AcDbCircle
 10
-419.132714884201
 20
631.04382246633
 40
0.5
  0
HATCH
  5
258
100
AcDbEntity
  8
0
 62
           7
100
AcDbHatch
 10
0.0
 20
0.0
 30
0.0
210
0.0
220
0.0
230
1.0
  2
SOLID
 70
           1
 71
           1
 91
        1
 92
        1
 93
        1
 72
           2
 10
-419.13271488420071
 20
631.04382246633008
 40
0.5
 50
-180.0
 51
180.0
 73
           1
 97
        1
330
257
 75
           0
 76
           1
 98
        1
 10
0.0
 20
0.0
  0
CIRCLE
  5
25A
100
AcDbEntity
  8
0
 62
           7
100
AcDbCircle
 10
-406.142333827434
 20
631.04382246633
 40
0.5
  0
HATCH
  5
25B
100
AcDbEntity
  8
0
 62
           7
100
AcDbHatch
 10
0.0
 20
0.0
 30
0.0
210
0.0
220
0.0
230
1.0
  2
SOLID
 70
           1
 71
           1
 91
        1
 92
        1
 93
        1
 72
           2
 10
-406.14233382743407
 20
631.04382246633008
 40
0.5
 50
-180.0
 51
180.0
 73
           1
 97
        1
330
25A
 75
           0
 76
           1
 98
        1
 10
0.0
 20
0.0
  0
CIRCLE
  5
25D
100
AcDbEntity
  8
0
 62
           7
100
AcDbCircle
 10
-403.137524355817
 20
627.29382246633
 40
0.5
  0
HATCH
  5
25E
100
AcDbEntity
  8
0
 62
           7
100
AcDbHatch
 10
0.0
 20
0.0
 30
0.0
210
0.0
220
0.0
230
1.0
  2
SOLID
 70
           1
 71
           1
 91
        1
 92
        1
 93
        1
 72
           2
 10
-403.13752435581739
 20
627.29382246633008
 40
0.5
 50
-180.0
 51
180.0
 73
           1
 97
        1
330
25D
 75
           0
 76
           1
 98
        1
 10
0.0
 20
0.0
  0
CIRCLE
  5
260
100
AcDbEntity
  8
0
 62
           7
100
AcDbCircle
 10
-407.887524355817
 20
635.521063802282
 40
0.5
  0
HATCH
  5
261
100
AcDbEntity
  8
0
 62
           7
100
AcDbHatch
 10
0.0
 20
0.0
 30
0.0
210
0.0
220
0.0
230
1.0
  2
SOLID
 70
           1
 71
           1
 91
        1
 92
        1
 93
        1
 72
           2
 10
-407.88752435581739
 20
635.52106380228236
 40
0.5
 50
-180.0
 51
180.0
 73
           1
 97
        1
330
260
 75
           0
 76
           1
 98
        1
 10
0.0
 20
0.0
  0
CIRCLE
  5
263
100
AcDbEntity
  8
0
 62
           7
100
AcDbCircle
 10
-417.387524355817
 20
635.521063802282
 40
0.5
  0
HATCH
  5
264
100
AcDbEntity
  8
0
 62
           7
100
AcDbHatch
 10
0.0
 20
0.0
 30
0.0
210
0.0
220
0.0
230
1.0
  2
SOLID
 70
           1
 71
           1
 91
        1
 92
        1
 93
        1
 72
           2
 10
-417.38752435581739
 20
635.52106380228236
 40
0.5
 50
-180.0
 51
180.0
 73
           1
 97
        1
330
263
 75
           0
 76
           1
 98
        1
 10
0.0
 20
0.0
  0
CIRCLE
  5
266
100
AcDbEntity
  8
0
 62
           7
100
AcDbCircle
 10
-422.137524355817
 20
627.29382246633
 40
0.5
  0
HATCH
  5
267
100
AcDbEntity
  8
0
 62
           7
100
AcDbHatch
 10
0.0
 20
0.0
 30
0.0
210
0.0
220
0.0
230
1.0
  2
SOLID
 70
           1
 71
           1
 91
        1
 92
        1
 93
        1
 72
           2
 10
-422.13752435581739
 20
627.29382246633008
 40
0.5
 50
-180.0
 51
180.0
 73
           1
 97
        1
330
266
 75
           0
 76
           1
 98
        1
 10
0.0
 20
0.0
  0
CIRCLE
  5
269
100
AcDbEntity
  8
0
 62
           7
100
AcDbCircle
 10
-417.387524355817
 20
619.066581130378
 40
0.5
  0
HATCH
  5
26A
100
AcDbEntity
  8
0
 62
           7
100
AcDbHatch
 10
0.0
 20
0.0
 30
0.0
210
0.0
220
0.0
230
1.0
  2
SOLID
 70
           1
 71
           1
 91
        1
 92
        1
 93
        1
 72
           2
 10
-417.38752435581739
 20
619.06658113037793
 40
0.5
 50
-180.0
 51
180.0
 73
           1
 97
        1
330
269
 75
           0
 76
           1
 98
        1
 10
0.0
 20
0.0
  0
CIRCLE
  5
26C
100
AcDbEntity
  8
0
 62
           7
100
AcDbCircle
 10
-407.812919081782
 20
619.110107909373
 40
0.5
  0
HATCH
  5
26D
100
AcDbEntity
  8
0
 62
           7
100
AcDbHatch
 10
0.0
 20
0.0
 30
0.0
210
0.0
220
0.0
230
1.0
  2
SOLID
 70
           1
 71
           1
 91
        1
 92
        1
 93
        1
 72
           2
 10
-407.81291908178241
 20
619.11010790937291
 40
0.5
 50
-180.0
 51
180.0
 73
           1
 97
        1
330
26C
 75
           0
 76
           1
 98
        1
 10
0.0
 20
0.0
  0
CIRCLE
  5
26F
100
AcDbEntity
  8
0
 62
           7
100
AcDbCircle
 10
-412.637524355817
 20
634.79382246633
 40
0.5
  0
HATCH
  5
270
100
AcDbEntity
  8
0
 62
           7
100
AcDbHatch
 10
0.0
 20
0.0
 30
0.0
210
0.0
220
0.0
230
1.0
  2
SOLID
 70
           1
 71
           1
 91
        1
 92
        1
 93
        1
 72
           2
 10
-412.63752435581739
 20
634.79382246633008
 40
0.5
 50
-180.0
 51
180.0
 73
           1
 97
        1
330
26F
 75
           0
 76
           1
 98
        1
 10
0.0
 20
0.0
  0
CIRCLE
  5
272
100
AcDbEntity
  8
0
 62
           7
100
AcDbCircle
 10
-406.142333827434
 20
623.54382246633
 40
0.5
  0
HATCH
  5
273
100
AcDbEntity
  8
0
 62
           7
100
AcDbHatch
 10
0.0
 20
0.0
 30
0.0
210
0.0
220
0.0
230
1.0
  2
SOLID
 70
           1
 71
           1
 91
        1
 92
        1
 93
        1
 72
           2
 10
-406.14233382743407
 20
623.54382246633008
 40
0.5
 50
-180.0
 51
180.0
 73
           1
 97
        1
330
272
 75
           0
 76
           1
 98
        1
 10
0.0
 20
0.0
  0
CIRCLE
  5
275
100
AcDbEntity
  8
0
 62
           7
100
AcDbCircle
 10
-419.132714884201
 20
623.54382246633
 40
0.5
  0
HATCH
  5
276
100
AcDbEntity
  8
0
 62
           7
100
AcDbHatch
 10
0.0
 20
0.0
 30
0.0
210
0.0
220
0.0
230
1.0
  2
SOLID
 70
           1
 71
           1
 91
        1
 92
        1
 93
        1
 72
           2
 10
-419.13271488420071
 20
623.54382246633008
 40
0.5
 50
-180.0
 51
180.0
 73
           1
 97
        1
330
275
 75
           0
 76
           1
 98
        1
 10
0.0
 20
0.0
  0
ENDSEC
  0
SECTION
  2
OBJECTS
  0
DICTIONARY
  5
19
100
AcDbDictionary
  3
ACAD_GROUP
350
1A
  3
ACAD_MLINESTYLE
350
1B
  0
DICTIONARY
  5
1A
102
{ACAD_REACTORS
330
19
102
}
100
AcDbDictionary
  0
DICTIONARY
  5
1B
102
{ACAD_REACTORS
330
19
102
}
100
AcDbDictionary
  3
STANDARD
350
1C
  0
MLINESTYLE
  5
1C
102
{ACAD_REACTORS
330
1B
102
}
100
AcDbMlineStyle
  2
STANDARD
 70
           0
  3

 62
           0
 51
90.0
 52
90.0
 71
           2
 49
0.5
 62
         256
  6
BYLAYER
 49
-0.5
 62
         256
  6
BYLAYER
  0
ENDSEC
  0
EOF
