  0
SECTION
  2
HEADER
  9
$ACADVER
  1
AC1018
  9
$ACADMAINTVER
 70
   104
  9
$DWGCODEPAGE
  3
ANSI_932
  9
$AUTHOR
  1
SHIMPO
  9
$CUSTOMPROPERTYTAG
  1
マネージャ
  9
$CUSTOMPROPERTY
  1

  9
$CUSTOMPROPERTYTAG
  1
会社
  9
$CUSTOMPROPERTY
  1

  9
$CUSTOMPROPERTYTAG
  1
カテゴリ
  9
$CUSTOMPROPERTY
  1

  9
$CUSTOMPROPERTYTAG
  1
部品番号
  9
$CUSTOMPROPERTY
  1
VRXF-□-3~9C-S-14BP10
  9
$CUSTOMPROPERTYTAG
  1
説明
  9
$CUSTOMPROPERTY
  1

  9
$CUSTOMPROPERTYTAG
  1
プロジェクト
  9
$CUSTOMPROPERTY
  1

  9
$CUSTOMPROPERTYTAG
  1
設計者
  9
$CUSTOMPROPERTY
  1
SHIMPO
  9
$CUSTOMPROPERTYTAG
  1
エンジニア
  9
$CUSTOMPROPERTY
  1

  9
$CUSTOMPROPERTYTAG
  1
責任者
  9
$CUSTOMPROPERTY
  1

  9
$CUSTOMPROPERTYTAG
  1
コスト センター
  9
$CUSTOMPROPERTY
  1

  9
$CUSTOMPROPERTYTAG
  1
ベンダー
  9
$CUSTOMPROPERTY
  1

  9
$CUSTOMPROPERTYTAG
  1
ユーザ ステータス
  9
$CUSTOMPROPERTY
  1

  9
$CUSTOMPROPERTYTAG
  1
設計ステータス
  9
$CUSTOMPROPERTY
  1
作業中
  9
$CUSTOMPROPERTYTAG
  1
確認者
  9
$CUSTOMPROPERTY
  1

  9
$CUSTOMPROPERTYTAG
  1
エンジニアリング承認者
  9
$CUSTOMPROPERTY
  1

  9
$CUSTOMPROPERTYTAG
  1
製造承認者
  9
$CUSTOMPROPERTY
  1

  9
$INSBASE
 10
0.0
 20
0.0
 30
0.0
  9
$EXTMIN
 10
0.0
 20
0.0
 30
0.0
  9
$EXTMAX
 10
525.0
 20
371.25
 30
0.0
  9
$LIMMIN
 10
0.0
 20
0.0
  9
$LIMMAX
 10
525.0
 20
371.25
  9
$ORTHOMODE
 70
     0
  9
$REGENMODE
 70
     1
  9
$FILLMODE
 70
     1
  9
$QTEXTMODE
 70
     0
  9
$MIRRTEXT
 70
     0
  9
$LTSCALE
 40
1.25
  9
$ATTMODE
 70
     1
  9
$TEXTSIZE
 40
0.2
  9
$TRACEWID
 40
0.05
  9
$TEXTSTYLE
  7
Standard
  9
$CLAYER
  8
0
  9
$CELTYPE
  6
ByLayer
  9
$CECOLOR
 62
   256
  9
$CELTSCALE
 40
1.0
  9
$DISPSILH
 70
     0
  9
$DIMSCALE
 40
1.0
  9
$DIMASZ
 40
1.799999999999999
  9
$DIMEXO
 40
0.0625
  9
$DIMDLI
 40
0.38
  9
$DIMRND
 40
0.0
  9
$DIMDLE
 40
0.0
  9
$DIMEXE
 40
0.18
  9
$DIMTP
 40
0.0
  9
$DIMTM
 40
0.0
  9
$DIMTXT
 40
0.4499999880790711
  9
$DIMCEN
 40
0.09
  9
$DIMTSZ
 40
0.0
  9
$DIMTOL
 70
     0
  9
$DIMLIM
 70
     0
  9
$DIMTIH
 70
     1
  9
$DIMTOH
 70
     1
  9
$DIMSE1
 70
     0
  9
$DIMSE2
 70
     0
  9
$DIMTAD
 70
     0
  9
$DIMZIN
 70
     0
  9
$DIMBLK
  1

  9
$DIMASO
 70
     1
  9
$DIMSHO
 70
     1
  9
$DIMPOST
  1

  9
$DIMAPOST
  1

  9
$DIMALT
 70
     0
  9
$DIMALTD
 70
     2
  9
$DIMALTF
 40
25.4
  9
$DIMLFAC
 40
1.0
  9
$DIMTOFL
 70
     0
  9
$DIMTVP
 40
0.0
  9
$DIMTIX
 70
     0
  9
$DIMSOXD
 70
     0
  9
$DIMSAH
 70
     0
  9
$DIMBLK1
  1

  9
$DIMBLK2
  1

  9
$DIMSTYLE
  2
Standard
  9
$DIMCLRD
 70
     0
  9
$DIMCLRE
 70
     0
  9
$DIMCLRT
 70
     0
  9
$DIMTFAC
 40
1.0
  9
$DIMGAP
 40
0.09
  9
$DIMJUST
 70
     0
  9
$DIMSD1
 70
     0
  9
$DIMSD2
 70
     0
  9
$DIMTOLJ
 70
     1
  9
$DIMTZIN
 70
     0
  9
$DIMALTZ
 70
     0
  9
$DIMALTTZ
 70
     0
  9
$DIMUPT
 70
     0
  9
$DIMDEC
 70
     4
  9
$DIMTDEC
 70
     4
  9
$DIMALTU
 70
     2
  9
$DIMALTTD
 70
     2
  9
$DIMTXSTY
  7
Standard
  9
$DIMAUNIT
 70
     0
  9
$DIMADEC
 70
     0
  9
$DIMALTRND
 40
0.0
  9
$DIMAZIN
 70
     0
  9
$DIMDSEP
 70
    46
  9
$DIMATFIT
 70
     3
  9
$DIMFRAC
 70
     0
  9
$DIMLDRBLK
  1

  9
$DIMLUNIT
 70
     2
  9
$DIMLWD
 70
    -2
  9
$DIMLWE
 70
    -2
  9
$DIMTMOVE
 70
     0
  9
$LUNITS
 70
     2
  9
$LUPREC
 70
     4
  9
$SKETCHINC
 40
0.1
  9
$FILLETRAD
 40
0.0
  9
$AUNITS
 70
     0
  9
$AUPREC
 70
     0
  9
$MENU
  1
.
  9
$ELEVATION
 40
0.0
  9
$PELEVATION
 40
0.0
  9
$THICKNESS
 40
0.0
  9
$LIMCHECK
 70
     0
  9
$CHAMFERA
 40
0.0
  9
$CHAMFERB
 40
0.0
  9
$CHAMFERC
 40
0.0
  9
$CHAMFERD
 40
0.0
  9
$SKPOLY
 70
     0
  9
$TDCREATE
 40
2457363.544365775
  9
$TDUCREATE
 40
2457363.169365776
  9
$TDUPDATE
 40
2457363.544365775
  9
$TDUUPDATE
 40
2457363.169365776
  9
$TDINDWG
 40
0.0000873032
  9
$TDUSRTIMER
 40
0.0000873032
  9
$USRTIMER
 70
     1
  9
$ANGBASE
 50
0.0
  9
$ANGDIR
 70
     0
  9
$PDMODE
 70
     0
  9
$PDSIZE
 40
0.0
  9
$PLINEWID
 40
0.0
  9
$SPLFRAME
 70
     0
  9
$SPLINETYPE
 70
     6
  9
$SPLINESEGS
 70
     8
  9
$HANDSEED
  5
332
  9
$SURFTAB1
 70
     6
  9
$SURFTAB2
 70
     6
  9
$SURFTYPE
 70
     6
  9
$SURFU
 70
     6
  9
$SURFV
 70
     6
  9
$UCSBASE
  2

  9
$UCSNAME
  2

  9
$UCSORG
 10
0.0
 20
0.0
 30
0.0
  9
$UCSXDIR
 10
1.0
 20
0.0
 30
0.0
  9
$UCSYDIR
 10
0.0
 20
1.0
 30
0.0
  9
$UCSORTHOREF
  2

  9
$UCSORTHOVIEW
 70
     0
  9
$UCSORGTOP
 10
0.0
 20
0.0
 30
0.0
  9
$UCSORGBOTTOM
 10
0.0
 20
0.0
 30
0.0
  9
$UCSORGLEFT
 10
0.0
 20
0.0
 30
0.0
  9
$UCSORGRIGHT
 10
0.0
 20
0.0
 30
0.0
  9
$UCSORGFRONT
 10
0.0
 20
0.0
 30
0.0
  9
$UCSORGBACK
 10
0.0
 20
0.0
 30
0.0
  9
$PUCSBASE
  2

  9
$PUCSNAME
  2

  9
$PUCSORG
 10
0.0
 20
0.0
 30
0.0
  9
$PUCSXDIR
 10
1.0
 20
0.0
 30
0.0
  9
$PUCSYDIR
 10
0.0
 20
1.0
 30
0.0
  9
$PUCSORTHOREF
  2

  9
$PUCSORTHOVIEW
 70
     0
  9
$PUCSORGTOP
 10
0.0
 20
0.0
 30
0.0
  9
$PUCSORGBOTTOM
 10
0.0
 20
0.0
 30
0.0
  9
$PUCSORGLEFT
 10
0.0
 20
0.0
 30
0.0
  9
$PUCSORGRIGHT
 10
0.0
 20
0.0
 30
0.0
  9
$PUCSORGFRONT
 10
0.0
 20
0.0
 30
0.0
  9
$PUCSORGBACK
 10
0.0
 20
0.0
 30
0.0
  9
$USERI1
 70
     0
  9
$USERI2
 70
     0
  9
$USERI3
 70
     0
  9
$USERI4
 70
     0
  9
$USERI5
 70
     0
  9
$USERR1
 40
0.0
  9
$USERR2
 40
0.0
  9
$USERR3
 40
0.0
  9
$USERR4
 40
0.0
  9
$USERR5
 40
0.0
  9
$WORLDVIEW
 70
     1
  9
$SHADEDGE
 70
     3
  9
$SHADEDIF
 70
    70
  9
$TILEMODE
 70
     1
  9
$MAXACTVP
 70
    64
  9
$PINSBASE
 10
0.0
 20
0.0
 30
0.0
  9
$PLIMCHECK
 70
     0
  9
$PEXTMIN
 10
0.0
 20
0.0
 30
0.0
  9
$PEXTMAX
 10
525.0
 20
371.25
 30
0.0
  9
$PLIMMIN
 10
0.0
 20
0.0
  9
$PLIMMAX
 10
525.0
 20
371.25
  9
$UNITMODE
 70
     0
  9
$VISRETAIN
 70
     1
  9
$PLINEGEN
 70
     0
  9
$PSLTSCALE
 70
     1
  9
$TREEDEPTH
 70
  3020
  9
$CMLSTYLE
  2
Standard
  9
$CMLJUST
 70
     0
  9
$CMLSCALE
 40
1.0
  9
$PROXYGRAPHICS
 70
     1
  9
$MEASUREMENT
 70
     1
  9
$CELWEIGHT
370
    -1
  9
$ENDCAPS
280
     0
  9
$JOINSTYLE
280
     0
  9
$LWDISPLAY
290
     0
  9
$INSUNITS
 70
     4
  9
$HYPERLINKBASE
  1

  9
$STYLESHEET
  1

  9
$XEDIT
290
     1
  9
$CEPSNTYPE
380
     0
  9
$PSTYLEMODE
290
     1
  9
$FINGERPRINTGUID
  2
{A011E4E2-F686-4A10-963D-B09D996B8E13}
  9
$VERSIONGUID
  2
{D6E7E6E8-E9DB-4C19-9EAD-0513302B7610}
  9
$EXTNAMES
290
     1
  9
$PSVPSCALE
 40
0.0
  9
$OLESTARTUP
290
     0
  9
$SORTENTS
280
   127
  9
$INDEXCTL
280
     0
  9
$HIDETEXT
280
     1
  9
$XCLIPFRAME
290
     0
  9
$HALOGAP
280
     0
  9
$OBSCOLOR
 70
   257
  9
$OBSLTYPE
280
     0
  9
$INTERSECTIONDISPLAY
280
     0
  9
$INTERSECTIONCOLOR
 70
   257
  9
$DIMASSOC
280
     1
  9
$PROJECTNAME
  1

  0
ENDSEC
  0
SECTION
  2
CLASSES
  0
CLASS
  1
ACDBDICTIONARYWDFLT
  2
AcDbDictionaryWithDefault
  3
ObjectDBX Classes
 90
        0
 91
        1
280
     0
281
     0
  0
CLASS
  1
MATERIAL
  2
AcDbMaterial
  3
ObjectDBX Classes
 90
     1153
 91
        3
280
     0
281
     0
  0
CLASS
  1
VISUALSTYLE
  2
AcDbVisualStyle
  3
ObjectDBX Classes
 90
     4095
 91
       24
280
     0
281
     0
  0
CLASS
  1
SCALE
  2
AcDbScale
  3
ObjectDBX Classes
 90
     1153
 91
       17
280
     0
281
     0
  0
CLASS
  1
TABLESTYLE
  2
AcDbTableStyle
  3
ObjectDBX Classes
 90
     4095
 91
        1
280
     0
281
     0
  0
CLASS
  1
MLEADERSTYLE
  2
AcDbMLeaderStyle
  3
ACDB_MLEADERSTYLE_CLASS
 90
     4095
 91
        1
280
     0
281
     0
  0
CLASS
  1
DICTIONARYVAR
  2
AcDbDictionaryVar
  3
ObjectDBX Classes
 90
        0
 91
        8
280
     0
281
     0
  0
CLASS
  1
CELLSTYLEMAP
  2
AcDbCellStyleMap
  3
ObjectDBX Classes
 90
     1152
 91
        1
280
     0
281
     0
  0
ENDSEC
  0
SECTION
  2
TABLES
  0
TABLE
  2
VPORT
  5
8
330
0
100
AcDbSymbolTable
 70
     1
  0
VPORT
  5
57
330
8
100
AcDbSymbolTableRecord
100
AcDbViewportTableRecord
  2
*Active
 70
     0
 10
0.0
 20
0.0
 11
1.0
 21
1.0
 12
262.5
 22
185.625
 13
0.0
 23
0.0
 14
1.0
 24
1.0
 15
0.0
 25
0.0
 16
0.0
 26
0.0
 36
1.0
 17
0.0
 27
0.0
 37
0.0
 40
371.25
 41
1.414141414141414
 42
50.0
 43
0.0
 44
0.0
 50
0.0
 51
0.0
 71
     0
 72
   100
 73
     1
 74
     1
 75
     0
 76
     0
 77
     0
 78
     0
281
     0
 65
     1
110
0.0
120
0.0
130
0.0
111
1.0
121
0.0
131
0.0
112
0.0
122
1.0
132
0.0
 79
     0
146
0.0
  0
ENDTAB
  0
TABLE
  2
LTYPE
  5
5
330
0
100
AcDbSymbolTable
 70
     1
  0
LTYPE
  5
5B
330
5
100
AcDbSymbolTableRecord
100
AcDbLinetypeTableRecord
  2
ByBlock
 70
     0
  3

 72
    65
 73
     0
 40
0.0
  0
LTYPE
  5
5C
330
5
100
AcDbSymbolTableRecord
100
AcDbLinetypeTableRecord
  2
ByLayer
 70
     0
  3

 72
    65
 73
     0
 40
0.0
  0
LTYPE
  5
5D
330
5
100
AcDbSymbolTableRecord
100
AcDbLinetypeTableRecord
  2
Continuous
 70
     0
  3
Solid line
 72
    65
 73
     0
 40
0.0
  0
ENDTAB
  0
TABLE
  2
LAYER
  5
2
330
0
100
AcDbSymbolTable
 70
    26
  0
LAYER
  5
54
330
2
100
AcDbSymbolTableRecord
100
AcDbLayerTableRecord
  2
0
 70
     0
 62
     7
  6
Continuous
370
    -3
390
F
  0
LAYER
  5
77
330
2
100
AcDbSymbolTableRecord
100
AcDbLayerTableRecord
  2
Border (ISO)
 70
     0
 62
     7
  6
Continuous
370
    70
390
F
  0
LAYER
  5
79
330
2
100
AcDbSymbolTableRecord
100
AcDbLayerTableRecord
  2
Center Mark (ISO)
 70
     0
 62
     7
  6
Continuous
370
    25
390
F
  0
LAYER
  5
7A
330
2
100
AcDbSymbolTableRecord
100
AcDbLayerTableRecord
  2
Centerline (ISO)
 70
     0
 62
     7
  6
Continuous
370
    25
390
F
  0
LAYER
  5
85
330
2
100
AcDbSymbolTableRecord
100
AcDbLayerTableRecord
  2
Title (ISO)
 70
     0
 62
     7
  6
Continuous
370
    50
390
F
  0
LAYER
  5
87
330
2
100
AcDbSymbolTableRecord
100
AcDbLayerTableRecord
  2
Visible (ISO)
 70
     0
 62
     7
  6
Continuous
370
    50
390
F
  0
LAYER
  5
88
330
2
100
AcDbSymbolTableRecord
100
AcDbLayerTableRecord
  2
Visible Narrow (ISO)
 70
     0
 62
     7
  6
Continuous
370
    35
390
F
  0
ENDTAB
  0
TABLE
  2
STYLE
  5
3
330
0
100
AcDbSymbolTable
 70
     5
  0
STYLE
  5
55
330
3
100
AcDbSymbolTableRecord
100
AcDbTextStyleTableRecord
  2
Standard
 70
     0
 40
0.0
 41
1.0
 50
0.0
 71
     0
 42
0.2
  3
tahoma.ttf
  4

1001
ACAD
1000
Tahoma
1071
      256
  0
STYLE
  5
5A
330
3
100
AcDbSymbolTableRecord
100
AcDbTextStyleTableRecord
  2
Annotative
 70
     0
 40
0.0
 41
1.0
 50
0.0
 71
     0
 42
0.2
  3
txt
  4

1001
AcadAnnotative
1000
AnnotativeData
1002
{
1070
     1
1070
     1
1002
}
  0
STYLE
  5
8D
330
3
100
AcDbSymbolTableRecord
100
AcDbTextStyleTableRecord
  2
Label Text (JIS)
 70
     0
 40
0.0
 41
1.0
 50
0.0
 71
     0
 42
0.2
  3
tahoma.ttf
  4

1001
ACAD
1000
Tahoma
1071
      256
  0
STYLE
  5
8E
330
3
100
AcDbSymbolTableRecord
100
AcDbTextStyleTableRecord
  2
Note Text (JIS)
 70
     0
 40
0.0
 41
1.0
 50
0.0
 71
     0
 42
0.2
  3
tahoma.ttf
  4

1001
ACAD
1000
Tahoma
1071
      256
  0
STYLE
  5
CC
330
3
100
AcDbSymbolTableRecord
100
AcDbTextStyleTableRecord
  2
文字スタイル12
 70
     0
 40
0.0
 41
1.0
 50
0.0
 71
     0
 42
0.2
  3
tahoma.ttf
  4

1001
ACAD
1000
Tahoma
1071
      256
  0
ENDTAB
  0
TABLE
  2
VIEW
  5
6
330
0
100
AcDbSymbolTable
 70
     0
  0
ENDTAB
  0
TABLE
  2
UCS
  5
7
330
0
100
AcDbSymbolTable
 70
     0
  0
ENDTAB
  0
TABLE
  2
APPID
  5
9
330
0
100
AcDbSymbolTable
 70
     4
  0
APPID
  5
56
330
9
100
AcDbSymbolTableRecord
100
AcDbRegAppTableRecord
  2
ACAD
 70
     0
  0
APPID
  5
5E
330
9
100
AcDbSymbolTableRecord
100
AcDbRegAppTableRecord
  2
AcadAnnotative
 70
     0
  0
APPID
  5
CF
330
9
100
AcDbSymbolTableRecord
100
AcDbRegAppTableRecord
  2
AcadAnnoPO
 70
     0
  0
APPID
  5
331
330
9
100
AcDbSymbolTableRecord
100
AcDbRegAppTableRecord
  2
ACAD_MLEADERVER
 70
     0
  0
ENDTAB
  0
TABLE
  2
DIMSTYLE
  5
A
330
0
100
AcDbSymbolTable
 70
    11
100
AcDbDimStyleTable
 71
     0
  0
DIMSTYLE
105
58
330
A
100
AcDbSymbolTableRecord
100
AcDbDimStyleTableRecord
  2
Standard
 70
     0
340
55
  0
DIMSTYLE
105
59
330
A
100
AcDbSymbolTableRecord
100
AcDbDimStyleTableRecord
  2
Annotative
 70
     0
340
55
1001
AcadAnnotative
1000
AnnotativeData
1002
{
1070
     1
1070
     1
1002
}
  0
DIMSTYLE
105
8F
330
A
100
AcDbSymbolTableRecord
100
AcDbDimStyleTableRecord
  2
Default - Method 1b (JIS)
 70
     0
 40
1.25
 41
2.5
 42
0.0
 43
5.999999999999999
 44
3.174999999999999
 45
0.00000001
 46
10.0
 73
     0
 77
     1
 78
     8
 79
     2
140
4.5
143
0.03937
147
0.8
171
     3
172
     1
176
   256
177
   256
178
   256
271
     2
272
     2
274
     3
284
     8
286
     8
340
8E
341
90
342
90
371
    -1
372
    -1
  0
DIMSTYLE
105
96
330
A
100
AcDbSymbolTableRecord
100
AcDbDimStyleTableRecord
  2
Default - Method 1b (JIS)$7
 70
     0
 40
1.25
 41
2.5
 42
0.0
 43
5.999999999999999
 44
3.174999999999999
 45
0.00000001
 46
10.0
 73
     0
 77
     1
 78
     8
 79
     2
140
4.5
143
0.03937
147
0.8
171
     3
172
     1
176
   256
177
   256
178
   256
271
     2
272
     2
274
     3
284
     8
286
     8
340
8E
341
90
342
90
371
    -1
372
    -1
  0
DIMSTYLE
105
97
330
A
100
AcDbSymbolTableRecord
100
AcDbDimStyleTableRecord
  2
Default - Method 2 (JIS)
 70
     0
 40
1.25
 41
2.5
 42
0.0
 43
5.999999999999999
 44
3.174999999999999
 45
0.00000001
 46
10.0
 77
     1
 78
     8
 79
     2
140
4.5
143
0.03937
147
0.8
171
     3
172
     1
176
   256
177
   256
178
   256
271
     2
272
     2
274
     3
284
     8
286
     8
340
8E
341
90
342
90
371
    -1
372
    -1
  0
DIMSTYLE
105
98
330
A
100
AcDbSymbolTableRecord
100
AcDbDimStyleTableRecord
  2
Default - Method 2 (JIS)$7
 70
     0
 40
1.25
 41
2.5
 42
0.0
 43
5.999999999999999
 44
3.174999999999999
 45
0.00000001
 46
10.0
 77
     1
 78
     8
 79
     2
140
4.5
143
0.03937
147
0.8
171
     3
172
     1
176
   256
177
   256
178
   256
271
     2
272
     2
274
     3
284
     8
286
     8
340
8E
341
90
342
90
371
    -1
372
    -1
  0
DIMSTYLE
105
99
330
A
100
AcDbSymbolTableRecord
100
AcDbDimStyleTableRecord
  2
Default (JIS)
 70
     0
 40
1.25
 41
2.5
 42
0.0
 43
5.999999999999999
 44
1.0
 45
0.00000001
 46
10.0
 73
     0
 74
     0
 77
     1
 78
     8
 79
     2
140
4.5
143
0.03937
146
0.7777777910232544
147
0.8
171
     3
172
     1
176
   256
177
   256
178
   256
271
     2
272
     2
274
     3
340
8E
341
90
342
90
371
    -1
372
    -1
  0
DIMSTYLE
105
9A
330
A
100
AcDbSymbolTableRecord
100
AcDbDimStyleTableRecord
  2
Default (JIS)$7
 70
     0
 40
1.25
 41
2.5
 42
0.0
 43
5.999999999999999
 44
1.0
 45
0.00000001
 46
10.0
 73
     0
 74
     0
 77
     1
 78
     8
 79
     2
140
4.5
143
0.03937
146
0.7777777910232544
147
0.8
171
     3
172
     1
176
   256
177
   256
178
   256
271
     2
272
     2
274
     3
340
8E
341
90
342
90
371
    -1
372
    -1
  0
DIMSTYLE
105
9B
330
A
100
AcDbSymbolTableRecord
100
AcDbDimStyleTableRecord
  2
Alternate (ISO)
 70
     0
 40
1.25
 41
2.5
340
55
342
9C
  0
DIMSTYLE
105
AE
330
A
100
AcDbSymbolTableRecord
100
AcDbDimStyleTableRecord
  2
Datum (ISO)
 70
     0
 40
1.25
 41
2.5
340
55
342
9C
  0
DIMSTYLE
105
BD
330
A
100
AcDbSymbolTableRecord
100
AcDbDimStyleTableRecord
  2
Large (ISO)
 70
     0
 40
1.25
 41
5.0
340
55
342
9C
  0
ENDTAB
  0
TABLE
  2
BLOCK_RECORD
  5
1
330
0
100
AcDbSymbolTable
 70
     7
  0
BLOCK_RECORD
  5
6C
330
1
100
AcDbSymbolTableRecord
100
AcDbBlockTableRecord
  2
*Model_Space
340
6F
  0
BLOCK_RECORD
  5
68
330
1
100
AcDbSymbolTableRecord
100
AcDbBlockTableRecord
  2
*Paper_Space
340
6B
  0
BLOCK_RECORD
  5
70
330
1
100
AcDbSymbolTableRecord
100
AcDbBlockTableRecord
  2
*Paper_Space0
340
73
  0
BLOCK_RECORD
  5
90
330
1
100
AcDbSymbolTableRecord
100
AcDbBlockTableRecord
  2
_Open
340
0
  0
BLOCK_RECORD
  5
9C
330
1
100
AcDbSymbolTableRecord
100
AcDbBlockTableRecord
  2
_Closed
340
0
  0
BLOCK_RECORD
  5
A3
330
1
100
AcDbSymbolTableRecord
100
AcDbBlockTableRecord
  2
DatumFilled45
340
0
  0
BLOCK_RECORD
  5
AF
330
1
100
AcDbSymbolTableRecord
100
AcDbBlockTableRecord
  2
Filled-1
340
0
  0
BLOCK_RECORD
  5
BE
330
1
100
AcDbSymbolTableRecord
100
AcDbBlockTableRecord
  2
図面枠 VR用
340
0
102
{BLKREFS
331
C5
102
}
  0
BLOCK_RECORD
  5
C6
330
1
100
AcDbSymbolTableRecord
100
AcDbBlockTableRecord
  2
表題欄 VR用
340
0
102
{BLKREFS
331
D0
102
}
  0
ENDTAB
  0
ENDSEC
  0
SECTION
  2
BLOCKS
  0
BLOCK
  5
6D
330
6C
100
AcDbEntity
  8
0
100
AcDbBlockBegin
  2
*Model_Space
 70
     0
 10
0.0
 20
0.0
 30
0.0
  3
*Model_Space
  1

  0
ENDBLK
  5
6E
330
6C
100
AcDbEntity
  8
0
100
AcDbBlockEnd
  0
BLOCK
  5
69
330
68
100
AcDbEntity
 67
     1
  8
0
100
AcDbBlockBegin
  2
*Paper_Space
 70
     0
 10
0.0
 20
0.0
 30
0.0
  3
*Paper_Space
  1

  0
ENDBLK
  5
6A
330
68
100
AcDbEntity
 67
     1
  8
0
100
AcDbBlockEnd
  0
BLOCK
  5
71
330
70
100
AcDbEntity
 67
     1
  8
0
100
AcDbBlockBegin
  2
*Paper_Space0
 70
     0
 10
0.0
 20
0.0
 30
0.0
  3
*Paper_Space0
  1

  0
ENDBLK
  5
72
330
70
100
AcDbEntity
 67
     1
  8
0
100
AcDbBlockEnd
  0
BLOCK
  5
94
330
90
100
AcDbEntity
  8
0
100
AcDbBlockBegin
  2
_Open
 70
     0
 10
0.0
 20
0.0
 30
0.0
  3
_Open
  1

  0
LINE
  5
91
330
90
100
AcDbEntity
  8
0
  6
ByBlock
 62
     0
370
    -2
100
AcDbLine
 10
-1.0
 20
0.1666666666666666
 30
0.0
 11
0.0
 21
0.0
 31
0.0
  0
LINE
  5
92
330
90
100
AcDbEntity
  8
0
  6
ByBlock
 62
     0
370
    -2
100
AcDbLine
 10
-1.0
 20
-0.1666666666666666
 30
0.0
 11
0.0
 21
0.0
 31
0.0
  0
LINE
  5
93
330
90
100
AcDbEntity
  8
0
  6
ByBlock
 62
     0
370
    -2
100
AcDbLine
 10
0.0
 20
0.0
 30
0.0
 11
-1.0
 21
0.0
 31
0.0
  0
ENDBLK
  5
95
330
90
100
AcDbEntity
  8
0
100
AcDbBlockEnd
  0
BLOCK
  5
A1
330
9C
100
AcDbEntity
  8
0
100
AcDbBlockBegin
  2
_Closed
 70
     0
 10
0.0
 20
0.0
 30
0.0
  3
_Closed
  1

  0
LINE
  5
9D
330
9C
100
AcDbEntity
  8
0
  6
ByBlock
 62
     0
370
    -2
100
AcDbLine
 10
-1.0
 20
0.1666666666666666
 30
0.0
 11
0.0
 21
0.0
 31
0.0
  0
LINE
  5
9E
330
9C
100
AcDbEntity
  8
0
  6
ByBlock
 62
     0
370
    -2
100
AcDbLine
 10
0.0
 20
0.0
 30
0.0
 11
-1.0
 21
-0.1666666666666666
 31
0.0
  0
LINE
  5
9F
330
9C
100
AcDbEntity
  8
0
  6
ByBlock
 62
     0
370
    -2
100
AcDbLine
 10
-1.0
 20
0.1666666666666666
 30
0.0
 11
-1.0
 21
-0.1666666666666666
 31
0.0
  0
LINE
  5
A0
330
9C
100
AcDbEntity
  8
0
  6
ByBlock
 62
     0
370
    -2
100
AcDbLine
 10
0.0
 20
0.0
 30
0.0
 11
-1.0
 21
0.0
 31
0.0
  0
ENDBLK
  5
A2
330
9C
100
AcDbEntity
  8
0
100
AcDbBlockEnd
  0
BLOCK
  5
A4
330
A3
100
AcDbEntity
  8
0
100
AcDbBlockBegin
  2
DatumFilled45
 70
     0
 10
0.0
 20
0.0
 30
0.0
  3
DatumFilled45
  1

  0
POLYLINE
  5
A6
330
A3
100
AcDbEntity
  8
0
 62
     0
100
AcDb2dPolyline
 66
     1
 10
0.0
 20
0.0
 30
0.0
 70
   128
  0
VERTEX
  5
A7
330
A6
100
AcDbEntity
  8
0
 62
     0
100
AcDbVertex
100
AcDb2dVertex
 10
0.0
 20
1.0
 30
0.0
  0
VERTEX
  5
A8
330
A6
100
AcDbEntity
  8
0
 62
     0
100
AcDbVertex
100
AcDb2dVertex
 10
0.0
 20
-1.0
 30
0.0
  0
VERTEX
  5
AA
330
A6
100
AcDbEntity
  8
0
 62
     0
100
AcDbVertex
100
AcDb2dVertex
 10
-1.0
 20
0.0
 30
0.0
  0
VERTEX
  5
AB
330
A6
100
AcDbEntity
  8
0
 62
     0
100
AcDbVertex
100
AcDb2dVertex
 10
0.0
 20
1.0
 30
0.0
  0
SEQEND
  5
A9
330
A6
100
AcDbEntity
  8
0
 62
     0
  0
SOLID
  5
AD
330
A3
100
AcDbEntity
  8
0
 62
     0
100
AcDbTrace
 10
0.0
 20
1.0
 30
0.0
 11
0.0
 21
-1.0
 31
0.0
 12
-1.0
 22
0.0
 32
0.0
 13
0.0
 23
1.0
 33
0.0
  0
ENDBLK
  5
A5
330
A3
100
AcDbEntity
  8
0
100
AcDbBlockEnd
  0
BLOCK
  5
B0
330
AF
100
AcDbEntity
  8
0
100
AcDbBlockBegin
  2
Filled-1
 70
     0
 10
0.0
 20
0.0
 30
0.0
  3
Filled-1
  1

  0
LINE
  5
B2
330
AF
100
AcDbEntity
  8
0
 62
     0
100
AcDbLine
 10
-1.0
 20
0.0
 30
0.0
 11
0.0
 21
0.0
 31
0.0
  0
POLYLINE
  5
B3
330
AF
100
AcDbEntity
  8
0
 62
     0
100
AcDb2dPolyline
 66
     1
 10
0.0
 20
0.0
 30
0.0
 70
   128
  0
VERTEX
  5
B4
330
B3
100
AcDbEntity
  8
0
 62
     0
100
AcDbVertex
100
AcDb2dVertex
 10
-1.0
 20
-0.1
 30
0.0
  0
VERTEX
  5
B5
330
B3
100
AcDbEntity
  8
0
 62
     0
100
AcDbVertex
100
AcDb2dVertex
 10
0.0
 20
0.0
 30
0.0
  0
VERTEX
  5
B7
330
B3
100
AcDbEntity
  8
0
 62
     0
100
AcDbVertex
100
AcDb2dVertex
 10
-1.0
 20
0.1
 30
0.0
  0
VERTEX
  5
B8
330
B3
100
AcDbEntity
  8
0
 62
     0
100
AcDbVertex
100
AcDb2dVertex
 10
-1.0
 20
-0.1
 30
0.0
  0
SEQEND
  5
B6
330
B3
100
AcDbEntity
  8
0
 62
     0
  0
SOLID
  5
B9
330
AF
100
AcDbEntity
  8
0
 62
     0
100
AcDbTrace
 10
-1.0
 20
-0.1
 30
0.0
 11
0.0
 21
0.0
 31
0.0
 12
-1.0
 22
0.1
 32
0.0
 13
-1.0
 23
-0.1
 33
0.0
  0
LINE
  5
BA
330
AF
100
AcDbEntity
  8
0
 62
     0
100
AcDbLine
 10
-1.0
 20
-0.1
 30
0.0
 11
0.0
 21
0.0
 31
0.0
  0
LINE
  5
BB
330
AF
100
AcDbEntity
  8
0
 62
     0
100
AcDbLine
 10
0.0
 20
0.0
 30
0.0
 11
-1.0
 21
0.1
 31
0.0
  0
LINE
  5
BC
330
AF
100
AcDbEntity
  8
0
 62
     0
100
AcDbLine
 10
-1.0
 20
0.1
 30
0.0
 11
-1.0
 21
-0.1
 31
0.0
  0
ENDBLK
  5
B1
330
AF
100
AcDbEntity
  8
0
100
AcDbBlockEnd
  0
BLOCK
  5
BF
330
BE
100
AcDbEntity
  8
0
100
AcDbBlockBegin
  2
図面枠 VR用
 70
     0
 10
0.0
 20
0.0
 30
0.0
  3
図面枠 VR用
  1

  0
LINE
  5
C1
330
BE
100
AcDbEntity
  8
Border (ISO)
100
AcDbLine
 10
410.0
 20
287.0
 30
0.0
 11
410.0
 21
10.0
 31
0.0
  0
LINE
  5
C2
330
BE
100
AcDbEntity
  8
Border (ISO)
100
AcDbLine
 10
10.0
 20
287.0
 30
0.0
 11
10.0
 21
10.0
 31
0.0
  0
LINE
  5
C3
330
BE
100
AcDbEntity
  8
Border (ISO)
100
AcDbLine
 10
10.0
 20
10.0
 30
0.0
 11
410.0
 21
10.0
 31
0.0
  0
LINE
  5
C4
330
BE
100
AcDbEntity
  8
Border (ISO)
100
AcDbLine
 10
10.0
 20
287.0
 30
0.0
 11
410.0
 21
287.0
 31
0.0
  0
ENDBLK
  5
C0
330
BE
100
AcDbEntity
  8
0
100
AcDbBlockEnd
  0
BLOCK
  5
C7
330
C6
100
AcDbEntity
  8
0
100
AcDbBlockBegin
  2
表題欄 VR用
 70
     2
 10
0.0
 20
0.0
 30
0.0
  3
表題欄 VR用
  1

  0
LINE
  5
C9
330
C6
100
AcDbEntity
  8
Title (ISO)
100
AcDbLine
 10
181.6756649546459
 20
100.0
 30
0.0
 11
239.9999999999999
 21
100.0
 31
0.0
  0
LINE
  5
CA
330
C6
100
AcDbEntity
  8
Title (ISO)
100
AcDbLine
 10
239.9999999999999
 20
100.0
 30
0.0
 11
-160.0
 21
100.0
 31
0.0
  0
LINE
  5
CB
330
C6
100
AcDbEntity
  8
Title (ISO)
100
AcDbLine
 10
239.9999999999999
 20
109.0000000000001
 30
0.0
 11
239.9999999999999
 21
100.0
 31
0.0
  0
ATTDEF
  5
CD
102
{ACAD_XDICTIONARY
360
2F6
102
}
330
C6
100
AcDbEntity
  8
Title (ISO)
100
AcDbText
 10
17.32253187271399
 20
102.9499999980937
 30
0.0
 40
3.100000023841857
  1
VRXF-□-3~9C-S-14BP10
  7
文字スタイル12
100
AcDbAttributeDefinition
  3
部品番号
  2
部品番号_001
 70
     0
  0
ENDBLK
  5
C8
330
C6
100
AcDbEntity
  8
0
100
AcDbBlockEnd
  0
ENDSEC
  0
SECTION
  2
ENTITIES
  0
INSERT
  5
C5
330
6C
100
AcDbEntity
  8
0
100
AcDbBlockReference
  2
図面枠 VR用
 10
0.0
 20
0.0
 30
0.0
 41
1.25
 42
1.25
 43
1.25
  0
INSERT
  5
D0
330
6C
100
AcDbEntity
  8
0
100
AcDbBlockReference
 66
     1
  2
表題欄 VR用
 10
212.5
 20
-112.5
 30
0.0
 41
1.25
 42
1.25
 43
1.25
  0
ATTRIB
  5
D3
102
{ACAD_XDICTIONARY
360
2F9
102
}
330
D0
100
AcDbEntity
  8
Title (ISO)
100
AcDbText
 10
234.1531648408926
 20
16.18749999761712
 30
0.0
 40
3.875000029802322
  1
VRXF-□-3~9C-S-14BP10
  7
文字スタイル12
100
AcDbAttribute
  2
部品番号_001
 70
     0
  0
SEQEND
  5
D2
330
D0
100
AcDbEntity
  8
0
  0
LINE
  5
D4
330
6C
100
AcDbEntity
  8
Visible (ISO)
100
AcDbLine
 10
313.25
 20
106.4571067811865
 30
0.0
 11
313.25
 21
141.0428932188134
 31
0.0
  0
LINE
  5
D5
330
6C
100
AcDbEntity
  8
Visible Narrow (ISO)
100
AcDbLine
 10
313.3964466094067
 20
141.3964466094067
 30
0.0
 11
313.3964466094067
 21
106.1035533905932
 31
0.0
  0
ARC
  5
D6
330
6C
100
AcDbEntity
  8
Visible (ISO)
100
AcDbCircle
 10
313.75
 20
106.4571067811865
 30
0.0
 40
0.5000000000000001
100
AcDbArc
 50
180.0
 51
225.0
  0
ARC
  5
D7
330
6C
100
AcDbEntity
  8
Visible (ISO)
100
AcDbCircle
 10
313.75
 20
141.0428932188134
 30
0.0
 40
0.5000000000000001
100
AcDbArc
 50
135.0
 51
180.0
  0
LINE
  5
D8
330
6C
100
AcDbEntity
  8
Visible Narrow (ISO)
100
AcDbLine
 10
314.4571067811865
 20
105.0428932188134
 30
0.0
 11
314.4571067811865
 21
142.4571067811866
 31
0.0
  0
ARC
  5
D9
330
6C
100
AcDbEntity
  8
Visible (ISO)
100
AcDbCircle
 10
313.75
 20
104.3357864376269
 30
0.0
 40
1.0
100
AcDbArc
 50
0.0
 51
45.00000000000089
  0
ARC
  5
DA
330
6C
100
AcDbEntity
  8
Visible (ISO)
100
AcDbCircle
 10
313.75
 20
143.1642135623731
 30
0.0
 40
1.0
100
AcDbArc
 50
314.9999999999991
 51
0.0
  0
LINE
  5
DB
330
6C
100
AcDbEntity
  8
Visible (ISO)
100
AcDbLine
 10
314.75
 20
94.74999999999999
 30
0.0
 11
314.75
 21
152.75
 31
0.0
  0
LINE
  5
DC
330
6C
100
AcDbEntity
  8
Visible Narrow (ISO)
100
AcDbLine
 10
316.75
 20
154.75
 30
0.0
 11
316.75
 21
92.75
 31
0.0
  0
ARC
  5
DD
330
6C
100
AcDbEntity
  8
Visible (ISO)
100
AcDbCircle
 10
316.75
 20
94.74999999999999
 30
0.0
 40
2.0
100
AcDbArc
 50
180.0
 51
270.0
  0
ARC
  5
DE
330
6C
100
AcDbEntity
  8
Visible (ISO)
100
AcDbCircle
 10
316.75
 20
152.75
 30
0.0
 40
2.0
100
AcDbArc
 50
90.0
 51
180.0
  0
LINE
  5
DF
330
6C
100
AcDbEntity
  8
Visible Narrow (ISO)
100
AcDbLine
 10
325.25
 20
92.75
 30
0.0
 11
325.25
 21
154.75
 31
0.0
  0
ARC
  5
E0
330
6C
100
AcDbEntity
  8
Visible (ISO)
100
AcDbCircle
 10
325.25
 20
90.75000000000001
 30
0.0
 40
2.0
100
AcDbArc
 50
0.0
 51
90.0
  0
ARC
  5
E1
330
6C
100
AcDbEntity
  8
Visible (ISO)
100
AcDbCircle
 10
325.25
 20
156.75
 30
0.0
 40
2.0
100
AcDbArc
 50
270.0
 51
0.0
  0
LINE
  5
E2
330
6C
100
AcDbEntity
  8
Visible (ISO)
100
AcDbLine
 10
327.25
 20
89.25
 30
0.0
 11
327.25
 21
158.25
 31
0.0
  0
LINE
  5
E3
330
6C
100
AcDbEntity
  8
Visible (ISO)
100
AcDbLine
 10
327.75
 20
158.75
 30
0.0
 11
327.75
 21
88.75
 31
0.0
  0
LINE
  5
E4
330
6C
100
AcDbEntity
  8
Visible (ISO)
100
AcDbLine
 10
327.25
 20
158.25
 30
0.0
 11
327.75
 21
158.75
 31
0.0
  0
LINE
  5
E5
330
6C
100
AcDbEntity
  8
Visible (ISO)
100
AcDbLine
 10
327.25
 20
89.25
 30
0.0
 11
327.75
 21
88.75
 31
0.0
  0
LINE
  5
E6
330
6C
100
AcDbEntity
  8
Visible Narrow (ISO)
100
AcDbLine
 10
329.85
 20
88.75
 30
0.0
 11
329.85
 21
158.75
 31
0.0
  0
ARC
  5
E7
330
6C
100
AcDbEntity
  8
Visible (ISO)
100
AcDbCircle
 10
329.85
 20
88.34999999999999
 30
0.0
 40
0.4000000000000001
100
AcDbArc
 50
0.0
 51
90.0
  0
ARC
  5
E8
330
6C
100
AcDbEntity
  8
Visible (ISO)
100
AcDbCircle
 10
329.85
 20
159.15
 30
0.0
 40
0.4000000000000001
100
AcDbArc
 50
270.0
 51
0.0
  0
LINE
  5
E9
330
6C
100
AcDbEntity
  8
Visible (ISO)
100
AcDbLine
 10
330.25
 20
85.25
 30
0.0
 11
330.25
 21
89.74999999999999
 31
0.0
  0
LINE
  5
EA
330
6C
100
AcDbEntity
  8
Visible (ISO)
100
AcDbLine
 10
330.25
 20
157.75
 30
0.0
 11
330.25
 21
89.74999999999999
 31
0.0
  0
LINE
  5
EB
330
6C
100
AcDbEntity
  8
Visible (ISO)
100
AcDbLine
 10
330.25
 20
157.75
 30
0.0
 11
330.25
 21
162.25
 31
0.0
  0
LINE
  5
EC
330
6C
100
AcDbEntity
  8
Visible (ISO)
100
AcDbLine
 10
330.25
 20
162.25
 30
0.0
 11
330.75
 21
162.75
 31
0.0
  0
LINE
  5
ED
330
6C
100
AcDbEntity
  8
Visible Narrow (ISO)
100
AcDbLine
 10
330.25
 20
157.75
 30
0.0
 11
330.75
 21
157.75
 31
0.0
  0
LINE
  5
EE
330
6C
100
AcDbEntity
  8
Visible (ISO)
100
AcDbLine
 10
330.75
 20
162.75
 30
0.0
 11
330.75
 21
157.75
 31
0.0
  0
LINE
  5
EF
330
6C
100
AcDbEntity
  8
Visible Narrow (ISO)
100
AcDbLine
 10
330.25
 20
89.74999999999999
 30
0.0
 11
330.75
 21
89.74999999999999
 31
0.0
  0
LINE
  5
F0
330
6C
100
AcDbEntity
  8
Visible (ISO)
100
AcDbLine
 10
330.75
 20
89.74999999999999
 30
0.0
 11
330.75
 21
157.75
 31
0.0
  0
LINE
  5
F1
330
6C
100
AcDbEntity
  8
Visible (ISO)
100
AcDbLine
 10
330.25
 20
85.25
 30
0.0
 11
330.75
 21
84.74999999999999
 31
0.0
  0
LINE
  5
F2
330
6C
100
AcDbEntity
  8
Visible (ISO)
100
AcDbLine
 10
330.75
 20
89.75000000000001
 30
0.0
 11
330.75
 21
84.74999999999999
 31
0.0
  0
LINE
  5
F3
330
6C
100
AcDbEntity
  8
Visible (ISO)
100
AcDbLine
 10
364.45
 20
162.75
 30
0.0
 11
330.75
 21
162.75
 31
0.0
  0
LINE
  5
F4
330
6C
100
AcDbEntity
  8
Visible (ISO)
100
AcDbLine
 10
364.45
 20
84.74999999999999
 30
0.0
 11
330.75
 21
84.74999999999999
 31
0.0
  0
LINE
  5
F5
330
6C
100
AcDbEntity
  8
Visible Narrow (ISO)
100
AcDbLine
 10
364.45
 20
89.74999999999999
 30
0.0
 11
330.75
 21
89.74999999999999
 31
0.0
  0
LINE
  5
F6
330
6C
100
AcDbEntity
  8
Visible Narrow (ISO)
100
AcDbLine
 10
364.45
 20
157.75
 30
0.0
 11
330.75
 21
157.75
 31
0.0
  0
LINE
  5
F7
330
6C
100
AcDbEntity
  8
Visible (ISO)
100
AcDbLine
 10
364.45
 20
162.75
 30
0.0
 11
364.75
 21
162.45
 31
0.0
  0
LINE
  5
F8
330
6C
100
AcDbEntity
  8
Visible (ISO)
100
AcDbLine
 10
364.75
 20
85.05
 30
0.0
 11
364.45
 21
84.74999999999999
 31
0.0
  0
LINE
  5
F9
330
6C
100
AcDbEntity
  8
Visible Narrow (ISO)
100
AcDbLine
 10
364.75
 20
89.74999999999999
 30
0.0
 11
364.45
 21
89.74999999999999
 31
0.0
  0
LINE
  5
FA
330
6C
100
AcDbEntity
  8
Visible (ISO)
100
AcDbLine
 10
364.45
 20
84.74999999999999
 30
0.0
 11
364.45
 21
89.75000000000001
 31
0.0
  0
LINE
  5
FB
330
6C
100
AcDbEntity
  8
Visible (ISO)
100
AcDbLine
 10
364.75
 20
89.74999999999999
 30
0.0
 11
364.75
 21
85.05
 31
0.0
  0
LINE
  5
FC
330
6C
100
AcDbEntity
  8
Visible Narrow (ISO)
100
AcDbLine
 10
364.75
 20
157.75
 30
0.0
 11
364.45
 21
157.75
 31
0.0
  0
LINE
  5
FD
330
6C
100
AcDbEntity
  8
Visible (ISO)
100
AcDbLine
 10
364.45
 20
157.75
 30
0.0
 11
364.45
 21
89.74999999999999
 31
0.0
  0
LINE
  5
FE
330
6C
100
AcDbEntity
  8
Visible (ISO)
100
AcDbLine
 10
364.75
 20
89.74999999999999
 30
0.0
 11
364.75
 21
157.75
 31
0.0
  0
LINE
  5
FF
330
6C
100
AcDbEntity
  8
Visible (ISO)
100
AcDbLine
 10
364.45
 20
157.75
 30
0.0
 11
364.45
 21
162.75
 31
0.0
  0
LINE
  5
100
330
6C
100
AcDbEntity
  8
Visible (ISO)
100
AcDbLine
 10
364.75
 20
162.45
 30
0.0
 11
364.75
 21
157.75
 31
0.0
  0
LINE
  5
101
330
6C
100
AcDbEntity
  8
Visible (ISO)
100
AcDbLine
 10
313.3964466094067
 20
141.3964466094067
 30
0.0
 11
314.4571067811865
 21
142.4571067811866
 31
0.0
  0
LINE
  5
102
330
6C
100
AcDbEntity
  8
Visible (ISO)
100
AcDbLine
 10
313.3964466094067
 20
106.1035533905932
 30
0.0
 11
314.4571067811865
 21
105.0428932188134
 31
0.0
  0
LINE
  5
103
330
6C
100
AcDbEntity
  8
Visible (ISO)
100
AcDbLine
 10
325.25
 20
92.75
 30
0.0
 11
316.75
 21
92.75
 31
0.0
  0
LINE
  5
104
330
6C
100
AcDbEntity
  8
Visible (ISO)
100
AcDbLine
 10
325.25
 20
154.75
 30
0.0
 11
316.75
 21
154.75
 31
0.0
  0
LINE
  5
105
330
6C
100
AcDbEntity
  8
Visible (ISO)
100
AcDbLine
 10
329.85
 20
88.75
 30
0.0
 11
327.75
 21
88.75
 31
0.0
  0
LINE
  5
106
330
6C
100
AcDbEntity
  8
Visible (ISO)
100
AcDbLine
 10
329.85
 20
158.75
 30
0.0
 11
327.75
 21
158.75
 31
0.0
  0
LINE
  5
107
330
6C
100
AcDbEntity
  8
Visible Narrow (ISO)
100
AcDbLine
 10
309.85
 20
114.25
 30
0.0
 11
309.85
 21
133.25
 31
0.0
  0
ARC
  5
108
330
6C
100
AcDbEntity
  8
Visible (ISO)
100
AcDbCircle
 10
309.85
 20
113.85
 30
0.0
 40
0.4000000000000001
100
AcDbArc
 50
0.0
 51
90.0
  0
ARC
  5
109
330
6C
100
AcDbEntity
  8
Visible (ISO)
100
AcDbCircle
 10
309.85
 20
133.65
 30
0.0
 40
0.4000000000000001
100
AcDbArc
 50
270.0
 51
0.0
  0
LINE
  5
10A
330
6C
100
AcDbEntity
  8
Visible (ISO)
100
AcDbLine
 10
310.25
 20
113.1139702342662
 30
0.0
 11
310.25
 21
134.3860297657338
 31
0.0
  0
LINE
  5
10B
330
6C
100
AcDbEntity
  8
Visible (ISO)
100
AcDbLine
 10
311.25
 20
134.75
 30
0.0
 11
311.25
 21
112.75
 31
0.0
  0
LINE
  5
10C
330
6C
100
AcDbEntity
  8
Visible (ISO)
100
AcDbLine
 10
310.25
 20
134.3860297657338
 30
0.0
 11
311.25
 21
134.75
 31
0.0
  0
LINE
  5
10D
330
6C
100
AcDbEntity
  8
Visible (ISO)
100
AcDbLine
 10
310.25
 20
113.1139702342662
 30
0.0
 11
311.25
 21
112.75
 31
0.0
  0
LINE
  5
10E
330
6C
100
AcDbEntity
  8
Visible Narrow (ISO)
100
AcDbLine
 10
281.25
 20
133.25
 30
0.0
 11
281.25
 21
114.25
 31
0.0
  0
LINE
  5
10F
330
6C
100
AcDbEntity
  8
Visible (ISO)
100
AcDbLine
 10
280.25
 20
115.25
 30
0.0
 11
280.25
 21
132.25
 31
0.0
  0
ARC
  5
110
330
6C
100
AcDbEntity
  8
Visible (ISO)
100
AcDbCircle
 10
281.25
 20
115.25
 30
0.0
 40
1.0
100
AcDbArc
 50
180.0
 51
270.0
  0
ARC
  5
111
330
6C
100
AcDbEntity
  8
Visible (ISO)
100
AcDbCircle
 10
281.25
 20
132.25
 30
0.0
 40
1.0
100
AcDbArc
 50
90.0
 51
180.0
  0
LINE
  5
112
330
6C
100
AcDbEntity
  8
Visible (ISO)
100
AcDbLine
 10
309.85
 20
114.25
 30
0.0
 11
281.25
 21
114.25
 31
0.0
  0
LINE
  5
113
330
6C
100
AcDbEntity
  8
Visible (ISO)
100
AcDbLine
 10
309.85
 20
133.25
 30
0.0
 11
281.25
 21
133.25
 31
0.0
  0
LINE
  5
114
330
6C
100
AcDbEntity
  8
Visible (ISO)
100
AcDbLine
 10
313.25
 20
112.75
 30
0.0
 11
311.25
 21
112.75
 31
0.0
  0
LINE
  5
115
330
6C
100
AcDbEntity
  8
Visible (ISO)
100
AcDbLine
 10
313.25
 20
134.75
 30
0.0
 11
311.25
 21
134.75
 31
0.0
  0
ARC
  5
116
330
6C
100
AcDbEntity
  8
Visible (ISO)
100
AcDbCircle
 10
376.75
 20
85.75000000000001
 30
0.0
 40
1.000000000000009
100
AcDbArc
 50
270.0
 51
0.0
  0
LINE
  5
117
330
6C
100
AcDbEntity
  8
Visible Narrow (ISO)
100
AcDbLine
 10
376.75
 20
89.74999999999999
 30
0.0
 11
377.75
 21
89.74999999999999
 31
0.0
  0
LINE
  5
118
330
6C
100
AcDbEntity
  8
Visible Narrow (ISO)
100
AcDbLine
 10
376.75
 20
84.74999999999999
 30
0.0
 11
376.75
 21
89.74999999999999
 31
0.0
  0
LINE
  5
119
330
6C
100
AcDbEntity
  8
Visible (ISO)
100
AcDbLine
 10
377.75
 20
89.74999999999999
 30
0.0
 11
377.75
 21
85.74999999999999
 31
0.0
  0
LINE
  5
11A
330
6C
100
AcDbEntity
  8
Visible Narrow (ISO)
100
AcDbLine
 10
376.75
 20
157.75
 30
0.0
 11
377.75
 21
157.75
 31
0.0
  0
LINE
  5
11B
330
6C
100
AcDbEntity
  8
Visible Narrow (ISO)
100
AcDbLine
 10
376.75
 20
157.75
 30
0.0
 11
376.75
 21
89.74999999999999
 31
0.0
  0
LINE
  5
11C
330
6C
100
AcDbEntity
  8
Visible (ISO)
100
AcDbLine
 10
377.75
 20
89.74999999999999
 30
0.0
 11
377.75
 21
157.75
 31
0.0
  0
ARC
  5
11D
330
6C
100
AcDbEntity
  8
Visible (ISO)
100
AcDbCircle
 10
376.75
 20
161.75
 30
0.0
 40
1.000000000000005
100
AcDbArc
 50
0.0
 51
89.99999999999745
  0
LINE
  5
11E
330
6C
100
AcDbEntity
  8
Visible Narrow (ISO)
100
AcDbLine
 10
376.75
 20
157.75
 30
0.0
 11
376.75
 21
162.75
 31
0.0
  0
LINE
  5
11F
330
6C
100
AcDbEntity
  8
Visible (ISO)
100
AcDbLine
 10
377.75
 20
161.75
 30
0.0
 11
377.75
 21
157.75
 31
0.0
  0
LINE
  5
120
330
6C
100
AcDbEntity
  8
Visible Narrow (ISO)
100
AcDbLine
 10
376.75
 20
157.75
 30
0.0
 11
365.05
 21
157.75
 31
0.0
  0
LINE
  5
121
330
6C
100
AcDbEntity
  8
Visible Narrow (ISO)
100
AcDbLine
 10
376.75
 20
89.74999999999999
 30
0.0
 11
365.05
 21
89.74999999999999
 31
0.0
  0
LINE
  5
122
330
6C
100
AcDbEntity
  8
Visible (ISO)
100
AcDbLine
 10
376.75
 20
162.75
 30
0.0
 11
365.05
 21
162.75
 31
0.0
  0
LINE
  5
123
330
6C
100
AcDbEntity
  8
Visible (ISO)
100
AcDbLine
 10
376.75
 20
84.74999999999999
 30
0.0
 11
365.05
 21
84.74999999999999
 31
0.0
  0
LINE
  5
124
330
6C
100
AcDbEntity
  8
Visible (ISO)
100
AcDbLine
 10
365.05
 20
89.74999999999999
 30
0.0
 11
365.05
 21
157.75
 31
0.0
  0
LINE
  5
125
330
6C
100
AcDbEntity
  8
Visible (ISO)
100
AcDbLine
 10
365.05
 20
162.75
 30
0.0
 11
365.05
 21
157.75
 31
0.0
  0
LINE
  5
126
330
6C
100
AcDbEntity
  8
Visible (ISO)
100
AcDbLine
 10
402.9499999999999
 20
91.25000000000001
 30
0.0
 11
402.9499999999999
 21
156.25
 31
0.0
  0
LINE
  5
127
330
6C
100
AcDbEntity
  8
Visible Narrow (ISO)
100
AcDbLine
 10
365.05
 20
157.75
 30
0.0
 11
364.75
 21
157.75
 31
0.0
  0
LINE
  5
128
330
6C
100
AcDbEntity
  8
Visible (ISO)
100
AcDbLine
 10
364.75
 20
157.75
 30
0.0
 11
364.75
 21
89.74999999999999
 31
0.0
  0
LINE
  5
129
330
6C
100
AcDbEntity
  8
Visible Narrow (ISO)
100
AcDbLine
 10
364.75
 20
89.74999999999999
 30
0.0
 11
365.05
 21
89.74999999999999
 31
0.0
  0
LINE
  5
12A
330
6C
100
AcDbEntity
  8
Visible (ISO)
100
AcDbLine
 10
364.75
 20
85.04999999999999
 30
0.0
 11
365.05
 21
84.74999999999999
 31
0.0
  0
LINE
  5
12B
330
6C
100
AcDbEntity
  8
Visible (ISO)
100
AcDbLine
 10
365.05
 20
89.74999999999999
 30
0.0
 11
365.05
 21
84.74999999999999
 31
0.0
  0
LINE
  5
12C
330
6C
100
AcDbEntity
  8
Visible (ISO)
100
AcDbLine
 10
364.75
 20
85.05
 30
0.0
 11
364.75
 21
89.74999999999999
 31
0.0
  0
LINE
  5
12D
330
6C
100
AcDbEntity
  8
Visible (ISO)
100
AcDbLine
 10
364.75
 20
162.45
 30
0.0
 11
365.05
 21
162.75
 31
0.0
  0
LINE
  5
12E
330
6C
100
AcDbEntity
  8
Visible (ISO)
100
AcDbLine
 10
364.75
 20
157.75
 30
0.0
 11
364.75
 21
162.45
 31
0.0
  0
LINE
  5
12F
330
6C
100
AcDbEntity
  8
Visible (ISO)
100
AcDbLine
 10
403.2499999999999
 20
91.54999999999999
 30
0.0
 11
402.9499999999999
 21
91.25000000000001
 31
0.0
  0
LINE
  5
130
330
6C
100
AcDbEntity
  8
Visible (ISO)
100
AcDbLine
 10
403.2499999999999
 20
155.95
 30
0.0
 11
402.9499999999999
 21
156.25
 31
0.0
  0
LINE
  5
131
330
6C
100
AcDbEntity
  8
Visible Narrow (ISO)
100
AcDbLine
 10
379.75
 20
150.5698051533946
 30
0.0
 11
379.75
 21
96.93019484660537
 31
0.0
  0
LINE
  5
132
330
6C
100
AcDbEntity
  8
Visible (ISO)
100
AcDbLine
 10
402.9499999999999
 20
91.25000000000001
 30
0.0
 11
383.75
 21
91.25000000000001
 31
0.0
  0
LINE
  5
133
330
6C
100
AcDbEntity
  8
Visible (ISO)
100
AcDbLine
 10
402.9499999999999
 20
156.25
 30
0.0
 11
383.75
 21
156.25
 31
0.0
  0
LINE
  5
134
330
6C
100
AcDbEntity
  8
Visible (ISO)
100
AcDbLine
 10
383.75
 20
96.33019484660536
 30
0.0
 11
383.75
 21
87.53019484660535
 31
0.0
  0
LINE
  5
135
330
6C
100
AcDbEntity
  8
Visible Narrow (ISO)
100
AcDbLine
 10
383.15
 20
86.93019484660537
 30
0.0
 11
383.15
 21
96.93019484660537
 31
0.0
  0
ARC
  5
136
330
6C
100
AcDbEntity
  8
Visible (ISO)
100
AcDbCircle
 10
383.15
 20
96.33019484660536
 30
0.0
 40
0.6
100
AcDbArc
 50
0.0
 51
90.0
  0
ARC
  5
137
330
6C
100
AcDbEntity
  8
Visible (ISO)
100
AcDbCircle
 10
383.15
 20
87.53019484660535
 30
0.0
 40
0.6
100
AcDbArc
 50
270.0
 51
0.0
  0
LINE
  5
138
330
6C
100
AcDbEntity
  8
Visible (ISO)
100
AcDbLine
 10
383.15
 20
86.93019484660537
 30
0.0
 11
377.75
 21
86.93019484660537
 31
0.0
  0
LINE
  5
139
330
6C
100
AcDbEntity
  8
Visible (ISO)
100
AcDbLine
 10
383.15
 20
96.93019484660537
 30
0.0
 11
377.75
 21
96.93019484660537
 31
0.0
  0
LINE
  5
13A
330
6C
100
AcDbEntity
  8
Visible (ISO)
100
AcDbLine
 10
383.75
 20
159.9698051533946
 30
0.0
 11
383.75
 21
151.1698051533946
 31
0.0
  0
LINE
  5
13B
330
6C
100
AcDbEntity
  8
Visible Narrow (ISO)
100
AcDbLine
 10
383.15
 20
150.5698051533946
 30
0.0
 11
383.15
 21
160.5698051533946
 31
0.0
  0
ARC
  5
13C
330
6C
100
AcDbEntity
  8
Visible (ISO)
100
AcDbCircle
 10
383.15
 20
159.9698051533946
 30
0.0
 40
0.6
100
AcDbArc
 50
0.0
 51
90.0
  0
ARC
  5
13D
330
6C
100
AcDbEntity
  8
Visible (ISO)
100
AcDbCircle
 10
383.15
 20
151.1698051533946
 30
0.0
 40
0.6
100
AcDbArc
 50
270.0
 51
0.0
  0
LINE
  5
13E
330
6C
100
AcDbEntity
  8
Visible (ISO)
100
AcDbLine
 10
383.15
 20
150.5698051533946
 30
0.0
 11
377.75
 21
150.5698051533946
 31
0.0
  0
LINE
  5
13F
330
6C
100
AcDbEntity
  8
Visible (ISO)
100
AcDbLine
 10
383.15
 20
160.5698051533946
 30
0.0
 11
377.75
 21
160.5698051533946
 31
0.0
  0
LINE
  5
140
330
6C
100
AcDbEntity
  8
Visible (ISO)
100
AcDbLine
 10
419.7499999999999
 20
155.95
 30
0.0
 11
419.7499999999999
 21
151.0263633939717
 31
0.0
  0
LINE
  5
141
330
6C
100
AcDbEntity
  8
Visible (ISO)
100
AcDbLine
 10
419.7499999999999
 20
96.47363660602831
 30
0.0
 11
419.7499999999999
 21
151.0263633939717
 31
0.0
  0
LINE
  5
142
330
6C
100
AcDbEntity
  8
Visible (ISO)
100
AcDbLine
 10
419.7499999999999
 20
96.47363660602827
 30
0.0
 11
419.7499999999999
 21
91.54999999999999
 31
0.0
  0
LINE
  5
143
330
6C
100
AcDbEntity
  8
Visible (ISO)
100
AcDbLine
 10
403.2499999999999
 20
91.55000000000001
 30
0.0
 11
403.2499999999999
 21
96.47363660602831
 31
0.0
  0
LINE
  5
144
330
6C
100
AcDbEntity
  8
Visible (ISO)
100
AcDbLine
 10
403.2499999999999
 20
151.0263633939717
 30
0.0
 11
403.2499999999999
 21
96.47363660602831
 31
0.0
  0
LINE
  5
145
330
6C
100
AcDbEntity
  8
Visible (ISO)
100
AcDbLine
 10
403.2499999999999
 20
151.0263633939717
 30
0.0
 11
403.2499999999999
 21
155.95
 31
0.0
  0
SPLINE
  5
146
330
6C
100
AcDbEntity
  8
Visible (ISO)
100
AcDbSpline
210
0.0
220
0.0
230
1.0
 70
    24
 71
     3
 72
     8
 73
     4
 74
     0
 42
0.0000000001
 43
0.0000000001
 40
-0.0438231200310444
 40
-0.0438231200310444
 40
-0.0438231200310444
 40
-0.0438231200310444
 40
0.0
 40
0.0
 40
0.0
 40
0.0
 10
403.2499999999999
 20
155.95
 30
0.0
 10
403.3499869361146
 20
156.0499869361147
 30
0.0
 10
403.4499878692447
 20
156.1499878692447
 30
0.0
 10
403.5499999999999
 20
156.25
 30
0.0
  0
SPLINE
  5
147
330
6C
100
AcDbEntity
  8
Visible (ISO)
100
AcDbSpline
210
0.0
220
0.0
230
1.0
 70
     8
 71
     3
 72
     8
 73
     4
 74
     0
 42
0.0000000001
 43
0.0000000001
 40
-0.0438231200309521
 40
-0.0438231200309521
 40
-0.0438231200309521
 40
-0.0438231200309521
 40
0.0
 40
0.0
 40
0.0
 40
0.0
 10
403.2499999999999
 20
151.0263633939717
 30
0.0
 10
403.3499869361147
 20
151.0630203832743
 30
0.0
 10
403.4499878692449
 20
151.0996086085658
 30
0.0
 10
403.5499999999999
 20
151.1361278752583
 30
0.0
  0
LINE
  5
148
330
6C
100
AcDbEntity
  8
Visible (ISO)
100
AcDbLine
 10
403.5499999999999
 20
156.25
 30
0.0
 11
403.5499999999999
 21
151.1361278752583
 31
0.0
  0
SPLINE
  5
149
330
6C
100
AcDbEntity
  8
Visible (ISO)
100
AcDbSpline
210
0.0
220
0.0
230
1.0
 70
     8
 71
     3
 72
     8
 73
     4
 74
     0
 42
0.0000000001
 43
0.0000000001
 40
-0.0438231200332123
 40
-0.0438231200332123
 40
-0.0438231200332123
 40
-0.0438231200332123
 40
0.0
 40
0.0
 40
0.0
 40
0.0
 10
403.2499999999999
 20
96.47363660602831
 30
0.0
 10
403.3499869361122
 20
96.43697961672657
 30
0.0
 10
403.4499878692397
 20
96.40039139143603
 30
0.0
 10
403.5499999999999
 20
96.36387212474168
 30
0.0
  0
LINE
  5
14A
330
6C
100
AcDbEntity
  8
Visible (ISO)
100
AcDbLine
 10
403.5499999999999
 20
96.36387212474168
 30
0.0
 11
403.5499999999999
 21
151.1361278752583
 31
0.0
  0
SPLINE
  5
14B
330
6C
100
AcDbEntity
  8
Visible (ISO)
100
AcDbSpline
210
0.0
220
0.0
230
1.0
 70
    24
 71
     3
 72
     8
 73
     4
 74
     0
 42
0.0000000001
 43
0.0000000001
 40
-0.0438231200331159
 40
-0.0438231200331159
 40
-0.0438231200331159
 40
-0.0438231200331159
 40
0.0
 40
0.0
 40
0.0
 40
0.0
 10
403.2499999999999
 20
91.54999999999999
 30
0.0
 10
403.3499869361123
 20
91.45001306388765
 30
0.0
 10
403.44998786924
 20
91.35001213075998
 30
0.0
 10
403.5499999999999
 20
91.25000000000001
 30
0.0
  0
LINE
  5
14C
330
6C
100
AcDbEntity
  8
Visible (ISO)
100
AcDbLine
 10
403.5499999999999
 20
96.36387212474167
 30
0.0
 11
403.5499999999999
 21
91.25000000000001
 31
0.0
  0
LINE
  5
14D
330
6C
100
AcDbEntity
  8
Visible (ISO)
100
AcDbLine
 10
419.4499999999999
 20
91.25
 30
0.0
 11
419.4499999999999
 21
96.36387212474168
 31
0.0
  0
SPLINE
  5
14E
330
6C
100
AcDbEntity
  8
Visible (ISO)
100
AcDbSpline
210
0.0
220
0.0
230
1.0
 70
    24
 71
     3
 72
     8
 73
     4
 74
     0
 42
0.0000000001
 43
0.0000000001
 40
-0.0438231200332337
 40
-0.0438231200332337
 40
-0.0438231200332337
 40
-0.0438231200332337
 40
0.0
 40
0.0
 40
0.0
 40
0.0
 10
419.7499999999999
 20
91.54999999999999
 30
0.0
 10
419.6500130638877
 20
91.45001306388778
 30
0.0
 10
419.5500121307602
 20
91.35001213076023
 30
0.0
 10
419.4499999999999
 20
91.25000000000001
 30
0.0
  0
SPLINE
  5
14F
330
6C
100
AcDbEntity
  8
Visible (ISO)
100
AcDbSpline
210
0.0
220
0.0
230
1.0
 70
     8
 71
     3
 72
     8
 73
     4
 74
     0
 42
0.0000000001
 43
0.0000000001
 40
-0.0438231200323892
 40
-0.0438231200323892
 40
-0.0438231200323892
 40
-0.0438231200323892
 40
0.0
 40
0.0
 40
0.0
 40
0.0
 10
419.7499999999999
 20
96.47363660602827
 30
0.0
 10
419.6500130638868
 20
96.43697961672623
 30
0.0
 10
419.5500121307582
 20
96.40039139143535
 30
0.0
 10
419.4499999999999
 20
96.36387212474168
 30
0.0
  0
SPLINE
  5
150
330
6C
100
AcDbEntity
  8
Visible (ISO)
100
AcDbSpline
210
0.0
220
0.0
230
1.0
 70
     8
 71
     3
 72
     8
 73
     4
 74
     0
 42
0.0000000001
 43
0.0000000001
 40
-0.0438231200337178
 40
-0.0438231200337178
 40
-0.0438231200337178
 40
-0.0438231200337178
 40
0.0
 40
0.0
 40
0.0
 40
0.0
 10
419.7499999999999
 20
151.0263633939717
 30
0.0
 10
419.6500130638883
 20
151.0630203832732
 30
0.0
 10
419.5500121307612
 20
151.0996086085635
 30
0.0
 10
419.4499999999999
 20
151.1361278752583
 30
0.0
  0
LINE
  5
151
330
6C
100
AcDbEntity
  8
Visible (ISO)
100
AcDbLine
 10
419.4499999999999
 20
151.1361278752583
 30
0.0
 11
419.4499999999999
 21
96.36387212474168
 31
0.0
  0
SPLINE
  5
152
330
6C
100
AcDbEntity
  8
Visible (ISO)
100
AcDbSpline
210
0.0
220
0.0
230
1.0
 70
    24
 71
     3
 72
     8
 73
     4
 74
     0
 42
0.0000000001
 43
0.0000000001
 40
-0.0438231200328689
 40
-0.0438231200328689
 40
-0.0438231200328689
 40
-0.0438231200328689
 40
0.0
 40
0.0
 40
0.0
 40
0.0
 10
419.7499999999999
 20
155.95
 30
0.0
 10
419.6500130638873
 20
156.0499869361126
 30
0.0
 10
419.5500121307594
 20
156.1499878692406
 30
0.0
 10
419.4499999999999
 20
156.25
 30
0.0
  0
LINE
  5
153
330
6C
100
AcDbEntity
  8
Visible (ISO)
100
AcDbLine
 10
419.4499999999999
 20
151.1361278752583
 30
0.0
 11
419.4499999999999
 21
156.25
 31
0.0
  0
LINE
  5
154
330
6C
100
AcDbEntity
  8
Visible (ISO)
100
AcDbLine
 10
419.4499999999999
 20
91.25000000000001
 30
0.0
 11
403.5499999999999
 21
91.25000000000001
 31
0.0
  0
LINE
  5
155
330
6C
100
AcDbEntity
  8
Visible (ISO)
100
AcDbLine
 10
419.4499999999999
 20
96.36387212474168
 30
0.0
 11
403.5499999999999
 21
96.36387212474168
 31
0.0
  0
LINE
  5
156
330
6C
100
AcDbEntity
  8
Visible (ISO)
100
AcDbLine
 10
419.4499999999999
 20
151.1361278752583
 30
0.0
 11
403.5499999999999
 21
151.1361278752583
 31
0.0
  0
LINE
  5
157
330
6C
100
AcDbEntity
  8
Visible (ISO)
100
AcDbLine
 10
419.4499999999999
 20
156.25
 30
0.0
 11
403.5499999999999
 21
156.25
 31
0.0
  0
LINE
  5
158
330
6C
100
AcDbEntity
  8
Visible (ISO)
100
AcDbLine
 10
405.386
 20
157.25
 30
0.0
 11
413.114
 21
157.25
 31
0.0
  0
LINE
  5
159
330
6C
100
AcDbEntity
  8
Visible (ISO)
100
AcDbLine
 10
414.0827652476223
 20
156.2504879239129
 30
0.0
 11
404.4172347523777
 21
156.2504879239129
 31
0.0
  0
LINE
  5
15A
330
6C
100
AcDbEntity
  8
Visible (ISO)
100
AcDbLine
 10
413.114
 20
157.25
 30
0.0
 11
414.0827652476223
 21
156.2504879239129
 31
0.0
  0
LINE
  5
15B
330
6C
100
AcDbEntity
  8
Visible (ISO)
100
AcDbLine
 10
405.386
 20
157.25
 30
0.0
 11
404.4172347523777
 21
156.2504879239129
 31
0.0
  0
LINE
  5
15C
330
6C
100
AcDbEntity
  8
Visible (ISO)
100
AcDbLine
 10
404.41725
 20
156.25
 30
0.0
 11
404.4172347523777
 21
156.2504879239129
 31
0.0
  0
LINE
  5
15D
330
6C
100
AcDbEntity
  8
Visible (ISO)
100
AcDbLine
 10
414.08275
 20
156.25
 30
0.0
 11
414.0827652476223
 21
156.2504879239129
 31
0.0
  0
LINE
  5
15E
330
6C
100
AcDbEntity
  8
Visible Narrow (ISO)
100
AcDbLine
 10
413.5014663778205
 20
156.25
 30
0.0
 11
413.5014816254428
 21
156.2504879239129
 31
0.0
  0
LINE
  5
15F
330
6C
100
AcDbEntity
  8
Visible Narrow (ISO)
100
AcDbLine
 10
404.9985183745572
 20
156.2504879239129
 30
0.0
 11
404.9985336221794
 21
156.25
 31
0.0
  0
ELLIPSE
  5
160
330
6C
100
AcDbEntity
  8
Visible Narrow (ISO)
100
AcDbEllipse
 10
149.0138257913905
 20
232.5355575181339
 30
0.0
 11
-8.629710747673589
 21
14.98573482645317
 31
0.0
210
0.0
220
0.0
230
1.0
 40
0.5780931159156393
 41
2.152392793514304
 42
7.272385167255073
  0
ELLIPSE
  5
161
330
6C
100
AcDbEntity
  8
Visible Narrow (ISO)
100
AcDbEllipse
 10
149.1173791819838
 20
232.5951899497838
 30
0.0
 11
8.806145278094437
 21
-15.2921183385343
 31
0.0
210
0.0
220
0.0
230
1.0
 40
0.5780931159156393
 41
5.4958534353594
 42
10.21210983258956
  0
SPLINE
  5
162
330
6C
100
AcDbEntity
  8
Visible (ISO)
100
AcDbSpline
210
0.0
220
0.0
230
1.0
 70
     8
 71
     3
 72
     8
 73
     4
 74
     0
 42
0.0000000001
 43
0.0000000001
 40
1.574663743640666
 40
1.574663743640666
 40
1.574663743640666
 40
1.574663743640666
 40
1.788499170523705
 40
1.788499170523705
 40
1.788499170523705
 40
1.788499170523705
 10
149.0691219763002
 20
218.1962856272005
 30
0.0
 10
148.1708802710399
 20
218.7175650900771
 30
0.0
 10
147.2772607018659
 20
219.3475065207236
 30
0.0
 10
146.4066004642368
 20
220.0715650500195
 30
0.0
  0
SPLINE
  5
163
330
6C
100
AcDbEntity
  8
Visible (ISO)
100
AcDbSpline
210
0.0
220
0.0
230
1.0
 70
     8
 71
     3
 72
     8
 73
     4
 74
     0
 42
0.0000000001
 43
0.0000000001
 40
2.927757226707051
 40
2.927757226707051
 40
2.927757226707051
 40
2.927757226707051
 40
3.141592653590089
 40
3.141592653590089
 40
3.141592653590089
 40
3.141592653590089
 10
136.9249884441373
 20
236.5366503367802
 30
0.0
 10
136.7357595249831
 20
237.6531190642376
 30
0.0
 10
136.6394571206275
 20
238.7422049136411
 30
0.0
 10
136.6394571206278
 20
239.7807473728048
 30
0.0
  0
ELLIPSE
  5
164
330
6C
100
AcDbEntity
  8
Visible Narrow (ISO)
100
AcDbEllipse
 10
149.8673791819839
 20
233.0270862255227
 30
0.0
 11
-9.335448869356985
 21
16.21126887477773
 31
0.0
210
0.0
220
0.0
230
1.0
 40
0.5780931159156394
 41
2.354260781769609
 42
7.070517178999768
  0
ELLIPSE
  5
165
330
6C
100
AcDbEntity
  8
Visible Narrow (ISO)
100
AcDbEllipse
 10
150.0744859631705
 20
233.1463510888224
 30
0.0
 11
9.688317930198678
 21
-16.82403589894001
 31
0.0
210
0.0
220
0.0
230
1.0
 40
0.5780931159156396
 41
5.223712838395428
 42
10.48425042955353
  0
ELLIPSE
  5
166
330
6C
100
AcDbEntity
  8
Visible (ISO)
100
AcDbEllipse
 10
149.0138257913905
 20
232.5355575181339
 30
0.0
 11
8.272631767039344
 21
-14.3656571584586
 31
0.0
210
0.0
220
0.0
230
1.0
 40
0.5780931159156394
 41
5.32263742390153
 42
10.38532584404743
  0
ELLIPSE
  5
167
330
6C
100
AcDbEntity
  8
Visible (ISO)
100
AcDbEllipse
 10
149.7209325725771
 20
232.9427532319262
 30
0.0
 11
7.984515385346925
 21
-13.86533497832485
 31
0.0
210
0.0
220
0.0
230
1.0
 40
0.5780931159156392
 41
5.861786860782729
 42
6.66467978389929
  0
ELLIPSE
  5
168
330
6C
100
AcDbEntity
  8
Visible (ISO)
100
AcDbEllipse
 10
149.7209325725772
 20
232.9427532319262
 30
0.0
 11
-7.984515385346926
 21
13.86533497832485
 31
0.0
210
0.0
220
0.0
230
1.0
 40
0.578093115915639
 41
5.901690830459881
 42
6.704583753576442
  0
ELLIPSE
  5
169
330
6C
100
AcDbEntity
  8
Visible Narrow (ISO)
100
AcDbEllipse
 10
150.0744859631705
 20
233.1463510888224
 30
0.0
 11
-14.47193413594129
 21
25.13091964821377
 31
0.0
210
0.0
220
0.0
230
1.0
 40
0.5780931159156393
 41
1.904544005141317
 42
7.520233955628062
  0
ELLIPSE
  5
16A
330
6C
100
AcDbEntity
  8
Visible Narrow (ISO)
100
AcDbEllipse
 10
151.4886995255438
 20
233.9607425164069
 30
0.0
 11
15.46999855910965
 21
-26.86408652050439
 31
0.0
210
0.0
220
0.0
230
0.9999999999999998
 40
0.5780931159156393
 41
0.0000000000000019
 42
3.141592653589794
  0
SPLINE
  5
16B
330
6C
100
AcDbEntity
  8
Visible (ISO)
100
AcDbSpline
210
0.0
220
0.0
230
1.0
 70
     8
 71
     3
 72
    16
 73
    12
 74
     0
 42
0.0000000001
 43
0.0000000001
 40
0.7873318718204814
 40
0.7873318718204814
 40
0.7873318718204814
 40
0.7873318718204814
 40
1.072058556939753
 40
1.072058556939753
 40
1.37594788634102
 40
1.37594788634102
 40
1.703034044551685
 40
1.703034044551685
 40
2.033914519672913
 40
2.033914519672913
 40
2.038084189883556
 40
2.038084189883556
 40
2.038084189883556
 40
2.038084189883556
 10
166.9586980846534
 20
207.0966559959025
 30
0.0
 10
165.2953165086966
 20
206.1387782521847
 30
0.0
 10
163.3971853796817
 20
205.6018629366365
 30
0.0
 10
159.2781403586441
 20
205.3799613183511
 30
0.0
 10
157.0452000494585
 20
205.7452273390533
 30
0.0
 10
152.3880702654001
 20
207.3644445069727
 30
0.0
 10
149.9575529228274
 20
208.6844656295283
 30
0.0
 10
145.2272921006628
 20
212.1359032876528
 30
0.0
 10
142.9298454943248
 20
214.2776516497769
 30
0.0
 10
140.7901683627484
 20
216.7451056852874
 30
0.0
 10
140.7635695086531
 20
216.7758594049304
 30
0.0
 10
140.7370000995473
 20
216.8066593401034
 30
0.0
  0
SPLINE
  5
16C
330
6C
100
AcDbEntity
  8
Visible (ISO)
100
AcDbSpline
210
0.0
220
0.0
230
1.0
 70
     8
 71
     3
 72
    16
 73
    12
 74
     0
 42
0.0000000001
 43
0.0000000001
 40
2.678172207347199
 40
2.678172207347199
 40
2.678172207347199
 40
2.678172207347199
 40
2.691380066837214
 40
2.691380066837214
 40
3.020563168893699
 40
3.020563168893699
 40
3.351466113361328
 40
3.351466113361328
 40
3.678114993951755
 40
3.678114993951755
 40
3.928924525410274
 40
3.928924525410274
 40
3.928924525410274
 40
3.928924525410274
 10
131.2553880794478
 20
233.2717446268642
 30
0.0
 10
131.213249553565
 20
233.3935059189493
 30
0.0
 10
131.1716603939034
 20
233.5152899867898
 30
0.0
 10
130.1078695800274
 20
236.6726749249343
 30
0.0
 10
129.4307731572416
 20
239.7154868077533
 30
0.0
 10
128.8524670298164
 20
245.54602827676
 30
0.0
 10
128.9541757320035
 20
248.3325515388977
 30
0.0
 10
129.986610774688
 20
253.3419096329987
 30
0.0
 10
130.9099153323578
 20
255.5766802927563
 30
0.0
 10
133.2774893810291
 20
258.8161106372663
 30
0.0
 10
134.5534643886693
 20
259.981055408894
 30
0.0
 10
136.0187009664341
 20
260.8248290369113
 30
0.0
  0
ELLIPSE
  5
16D
330
6C
100
AcDbEntity
  8
Visible (ISO)
100
AcDbEllipse
 10
138.5346410715669
 20
278.4289631409817
 30
0.0
 11
-1.226870692179712
 21
2.130495377763226
 31
0.0
210
0.0
220
0.0
230
1.0
 40
0.5780931159156393
 41
0.0
 42
6.283185307179586
  0
ELLIPSE
  5
16E
330
6C
100
AcDbEntity
  8
Visible (ISO)
100
AcDbEllipse
 10
183.5346410715603
 20
200.4868061642235
 30
0.0
 11
-1.226870692179712
 21
2.130495377763226
 31
0.0
210
0.0
220
0.0
230
1.0
 40
0.5780931159156393
 41
0.0
 42
6.283185307179586
  0
ELLIPSE
  5
16F
330
6C
100
AcDbEntity
  8
Visible (ISO)
100
AcDbEllipse
 10
183.5346410715603
 20
252.5151865966388
 30
0.0
 11
-1.226870692179712
 21
2.130495377763226
 31
0.0
210
0.0
220
0.0
230
1.0
 40
0.5780931159156393
 41
0.0
 42
6.283185307179586
  0
ELLIPSE
  5
170
330
6C
100
AcDbEntity
  8
Visible Narrow (ISO)
100
AcDbEllipse
 10
157.4991071656303
 20
237.4219060836412
 30
0.0
 11
-15.46999855910966
 21
26.86408652050439
 31
0.0
210
0.0
220
0.0
230
1.0
 40
0.5780931159156393
 41
3.141592653589791
 42
6.283185307179583
  0
ELLIPSE
  5
171
330
6C
100
AcDbEntity
  8
Visible Narrow (ISO)
100
AcDbEllipse
 10
158.9133207280037
 20
238.2362975112258
 30
0.0
 11
16.46806298227802
 21
-28.597253392795
 31
0.0
210
0.0
220
0.0
230
0.9999999999999998
 40
0.5780931159156393
 41
5.933247215848208
 42
9.774716052100757
  0
ELLIPSE
  5
172
330
6C
100
AcDbEntity
  8
Visible (ISO)
100
AcDbEllipse
 10
158.9133207280037
 20
238.2362975112258
 30
0.0
 11
-17.21661129965429
 21
29.89712854701294
 31
0.0
210
0.0
220
0.0
230
1.0
 40
0.5780931159156394
 41
2.687153556281341
 42
6.737624404488035
  0
ELLIPSE
  5
173
330
6C
100
AcDbEntity
  8
Visible (ISO)
100
AcDbEllipse
 10
159.266874118597
 20
238.4398953681219
 30
0.0
 11
17.46612740544639
 21
-30.3304202650856
 31
0.0
210
0.0
220
0.0
230
1.0
 40
0.5780931159156393
 41
5.799942390944002
 42
9.908020877004956
  0
ELLIPSE
  5
174
330
6C
100
AcDbEntity
  8
Visible Narrow (ISO)
100
AcDbEllipse
 10
160.7517983590889
 20
239.2950063670857
 30
0.0
 11
-17.46612740544639
 21
30.3304202650856
 31
0.0
210
0.0
220
0.0
230
1.0
 40
0.5780931159156393
 41
3.141592653589792
 42
6.283185307179586
  0
ELLIPSE
  5
175
330
6C
100
AcDbEntity
  8
Visible Narrow (ISO)
100
AcDbEllipse
 10
161.0346410715636
 20
239.4578846526026
 30
0.0
 11
17.66574029008006
 21
-30.67705363954371
 31
0.0
210
0.0
220
0.0
230
1.0
 40
0.5780931159156396
 41
6.119904895356361
 42
9.5880583725926
  0
LINE
  5
176
330
6C
100
AcDbEntity
  8
Visible (ISO)
100
AcDbLine
 10
136.9930105112245
 20
284.7781032279818
 30
0.0
 11
185.0762716319026
 21
257.088794690099
 31
0.0
  0
ELLIPSE
  5
177
330
6C
100
AcDbEntity
  8
Visible (ISO)
100
AcDbEllipse
 10
136.9930105112245
 20
281.0991411661904
 30
0.0
 11
-2.24564495212882
 21
3.89962546265386
 31
0.0
210
0.0
220
0.0
230
1.0
 40
0.5780931159156394
 41
5.499720852205177
 42
7.070517179000071
  0
LINE
  5
178
330
6C
100
AcDbEntity
  8
Visible (ISO)
100
AcDbLine
 10
133.8110299958855
 20
259.1827442900988
 30
0.0
 11
133.8110299958856
 21
282.9315218782562
 31
0.0
  0
LINE
  5
179
330
6C
100
AcDbEntity
  8
Visible (ISO)
100
AcDbLine
 10
185.0762716319026
 20
194.1376660772234
 30
0.0
 11
164.4479616042051
 21
206.0167197782292
 31
0.0
  0
ELLIPSE
  5
17A
330
6C
100
AcDbEntity
  8
Visible (ISO)
100
AcDbEllipse
 10
185.0762716319026
 20
197.8166281390148
 30
0.0
 11
2.24564495212882
 21
-3.89962546265386
 31
0.0
210
0.0
220
0.0
230
1.0
 40
0.5780931159156394
 41
5.499720852205171
 42
7.070517179000068
  0
LINE
  5
17B
330
6C
100
AcDbEntity
  8
Visible (ISO)
100
AcDbLine
 10
188.2582521472416
 20
251.5774519162418
 30
0.0
 11
188.2582521472416
 21
195.9842474269491
 31
0.0
  0
ELLIPSE
  5
17C
330
6C
100
AcDbEntity
  8
Visible (ISO)
100
AcDbEllipse
 10
185.0762716319026
 20
253.4098326283076
 30
0.0
 11
2.245644952128587
 21
-3.899625462653992
 31
0.0
210
0.0
220
0.0
230
0.9999999999999998
 40
0.5780931159156394
 41
0.787331871820717
 42
2.35812819861562
  0
LINE
  5
17D
330
6C
100
AcDbEntity
  8
Visible Narrow (ISO)
100
AcDbLine
 10
137.3465639018179
 20
285.3904746472992
 30
0.0
 11
136.9930105112245
 21
284.7781032279818
 31
0.0
  0
LINE
  5
17E
330
6C
100
AcDbEntity
  8
Visible Narrow (ISO)
100
AcDbLine
 10
185.0762716319026
 20
257.088794690099
 30
0.0
 11
185.429825022496
 21
257.7011661094164
 31
0.0
  0
LINE
  5
17F
330
6C
100
AcDbEntity
  8
Visible (ISO)
100
AcDbLine
 10
185.429825022496
 20
257.7011661094164
 30
0.0
 11
137.3465639018179
 21
285.3904746472992
 31
0.0
  0
LINE
  5
180
330
6C
100
AcDbEntity
  8
Visible Narrow (ISO)
100
AcDbLine
 10
188.2582521472416
 20
251.5774519162418
 30
0.0
 11
188.9653589284282
 21
251.5774519162417
 31
0.0
  0
ELLIPSE
  5
181
330
6C
100
AcDbEntity
  8
Visible (ISO)
100
AcDbEllipse
 10
185.429825022496
 20
253.6134304852037
 30
0.0
 11
-2.495161057921168
 21
4.332917180726356
 31
0.0
210
0.0
220
0.0
230
1.0
 40
0.5780931159156393
 41
3.928924525410026
 42
5.499720852204928
  0
LINE
  5
182
330
6C
100
AcDbEntity
  8
Visible Narrow (ISO)
100
AcDbLine
 10
188.2582521472416
 20
195.9842474269491
 30
0.0
 11
188.9653589284282
 21
195.984247426949
 31
0.0
  0
LINE
  5
183
330
6C
100
AcDbEntity
  8
Visible (ISO)
100
AcDbLine
 10
188.9653589284282
 20
195.984247426949
 30
0.0
 11
188.9653589284282
 21
251.5774519162417
 31
0.0
  0
LINE
  5
184
330
6C
100
AcDbEntity
  8
Visible Narrow (ISO)
100
AcDbLine
 10
185.0762716319026
 20
194.1376660772234
 30
0.0
 11
185.429825022496
 21
193.9324903716983
 31
0.0
  0
ELLIPSE
  5
185
330
6C
100
AcDbEntity
  8
Visible (ISO)
100
AcDbEllipse
 10
185.429825022496
 20
198.020225995911
 30
0.0
 11
2.495161057920908
 21
-4.332917180726505
 31
0.0
210
0.0
220
0.0
230
1.0
 40
0.5780931159156393
 41
5.499720852205171
 42
7.070517179000076
  0
LINE
  5
186
330
6C
100
AcDbEntity
  8
Visible (ISO)
100
AcDbLine
 10
164.4461603589539
 20
206.0161791977546
 30
0.0
 11
185.429825022496
 21
193.9324903716983
 31
0.0
  0
LINE
  5
187
330
6C
100
AcDbEntity
  8
Visible (ISO)
100
AcDbLine
 10
133.8110299958856
 20
282.9315218782562
 30
0.0
 11
133.8110299958857
 21
283.3387175920485
 31
0.0
  0
ELLIPSE
  5
188
330
6C
100
AcDbEntity
  8
Visible (ISO)
100
AcDbEllipse
 10
137.3465639018179
 20
281.3027390230865
 30
0.0
 11
-2.495161057920908
 21
4.332917180726505
 31
0.0
210
0.0
220
0.0
230
1.0
 40
0.5780931159156393
 41
5.499720852205171
 42
7.070517179000067
  0
LINE
  5
189
330
6C
100
AcDbEntity
  8
Visible Narrow (ISO)
100
AcDbLine
 10
161.176062427808
 20
299.1129702020988
 30
0.0
 11
137.3465639018179
 21
285.3904746472992
 31
0.0
  0
LINE
  5
18A
330
6C
100
AcDbEntity
  8
Visible Narrow (ISO)
100
AcDbLine
 10
209.2593235484862
 20
271.423661664216
 30
0.0
 11
185.429825022496
 21
257.7011661094164
 31
0.0
  0
LINE
  5
18B
330
6C
100
AcDbEntity
  8
Visible Narrow (ISO)
100
AcDbLine
 10
212.7948574544184
 20
209.7067429817486
 30
0.0
 11
188.9653589284282
 21
195.984247426949
 31
0.0
  0
LINE
  5
18C
330
6C
100
AcDbEntity
  8
Visible Narrow (ISO)
100
AcDbLine
 10
212.7948574544184
 20
265.2999474710414
 30
0.0
 11
188.9653589284282
 21
251.5774519162417
 31
0.0
  0
LINE
  5
18D
330
6C
100
AcDbEntity
  8
Visible (ISO)
100
AcDbLine
 10
158.6809013698871
 20
299.3581517586126
 30
0.0
 11
134.8514028438969
 21
285.635656203813
 31
0.0
  0
LINE
  5
18E
330
6C
100
AcDbEntity
  8
Visible (ISO)
100
AcDbLine
 10
211.7544846064071
 20
207.4098043699841
 30
0.0
 11
187.9249860804169
 21
193.6873088151845
 31
0.0
  0
ELLIPSE
  5
18F
330
6C
100
AcDbEntity
  8
Visible (ISO)
100
AcDbEllipse
 10
161.176062427808
 20
295.0252345778861
 30
0.0
 11
-2.49516105792091
 21
4.332917180726502
 31
0.0
210
0.0
220
0.0
230
1.0
 40
0.5780931159156394
 41
5.499720852205163
 42
6.283185307179575
  0
LINE
  5
190
330
6C
100
AcDbEntity
  8
Visible (ISO)
100
AcDbLine
 10
161.176062427808
 20
299.1129702020988
 30
0.0
 11
209.2593235484862
 21
271.423661664216
 31
0.0
  0
ELLIPSE
  5
191
330
6C
100
AcDbEntity
  8
Visible (ISO)
100
AcDbEllipse
 10
209.2593235484862
 20
211.7427215507106
 30
0.0
 11
2.495161057920915
 21
-4.332917180726515
 31
0.0
210
0.0
220
0.0
230
1.0
 40
0.5780931159156394
 41
0.0
 42
0.787331871820471
  0
LINE
  5
192
330
6C
100
AcDbEntity
  8
Visible (ISO)
100
AcDbLine
 10
212.7948574544185
 20
265.5442648993168
 30
0.0
 11
212.7948574544184
 21
265.2999474710414
 31
0.0
  0
LINE
  5
193
330
6C
100
AcDbEntity
  8
Visible (ISO)
100
AcDbLine
 10
212.7948574544184
 20
265.2999474710414
 30
0.0
 11
212.7948574544184
 21
209.7067429817486
 31
0.0
  0
ELLIPSE
  5
194
330
6C
100
AcDbEntity
  8
Visible (ISO)
100
AcDbEllipse
 10
209.2593235484862
 20
267.3359260400033
 30
0.0
 11
2.49516105792065
 21
-4.332917180726653
 31
0.0
210
0.0
220
0.0
230
0.9999999999999998
 40
0.5780931159156394
 41
0.7873318718207179
 42
2.358128198615613
  0
ELLIPSE
  5
195
330
6C
100
AcDbEntity
  8
Visible (ISO)
100
AcDbEllipse
 10
209.4714555828422
 20
267.458084754141
 30
0.0
 11
-2.345451394445906
 21
4.072942149882791
 31
0.0
210
0.0
220
0.0
230
1.0
 40
0.5780931159156393
 41
3.928924525410044
 42
5.495853435359173
  0
LINE
  5
196
330
6C
100
AcDbEntity
  8
Visible (ISO)
100
AcDbLine
 10
209.4843085311854
 20
271.2931259844852
 30
0.0
 11
209.2729968977875
 21
271.4157571361141
 31
0.0
  0
LINE
  5
197
330
6C
100
AcDbEntity
  8
Visible (ISO)
100
AcDbLine
 10
136.6394571206278
 20
239.7807473728049
 30
0.0
 11
136.639457120628
 21
240.6445399242831
 31
0.0
  0
LINE
  5
198
330
6C
100
AcDbEntity
  8
Visible (ISO)
100
AcDbLine
 10
149.0691219763002
 20
218.1962856272005
 30
0.0
 11
149.8162214208966
 21
217.7627190326927
 31
0.0
  0
LINE
  5
199
330
6C
100
AcDbEntity
  8
Visible (ISO)
100
AcDbLine
 10
172.96910572474
 20
210.5578195631369
 30
0.0
 11
166.9586980846534
 21
207.0966559959025
 31
0.0
  0
LINE
  5
19A
330
6C
100
AcDbEntity
  8
Visible (ISO)
100
AcDbLine
 10
142.0291086065207
 20
264.2859926041456
 30
0.0
 11
136.0187009664341
 21
260.8248290369113
 31
0.0
  0
LINE
  5
19B
330
6C
100
AcDbEntity
  8
Visible (ISO)
100
AcDbLine
 10
178.2179257645353
 20
208.9645861020001
 30
0.0
 11
176.7330015240434
 21
208.1094751030363
 31
0.0
  0
LINE
  5
19C
330
6C
100
AcDbEntity
  8
Visible (ISO)
100
AcDbLine
 10
143.2856709536426
 20
269.6254266321713
 30
0.0
 11
141.8007467131506
 21
268.7703156332075
 31
0.0
  0
ELLIPSE
  5
19D
330
6C
100
AcDbEntity
  8
Visible (ISO)
100
AcDbEllipse
 10
149.7209325725771
 20
232.9427532319263
 30
0.0
 11
5.48935432742605
 21
-9.532417797598391
 31
0.0
210
0.0
220
0.0
230
1.0
 40
0.5780931159156393
 41
0.0
 42
0.3635697563933942
  0
ELLIPSE
  5
19E
330
6C
100
AcDbEntity
  8
Visible (ISO)
100
AcDbEllipse
 10
149.7209325725772
 20
232.9427532319262
 30
0.0
 11
-5.489354327426015
 21
9.532417797598341
 31
0.0
210
0.0
220
0.0
230
1.0
 40
0.5780931159156394
 41
5.919615550786186
 42
6.283185307179585
  0
ELLIPSE
  5
19F
330
6C
100
AcDbEntity
  8
Visible (ISO)
100
AcDbEllipse
 10
149.0138257913905
 20
232.5355575181339
 30
0.0
 11
5.777470709118428
 21
-10.03273997773209
 31
0.0
210
0.0
220
0.0
230
1.0
 40
0.5780931159156394
 41
5.956044417460002
 42
9.751918850488959
  0
ELLIPSE
  5
1A0
330
6C
100
AcDbEntity
  8
Visible (ISO)
100
AcDbEllipse
 10
149.0138257913905
 20
232.5355575181339
 30
0.0
 11
-7.696399003654496
 21
13.36501279819108
 31
0.0
210
0.0
220
0.0
230
1.0
 40
0.5780931159156392
 41
2.234422116453999
 42
7.190355844315379
  0
ELLIPSE
  5
1A1
330
6C
100
AcDbEntity
  8
Visible (ISO)
100
AcDbEllipse
 10
149.7209325725772
 20
232.9427532319262
 30
0.0
 11
-7.984515385346918
 21
13.86533497832484
 31
0.0
210
0.0
220
0.0
230
0.9999999999999998
 40
0.5780931159156392
 41
5.90169083045988
 42
6.704583753576444
  0
ELLIPSE
  5
1A2
330
6C
100
AcDbEntity
  8
Visible (ISO)
100
AcDbEllipse
 10
149.7209325725772
 20
232.9427532319262
 30
0.0
 11
7.984515385346927
 21
-13.86533497832486
 31
0.0
210
0.0
220
0.0
230
0.9999999999999998
 40
0.5780931159156394
 41
5.861786860782729
 42
6.66467978389929
  0
LINE
  5
1A3
330
6C
100
AcDbEntity
  8
Visible (ISO)
100
AcDbLine
 10
138.8304142632689
 20
242.9114681412966
 30
0.0
 11
139.1563028044222
 21
243.7070883408893
 31
0.0
  0
LINE
  5
1A4
330
6C
100
AcDbEntity
  8
Visible (ISO)
100
AcDbLine
 10
152.8766166910273
 20
218.5198435485702
 30
0.0
 11
153.7283278952317
 21
218.4023579414189
 31
0.0
  0
ELLIPSE
  5
1A5
330
6C
100
AcDbEntity
  8
Visible (ISO)
100
AcDbEllipse
 10
125.679302012231
 20
219.0980989629889
 30
0.0
 11
-1.871370793440683
 21
3.249687885544883
 31
0.0
210
0.0
220
0.0
230
1.0
 40
0.5780931159156393
 41
0.0
 42
6.283185307179586
  0
ELLIPSE
  5
1A6
330
6C
100
AcDbEntity
  8
Visible (ISO)
100
AcDbEllipse
 10
127.2610600136335
 20
220.0089728162234
 30
0.0
 11
-1.226870692179712
 21
2.130495377763227
 31
0.0
210
0.0
220
0.0
230
0.9999999999999998
 40
0.5780931159156393
 41
0.1260013179786823
 42
3.015591335611102
  0
ELLIPSE
  5
1A7
330
6C
100
AcDbEntity
  8
Visible Narrow (ISO)
100
AcDbEllipse
 10
146.6096627353559
 20
231.1510920912402
 30
0.0
 11
-4.740806010049733
 21
8.232542643380371
 31
0.0
210
0.0
220
0.0
230
1.0
 40
0.5780931159156393
 41
3.141592653589792
 42
6.283185307179585
  0
ELLIPSE
  5
1A8
330
6C
100
AcDbEntity
  8
Visible Narrow (ISO)
100
AcDbEllipse
 10
146.8925054478306
 20
231.3139703767571
 30
0.0
 11
4.940418894683408
 21
-8.579176017838499
 31
0.0
210
0.0
220
0.0
230
1.0
 40
0.5780931159156393
 41
5.997951748058068
 42
9.710011519890898
  0
ELLIPSE
  5
1A9
330
6C
100
AcDbEntity
  8
Visible (ISO)
100
AcDbEllipse
 10
146.8925054478306
 20
231.3139703767571
 30
0.0
 11
-5.307721456469334
 21
9.217007221333313
 31
0.0
210
0.0
220
0.0
230
0.9999999999999998
 40
0.5780931159156394
 41
2.675187165329238
 42
6.749590795440149
  0
ELLIPSE
  5
1AA
330
6C
100
AcDbEntity
  8
Visible (ISO)
100
AcDbEllipse
 10
147.5996122290172
 20
231.7211660905494
 30
0.0
 11
5.489354327426011
 21
-9.532417797598331
 31
0.0
210
0.0
220
0.0
230
1.0
 40
0.5780931159156396
 41
6.022375548938791
 42
9.685587719010177
  0
LINE
  5
1AB
330
6C
100
AcDbEntity
  8
Visible (ISO)
100
AcDbLine
 10
140.3903147419893
 20
239.4280562991476
 30
0.0
 11
140.8749133197791
 21
240.1129200732102
 31
0.0
  0
LINE
  5
1AC
330
6C
100
AcDbEntity
  8
Visible (ISO)
100
AcDbLine
 10
150.6467591737992
 20
221.6174527909372
 30
0.0
 11
151.4823383867327
 21
221.6928288450434
 31
0.0
  0
ELLIPSE
  5
1AD
330
6C
100
AcDbEntity
  8
Visible Narrow (ISO)
100
AcDbEllipse
 10
126.3864087934176
 20
219.5052946767812
 30
0.0
 11
4.740806010049735
 21
-8.232542643380378
 31
0.0
210
0.0
220
0.0
230
1.0
 40
0.5780931159156394
 41
0.0000000000000009
 42
3.141592638688632
  0
ELLIPSE
  5
1AE
330
6C
100
AcDbEntity
  8
Visible Narrow (ISO)
100
AcDbEllipse
 10
125.679302012231
 20
219.0980989629889
 30
0.0
 11
-4.241773798465552
 21
7.365959207235072
 31
0.0
210
0.0
220
0.0
230
1.0
 40
0.5780931159156394
 41
0.0
 42
6.283185307179586
  0
SPLINE
  5
1AF
330
6C
100
AcDbEntity
  8
Visible (ISO)
100
AcDbSpline
210
0.0
220
0.0
230
1.0
 70
     8
 71
     3
 72
    26
 73
    22
 74
     0
 42
0.0000000001
 43
0.0000000001
 40
0.7873318718204815
 40
0.7873318718204815
 40
0.7873318718204815
 40
0.7873318718204815
 40
1.054760725786073
 40
1.054760725786073
 40
1.345711457256293
 40
1.345711457256293
 40
1.673820757626332
 40
1.673820757626332
 40
2.011820611153009
 40
2.011820611153009
 40
2.347319945755729
 40
2.347319945755729
 40
2.681325488773242
 40
2.681325488773242
 40
3.01664227628237
 40
3.01664227628237
 40
3.354587732628976
 40
3.354587732628976
 40
3.683917694349863
 40
3.683917694349863
 40
3.928924525410274
 40
3.928924525410274
 40
3.928924525410274
 40
3.928924525410274
 10
131.1272148034674
 20
211.2727520334008
 30
0.0
 10
130.6139967149312
 20
210.97720939196
 30
0.0
 10
130.0329121547265
 20
210.8044828277896
 30
0.0
 10
128.7781467825506
 20
210.7040339038528
 30
0.0
 10
128.1017210966396
 20
210.7953368053291
 30
0.0
 10
126.6741460828152
 20
211.2395066163401
 30
0.0
 10
125.9219564353381
 20
211.6240577188595
 30
0.0
 10
124.4509205152721
 20
212.6470166244827
 30
0.0
 10
123.733676923353
 20
213.2935387215474
 30
0.0
 10
122.4199105827141
 20
214.7670841424087
 30
0.0
 10
121.8229483676607
 20
215.5926765604565
 30
0.0
 10
120.8010198535947
 20
217.3419184102586
 30
0.0
 10
120.3755092665266
 20
218.2647612000975
 30
0.0
 10
119.734905950069
 20
220.12757759072
 30
0.0
 10
119.5205230111026
 20
221.0672132674134
 30
0.0
 10
119.3348423365322
 20
222.883322409981
 30
0.0
 10
119.364798950353
 20
223.7595954815677
 30
0.0
 10
119.697109291676
 20
225.3447262473411
 30
0.0
 10
119.9943312575674
 20
226.0601434429999
 30
0.0
 10
120.7652685933491
 20
227.0953724707465
 30
0.0
 10
121.1754144112063
 20
227.4670738443851
 30
0.0
 10
121.6456027833679
 20
227.7378373201615
 30
0.0
  0
LINE
  5
1B0
330
6C
100
AcDbEntity
  8
Visible (ISO)
100
AcDbLine
 10
151.3504687454056
 20
222.9185494478599
 30
0.0
 11
131.1272148034674
 21
211.2727520334008
 31
0.0
  0
LINE
  5
1B1
330
6C
100
AcDbEntity
  8
Visible (ISO)
100
AcDbLine
 10
141.8688567253061
 20
239.3836347346206
 30
0.0
 11
121.6456027833679
 21
227.7378373201616
 31
0.0
  0
LINE
  5
1B2
330
6C
100
AcDbEntity
  8
Visible (ISO)
100
AcDbLine
 10
155.2102869000032
 20
223.4103354343279
 30
0.0
 11
153.0889665564432
 21
222.1887482929511
 31
0.0
  0
LINE
  5
1B3
330
6C
100
AcDbEntity
  8
Visible (ISO)
100
AcDbLine
 10
144.2315782451512
 20
242.4751710295245
 30
0.0
 11
142.1102579015912
 21
241.2535838881477
 31
0.0
  0
ELLIPSE
  5
1B4
330
6C
100
AcDbEntity
  8
Visible Narrow (ISO)
100
AcDbEllipse
 10
169.8734758364038
 20
303.3039303569012
 30
0.0
 11
0.4990322115844249
 21
0.8665834361452098
 31
0.0
210
0.0
220
0.0
230
1.0
 40
0.5780931159158105
 41
0.0
 42
0.7834644549745633
  0
ELLIPSE
  5
1B5
330
6C
100
AcDbEntity
  8
Visible Narrow (ISO)
100
AcDbEllipse
 10
169.8734758364039
 20
300.0337418575311
 30
0.0
 11
-2.495161057920912
 21
4.332917180726505
 31
0.0
210
0.0
220
0.0
230
1.0
 40
0.5780931159156394
 41
5.499720852205161
 42
6.283185307179573
  0
ELLIPSE
  5
1B6
330
6C
100
AcDbEntity
  8
Visible Narrow (ISO)
100
AcDbEllipse
 10
220.7851640818278
 20
215.122445975186
 30
0.0
 11
0.9999999999999978
 21
-0.0000000000000022
 31
0.0
210
0.0
220
0.0
230
1.0
 40
0.5758617009853119
 41
5.497787143782018
 42
6.283185307179596
  0
ELLIPSE
  5
1B7
330
6C
100
AcDbEntity
  8
Visible Narrow (ISO)
100
AcDbEllipse
 10
217.956736957082
 20
216.7512288303556
 30
0.0
 11
2.495161057920925
 21
-4.332917180726536
 31
0.0
210
0.0
220
0.0
230
1.0
 40
0.5780931159156393
 41
0.0
 42
0.7873318718204772
  0
ELLIPSE
  5
1B8
330
6C
100
AcDbEntity
  8
Visible Narrow (ISO)
100
AcDbEllipse
 10
220.7851640818278
 20
270.7156504644787
 30
0.0
 11
0.9999999999999978
 21
-0.0000000000000022
 31
0.0
210
0.0
220
0.0
230
1.0
 40
0.5758617009853119
 41
5.497787143782018
 42
6.283185307179596
  0
LINE
  5
1B9
330
6C
100
AcDbEntity
  8
Visible Narrow (ISO)
100
AcDbLine
 10
221.4922708630142
 20
270.3084547506863
 30
0.0
 11
221.4922708630142
 21
214.7152502613936
 31
0.0
  0
ELLIPSE
  5
1BA
330
6C
100
AcDbEntity
  8
Visible Narrow (ISO)
100
AcDbEllipse
 10
217.956736957082
 20
275.6146218190184
 30
0.0
 11
0.4990322115844149
 21
0.8665834361452189
 31
0.0
210
0.0
220
0.0
230
0.9999999999999998
 40
0.5780931159158104
 41
0.0
 42
0.783464454974463
  0
ELLIPSE
  5
1BB
330
6C
100
AcDbEntity
  8
Visible Narrow (ISO)
100
AcDbEllipse
 10
217.956736957082
 20
272.3444333196483
 30
0.0
 11
2.49516105792065
 21
-4.332917180726655
 31
0.0
210
0.0
220
0.0
230
1.0
 40
0.5780931159156393
 41
0.7873318718207179
 42
2.358128198615613
  0
LINE
  5
1BC
330
6C
100
AcDbEntity
  8
Visible Narrow (ISO)
100
AcDbLine
 10
169.8734758364039
 20
304.1214774817438
 30
0.0
 11
217.956736957082
 21
276.432168943861
 31
0.0
  0
SPLINE
  5
1BD
330
6C
100
AcDbEntity
  8
Visible (ISO)
100
AcDbSpline
210
0.0
220
0.0
230
1.0
 70
     8
 71
     3
 72
    16
 73
    12
 74
     0
 42
0.0000000001
 43
0.0000000001
 40
4.712388980384689
 40
4.712388980384689
 40
4.712388980384689
 40
4.712388980384689
 40
4.869081871379572
 40
4.869081871379572
 40
5.025774762374455
 40
5.025774762374455
 40
5.182467653369338
 40
5.182467653369338
 40
5.33916054436422
 40
5.33916054436422
 40
5.495853435359105
 40
5.495853435359105
 40
5.495853435359105
 40
5.495853435359105
 10
170.3725080479883
 20
304.1705137930464
 30
0.0
 10
170.1854770773948
 20
304.2782177659093
 30
0.0
 10
169.9938315539388
 20
304.371692844638
 30
0.0
 10
169.602208547644
 20
304.5256782768233
 30
0.0
 10
169.4021666484385
 20
304.5862142319202
 30
0.0
 10
168.995344123935
 20
304.6680597951582
 30
0.0
 10
168.7884355281046
 20
304.6893223982787
 30
0.0
 10
168.3730973801982
 20
304.6845227875075
 30
0.0
 10
168.1646024039887
 20
304.658245397902
 30
0.0
 10
167.7585635800374
 20
304.5520958363628
 30
0.0
 10
167.5612746984699
 20
304.4720186489934
 30
0.0
 10
167.3783147784829
 20
304.3666590382577
 30
0.0
  0
SPLINE
  5
1BE
330
6C
100
AcDbEntity
  8
Visible (ISO)
100
AcDbSpline
210
0.0
220
0.0
230
1.0
 70
     8
 71
     3
 72
    16
 73
    12
 74
     0
 42
0.0000000001
 43
0.0000000001
 40
2.354260781769311
 40
2.354260781769311
 40
2.354260781769311
 40
2.354260781769311
 40
2.511727156133408
 40
2.511727156133408
 40
2.669193530497504
 40
2.669193530497504
 40
2.8266599048616
 40
2.8266599048616
 40
2.984126279225696
 40
2.984126279225696
 40
3.141592653589793
 40
3.141592653589793
 40
3.141592653589793
 40
3.141592653589793
 10
220.4518980150029
 20
212.418311649629
 30
0.0
 10
220.6357610803364
 20
212.5241913471803
 30
0.0
 10
220.8047997895934
 20
212.6554045696754
 30
0.0
 10
221.1014752159788
 20
212.9551435261792
 30
0.0
 10
221.2291642795865
 20
213.1233388684514
 30
0.0
 10
221.4420149192306
 20
213.4823727505355
 30
0.0
 10
221.527400382079
 20
213.6731610643361
 30
0.0
 10
221.6603569825178
 20
214.06846373776
 30
0.0
 10
221.7080336439363
 20
214.2730677436254
 30
0.0
 10
221.7704324964687
 20
214.6915009375014
 30
0.0
 10
221.7851640818278
 20
214.9053995177465
 30
0.0
 10
221.7851640818278
 20
215.122445975186
 30
0.0
  0
LINE
  5
1BF
330
6C
100
AcDbEntity
  8
Visible (ISO)
100
AcDbLine
 10
221.7851640818278
 20
215.122445975186
 30
0.0
 11
221.7851640818278
 21
270.7156504644787
 31
0.0
  0
SPLINE
  5
1C0
330
6C
100
AcDbEntity
  8
Visible (ISO)
100
AcDbSpline
210
0.0
220
0.0
230
1.0
 70
     8
 71
     3
 72
    16
 73
    12
 74
     0
 42
0.0000000001
 43
0.0000000001
 40
3.141592653589793
 40
3.141592653589793
 40
3.141592653589793
 40
3.141592653589793
 40
3.455751918948772
 40
3.455751918948772
 40
3.769911184307751
 40
3.769911184307751
 40
4.084070449666731
 40
4.084070449666731
 40
4.39822971502571
 40
4.39822971502571
 40
4.712388980384689
 40
4.712388980384689
 40
4.712388980384689
 40
4.712388980384689
 10
221.7851640818278
 20
270.7156504644787
 30
0.0
 10
221.7851640818278
 20
271.1486772353897
 30
0.0
 10
221.7267064437656
 20
271.5944974186468
 30
0.0
 10
221.5106966084506
 20
272.4875332792123
 30
0.0
 10
221.3528530302624
 20
272.9346966793433
 30
0.0
 10
220.9531116322078
 20
273.8010224440623
 30
0.0
 10
220.7112031341972
 20
274.2200264215642
 30
0.0
 10
220.1609201658496
 20
274.9991611636239
 30
0.0
 10
219.8526895615434
 20
275.3592236137711
 30
0.0
 10
219.1875116639351
 20
275.9921599264189
 30
0.0
 10
218.8307543511335
 20
276.2652656501438
 30
0.0
 10
218.4557691686664
 20
276.4812052551636
 30
0.0
  0
LINE
  5
1C1
330
6C
100
AcDbEntity
  8
Visible (ISO)
100
AcDbLine
 10
218.4557691686664
 20
276.4812052551636
 30
0.0
 11
170.3725080479883
 21
304.1705137930464
 31
0.0
  0
LINE
  5
1C2
330
6C
100
AcDbEntity
  8
Visible Narrow (ISO)
100
AcDbLine
 10
221.4922708630142
 20
270.3084547506863
 30
0.0
 11
213.2191215231304
 21
265.5442648993167
 31
0.0
  0
LINE
  5
1C3
330
6C
100
AcDbEntity
  8
Visible Narrow (ISO)
100
AcDbLine
 10
221.4922708630142
 20
214.7152502613936
 30
0.0
 11
213.2191215231304
 21
209.951060410024
 31
0.0
  0
LINE
  5
1C4
330
6C
100
AcDbEntity
  8
Visible Narrow (ISO)
100
AcDbLine
 10
217.956736957082
 20
276.432168943861
 30
0.0
 11
209.6835876171982
 21
271.6679790924914
 31
0.0
  0
LINE
  5
1C5
330
6C
100
AcDbEntity
  8
Visible Narrow (ISO)
100
AcDbLine
 10
169.8734758364039
 20
304.1214774817438
 30
0.0
 11
161.60032649652
 21
299.3572876303742
 31
0.0
  0
LINE
  5
1C6
330
6C
100
AcDbEntity
  8
Visible (ISO)
100
AcDbLine
 10
167.3783147784829
 20
304.3666590382577
 30
0.0
 11
159.1051654385991
 21
299.602469186888
 31
0.0
  0
LINE
  5
1C7
330
6C
100
AcDbEntity
  8
Visible (ISO)
100
AcDbLine
 10
220.4518980150029
 20
212.418311649629
 30
0.0
 11
212.1787486751191
 21
207.6541217982594
 31
0.0
  0
LINE
  5
1C8
330
6C
100
AcDbEntity
  8
Visible (ISO)
100
AcDbLine
 10
213.2191215231304
 20
209.951060410024
 30
0.0
 11
213.2191215231304
 21
265.5442648993167
 31
0.0
  0
ELLIPSE
  5
1C9
330
6C
100
AcDbEntity
  8
Visible (ISO)
100
AcDbEllipse
 10
209.6835876171982
 20
267.5802434682787
 30
0.0
 11
-2.49516105792117
 21
4.332917180726359
 31
0.0
210
0.0
220
0.0
230
1.0
 40
0.5780931159156394
 41
3.928924525410037
 42
5.499720852204935
  0
LINE
  5
1CA
330
6C
100
AcDbEntity
  8
Visible (ISO)
100
AcDbLine
 10
209.6835876171982
 20
271.6679790924914
 30
0.0
 11
161.60032649652
 21
299.3572876303742
 31
0.0
  0
ELLIPSE
  5
1CB
330
6C
100
AcDbEntity
  8
Visible (ISO)
100
AcDbEllipse
 10
161.60032649652
 20
295.2695520061615
 30
0.0
 11
-2.495161057920921
 21
4.332917180726528
 31
0.0
210
0.0
220
0.0
230
1.0
 40
0.5780931159156394
 41
5.499720852205171
 42
6.367976078797181
  0
ELLIPSE
  5
1CC
330
6C
100
AcDbEntity
  8
Visible (ISO)
100
AcDbEllipse
 10
212.4413040638332
 20
269.0610130453009
 30
0.0
 11
-16.21854687648594
 21
28.16396167472234
 31
0.0
210
0.0
220
0.0
230
1.0
 40
0.5780931159156394
 41
3.141592653589792
 42
6.283185307179586
  0
LINE
  5
1CD
330
6C
100
AcDbEntity
  8
Visible Narrow (ISO)
100
AcDbLine
 10
213.2191215231304
 20
265.5442648993167
 30
0.0
 11
212.7948574544185
 21
265.5442648993168
 31
0.0
  0
LINE
  5
1CE
330
6C
100
AcDbEntity
  8
Visible Narrow (ISO)
100
AcDbLine
 10
212.7948574544185
 20
209.951060410024
 30
0.0
 11
213.2191215231304
 21
209.951060410024
 31
0.0
  0
ELLIPSE
  5
1CF
330
6C
100
AcDbEntity
  8
Visible (ISO)
100
AcDbEllipse
 10
209.6835876171982
 20
211.987038978986
 30
0.0
 11
2.495161057920919
 21
-4.332917180726524
 31
0.0
210
0.0
220
0.0
230
1.0
 40
0.5780931159156394
 41
6.198394535561989
 42
7.070517179000057
  0
LINE
  5
1D0
330
6C
100
AcDbEntity
  8
Visible Narrow (ISO)
100
AcDbLine
 10
161.3886046641769
 20
298.9905752683323
 30
0.0
 11
161.60032649652
 21
299.3572876303742
 31
0.0
  0
LINE
  5
1D1
330
6C
100
AcDbEntity
  8
Visible Narrow (ISO)
100
AcDbLine
 10
209.4714680098314
 20
271.3005777650419
 30
0.0
 11
209.6835876171982
 21
271.6679790924914
 31
0.0
  0
ELLIPSE
  5
1D2
330
6C
100
AcDbEntity
  8
Visible (ISO)
100
AcDbEllipse
 10
209.4714555828422
 20
267.458084754141
 30
0.0
 11
2.34545139444542
 21
-4.072942149883071
 31
0.0
210
0.0
220
0.0
230
0.9999999999999998
 40
0.5780931159156394
 41
0.7873318718207214
 42
2.354260781769857
  0
ELLIPSE
  5
1D3
330
6C
100
AcDbEntity
  8
Visible (ISO)
100
AcDbEllipse
 10
212.6534360981892
 20
269.1831717594386
 30
0.0
 11
-16.06883721301235
 21
27.90398664387778
 31
0.0
210
0.0
220
0.0
230
1.0
 40
0.5780931159156396
 41
3.928924525409733
 42
5.495853435359171
  0
LINE
  5
1D4
330
6C
100
AcDbEntity
  8
Visible (ISO)
100
AcDbLine
 10
235.4222744523927
 20
256.0714697753155
 30
0.0
 11
235.4222744523926
 21
255.82715234704
 31
0.0
  0
LINE
  5
1D5
330
6C
100
AcDbEntity
  8
Visible (ISO)
100
AcDbLine
 10
212.7414924676898
 20
295.4572840183921
 30
0.0
 11
212.5301808342919
 21
295.5799151700211
 31
0.0
  0
LINE
  5
1D6
330
6C
100
AcDbEntity
  8
Visible (ISO)
100
AcDbLine
 10
228.6598509403192
 20
240.8970513705785
 30
0.0
 11
221.7851640818278
 21
236.9381825025075
 31
0.0
  0
LINE
  5
1D7
330
6C
100
AcDbEntity
  8
Visible (ISO)
100
AcDbLine
 10
196.2227571873473
 20
297.2249747200232
 30
0.0
 11
189.328194349013
 21
293.2546600363912
 31
0.0
  0
ELLIPSE
  5
1D8
330
6C
100
AcDbEntity
  8
Visible Narrow (ISO)
100
AcDbEllipse
 10
175.9405897963409
 20
299.9696164005929
 30
0.0
 11
-2.495161057920913
 21
4.332917180726514
 31
0.0
210
0.0
220
0.0
230
1.0
 40
0.5780931159156394
 41
4.174667530664409
 42
6.283185307179585
  0
SPLINE
  5
1D9
330
6C
100
AcDbEntity
  8
Visible (ISO)
100
AcDbSpline
210
0.0
220
0.0
230
1.0
 70
     8
 71
     3
 72
    20
 73
    16
 74
     0
 42
0.0000000001
 43
0.0000000001
 40
4.872844408089768
 40
4.872844408089768
 40
4.872844408089768
 40
4.872844408089768
 40
5.141385691682571
 40
5.141385691682571
 40
5.479303440392285
 40
5.479303440392285
 40
5.815451470346068
 40
5.815451470346068
 40
6.153056279305294
 40
6.153056279305294
 40
6.493572669761392
 40
6.493572669761392
 40
6.823542747414373
 40
6.823542747414373
 40
7.066649762154001
 40
7.066649762154001
 40
7.066649762154001
 40
7.066649762154001
 10
179.6069224330114
 20
298.8527682176822
 30
0.0
 10
179.5572690016244
 20
299.2360713631919
 30
0.0
 10
179.4672116986526
 20
299.6289479609515
 30
0.0
 10
179.1822140962597
 20
300.5134542841818
 30
0.0
 10
178.9660264416893
 20
301.0042694738916
 30
0.0
 10
178.4426813596687
 20
301.9335205231815
 30
0.0
 10
178.1361112495132
 20
302.3720222168435
 30
0.0
 10
177.4579748327719
 20
303.1585739916109
 30
0.0
 10
177.0863587518229
 20
303.5061901358003
 30
0.0
 10
176.3046551159935
 20
304.0746216630075
 30
0.0
 10
175.8942588119621
 20
304.2948021843153
 30
0.0
 10
175.0752802751151
 20
304.564214259029
 30
0.0
 10
174.6649468244303
 20
304.6184240874088
 30
0.0
 10
173.9787667077685
 20
304.5376246922314
 30
0.0
 10
173.6969369421621
 20
304.4473675233382
 30
0.0
 10
173.4454287384199
 20
304.3025335813195
 30
0.0
  0
LINE
  5
1DA
330
6C
100
AcDbEntity
  8
Visible (ISO)
100
AcDbLine
 10
173.4454287384199
 20
304.3025335813195
 30
0.0
 11
171.7943403600777
 21
303.3517350192905
 31
0.0
  0
ELLIPSE
  5
1DB
330
6C
100
AcDbEntity
  8
Visible Narrow (ISO)
100
AcDbEllipse
 10
220.9405897963342
 20
222.0274594238348
 30
0.0
 11
2.495161057920654
 21
-4.332917180726665
 31
0.0
210
0.0
220
0.0
230
1.0
 40
0.5780931159156394
 41
0.0
 42
2.11691417130587
  0
SPLINE
  5
1DC
330
6C
100
AcDbEntity
  8
Visible (ISO)
100
AcDbSpline
210
0.0
220
0.0
230
1.0
 70
     8
 71
     3
 72
    20
 73
    16
 74
     0
 42
0.0000000001
 43
0.0000000001
 40
0.783464454974415
 40
0.783464454974415
 40
0.783464454974415
 40
0.783464454974415
 40
1.045399918823056
 40
1.045399918823056
 40
1.331563661580275
 40
1.331563661580275
 40
1.659239661821237
 40
1.659239661821237
 40
1.999793038092779
 40
1.999793038092779
 40
2.337710786802493
 40
2.337710786802493
 40
2.673858816756276
 40
2.673858816756276
 40
2.985933766687734
 40
2.985933766687734
 40
2.985933766687734
 40
2.985933766687734
 10
223.4357508542551
 20
217.6945422431083
 30
0.0
 10
223.7067381726568
 20
217.8505934612285
 30
0.0
 10
223.9402999356368
 20
218.0689302561448
 30
0.0
 10
224.3217839811313
 20
218.610036305683
 30
0.0
 10
224.4613416852805
 20
218.9390130950014
 30
0.0
 10
224.6443692114898
 20
219.701227551667
 30
0.0
 10
224.6719212343309
 20
220.1438561991674
 30
0.0
 10
224.6029231339819
 20
221.083222531139
 30
0.0
 10
224.5010528530579
 20
221.5817630302332
 30
0.0
 10
224.182214096253
 20
222.5712973074236
 30
0.0
 10
223.9660264416826
 20
223.0621124971334
 30
0.0
 10
223.442681359662
 20
223.9913635464234
 30
0.0
 10
223.1361112495065
 20
224.4298652400854
 30
0.0
 10
222.4836707944311
 20
225.1866129757927
 30
0.0
 10
222.1423619353398
 20
225.5112247289681
 30
0.0
 10
221.7851640818278
 20
225.7817307114327
 30
0.0
  0
LINE
  5
1DD
330
6C
100
AcDbEntity
  8
Visible (ISO)
100
AcDbLine
 10
223.4357508542551
 20
217.6945422431083
 30
0.0
 11
221.7851640818278
 21
216.7440325367147
 31
0.0
  0
ELLIPSE
  5
1DE
330
6C
100
AcDbEntity
  8
Visible Narrow (ISO)
100
AcDbEllipse
 10
220.9405897963342
 20
274.05583985625
 30
0.0
 11
-2.495161057920914
 21
4.332917180726513
 31
0.0
210
0.0
220
0.0
230
1.0
 40
0.5780931159156393
 41
3.141592653589789
 42
6.283185307179582
  0
SPLINE
  5
1DF
330
6C
100
AcDbEntity
  8
Visible (ISO)
100
AcDbSpline
210
0.0
220
0.0
230
1.0
 70
     8
 71
     3
 72
    26
 73
    22
 74
     0
 42
0.0000000001
 43
0.0000000001
 40
5.495853435359104
 40
5.495853435359104
 40
5.495853435359104
 40
5.495853435359104
 40
5.757788899207746
 40
5.757788899207746
 40
6.043952641964964
 40
6.043952641964964
 40
6.371628642205927
 40
6.371628642205927
 40
6.712182018477468
 40
6.712182018477468
 40
7.050099767187182
 40
7.050099767187182
 40
7.386247797140965
 40
7.386247797140965
 40
7.723852606100192
 40
7.723852606100192
 40
8.064368996556289
 40
8.064368996556289
 40
8.39433907420927
 40
8.39433907420927
 40
8.637446088948898
 40
8.637446088948898
 40
8.637446088948898
 40
8.637446088948898
 10
223.4357508542551
 20
269.7229226755236
 30
0.0
 10
223.7067381726569
 20
269.8789738936438
 30
0.0
 10
223.9402999356369
 20
270.09731068856
 30
0.0
 10
224.3217839811314
 20
270.6384167380983
 30
0.0
 10
224.4613416852805
 20
270.9673935274166
 30
0.0
 10
224.6443692114898
 20
271.7296079840822
 30
0.0
 10
224.671921234331
 20
272.1722366315826
 30
0.0
 10
224.6029231339819
 20
273.1116029635543
 30
0.0
 10
224.501052853058
 20
273.6101434626483
 30
0.0
 10
224.182214096253
 20
274.5996777398389
 30
0.0
 10
223.9660264416826
 20
275.0904929295487
 30
0.0
 10
223.442681359662
 20
276.0197439788386
 30
0.0
 10
223.1361112495065
 20
276.4582456725006
 30
0.0
 10
222.4579748327653
 20
277.2447974472681
 30
0.0
 10
222.0863587518162
 20
277.5924135914574
 30
0.0
 10
221.3046551159868
 20
278.1608451186646
 30
0.0
 10
220.8942588119555
 20
278.3810256399724
 30
0.0
 10
220.0752802751084
 20
278.6504377146861
 30
0.0
 10
219.6649468244237
 20
278.7046475430658
 30
0.0
 10
218.9787667077619
 20
278.6238481478885
 30
0.0
 10
218.6969369421555
 20
278.5335909789953
 30
0.0
 10
218.4454287384133
 20
278.3887570369766
 30
0.0
  0
LINE
  5
1E0
330
6C
100
AcDbEntity
  8
Visible (ISO)
100
AcDbLine
 10
223.4357508542551
 20
269.7229226755236
 30
0.0
 11
221.7851640818278
 21
268.77241296913
 31
0.0
  0
LINE
  5
1E1
330
6C
100
AcDbEntity
  8
Visible (ISO)
100
AcDbLine
 10
218.4454287384133
 20
278.3887570369766
 30
0.0
 11
216.7943403600711
 21
277.4379584749476
 31
0.0
  0
ELLIPSE
  5
1E2
330
6C
100
AcDbEntity
  8
Visible (ISO)
100
AcDbEllipse
 10
224.3206979877691
 20
275.9019010370112
 30
0.0
 11
-21.0591593288524
 21
36.56982100533158
 31
0.0
210
0.0
220
0.0
230
1.0
 40
0.5780931159156394
 41
4.631727939280399
 42
4.796917438335046
  0
LINE
  5
1E3
330
6C
100
AcDbEntity
  8
Visible (ISO)
100
AcDbLine
 10
189.8845977439857
 20
293.575071441854
 30
0.0
 11
189.8845977439857
 21
304.5945862124556
 31
0.0
  0
LINE
  5
1E4
330
6C
100
AcDbEntity
  8
Visible (ISO)
100
AcDbLine
 10
231.9407376201723
 20
231.7513360776398
 30
0.0
 11
222.3593986821449
 21
237.2688622162106
 31
0.0
  0
ELLIPSE
  5
1E5
330
6C
100
AcDbEntity
  8
Visible (ISO)
100
AcDbEllipse
 10
212.6534360981892
 20
269.1831717594386
 30
0.0
 11
21.05915932885249
 21
-36.56982100533175
 31
0.0
210
0.0
220
0.0
230
1.0
 40
0.5780931159156394
 41
6.202524266075299
 42
6.367713765129942
  0
LINE
  5
1E6
330
6C
100
AcDbEntity
  8
Visible (ISO)
100
AcDbLine
 10
235.4222744523927
 20
278.3711822442253
 30
0.0
 11
235.4222744523927
 21
256.0714697753155
 31
0.0
  0
LINE
  5
1E7
330
6C
100
AcDbEntity
  8
Visible (ISO)
100
AcDbLine
 10
235.4222744523927
 20
255.82715234704
 30
0.0
 11
235.4222744523927
 21
233.7717573064216
 31
0.0
  0
ELLIPSE
  5
1E8
330
6C
100
AcDbEntity
  8
Visible (ISO)
100
AcDbEllipse
 10
212.6534360981893
 20
269.1831717594386
 30
0.0
 11
21.0591593288524
 21
-36.56982100533161
 31
0.0
210
0.0
220
0.0
230
1.0
 40
0.5780931159156393
 41
1.490135285690606
 42
1.655324784745252
  0
LINE
  5
1E9
330
6C
100
AcDbEntity
  8
Visible (ISO)
100
AcDbLine
 10
193.3661345762062
 20
306.6150074412374
 30
0.0
 11
212.2473094340885
 21
295.742061970973
 31
0.0
  0
LINE
  5
1EA
330
6C
100
AcDbEntity
  8
Visible (ISO)
100
AcDbLine
 10
212.6974644475739
 20
295.4828349392002
 30
0.0
 11
231.9407376201723
 21
284.4013709174993
 31
0.0
  0
ELLIPSE
  5
1EB
330
6C
100
AcDbEntity
  8
Visible (ISO)
100
AcDbEllipse
 10
212.6534360981892
 20
269.1831717594386
 30
0.0
 11
-21.05915932885249
 21
36.56982100533175
 31
0.0
210
0.0
220
0.0
230
1.0
 40
0.5780931159156394
 41
6.202524266075297
 42
6.36771376512994
  0
SPLINE
  5
1EC
330
6C
100
AcDbEntity
  8
Visible (ISO)
100
AcDbSpline
210
0.0
220
0.0
230
1.0
 70
    24
 71
     3
 72
     8
 73
     4
 74
     0
 42
0.0000000001
 43
0.0000000001
 40
-0.0438231200332123
 40
-0.0438231200332123
 40
-0.0438231200332123
 40
-0.0438231200332123
 40
0.0
 40
0.0
 40
0.0
 40
0.0
 10
189.8845977439857
 20
304.5945862124556
 30
0.0
 10
189.8845977439858
 20
304.7059835323048
 30
0.0
 10
189.8845977439858
 20
304.8173360333837
 30
0.0
 10
189.8845977439858
 20
304.9286412768166
 30
0.0
  0
SPLINE
  5
1ED
330
6C
100
AcDbEntity
  8
Visible (ISO)
100
AcDbSpline
210
0.0
220
0.0
230
1.0
 70
     8
 71
     3
 72
     8
 73
     4
 74
     0
 42
0.0000000001
 43
0.0000000001
 40
-0.0438231200331159
 40
-0.0438231200331159
 40
-0.0438231200331159
 40
-0.0438231200331159
 40
0.0
 40
0.0
 40
0.0
 40
0.0
 10
193.3661345762062
 20
306.6150074412374
 30
0.0
 10
193.4109156110481
 20
306.7523922941223
 30
0.0
 10
193.4557551667731
 20
306.8897662893407
 30
0.0
 10
193.500651401511
 20
307.0271259191344
 30
0.0
  0
ELLIPSE
  5
1EE
330
6C
100
AcDbEntity
  8
Visible (ISO)
100
AcDbEllipse
 10
212.8655681325455
 20
269.3053304735757
 30
0.0
 11
-21.20886899232805
 21
36.82979603617588
 31
0.0
210
0.0
220
0.0
230
1.0
 40
0.5780931159156396
 41
6.199932407739462
 42
6.370305623465774
  0
SPLINE
  5
1EF
330
6C
100
AcDbEntity
  8
Visible (ISO)
100
AcDbSpline
210
0.0
220
0.0
230
1.0
 70
     8
 71
     3
 72
     8
 73
     4
 74
     0
 42
0.0000000001
 43
0.0000000001
 40
-0.0438231200310444
 40
-0.0438231200310444
 40
-0.0438231200310444
 40
-0.0438231200310444
 40
0.0
 40
0.0
 40
0.0
 40
0.0
 10
231.9407376201723
 20
284.4013709174993
 30
0.0
 10
232.0373594664428
 20
284.5089026325382
 30
0.0
 10
232.1339425865992
 20
284.6164794907322
 30
0.0
 10
232.2304848635794
 20
284.7240981427832
 30
0.0
  0
LINE
  5
1F0
330
6C
100
AcDbEntity
  8
Visible (ISO)
100
AcDbLine
 10
232.2304848635794
 20
284.7240981427832
 30
0.0
 11
193.500651401511
 21
307.0271259191344
 31
0.0
  0
SPLINE
  5
1F1
330
6C
100
AcDbEntity
  8
Visible (ISO)
100
AcDbSpline
210
0.0
220
0.0
230
1.0
 70
     8
 71
     3
 72
     8
 73
     4
 74
     0
 42
0.0000000001
 43
0.0000000001
 40
-0.0438231200309521
 40
-0.0438231200309521
 40
-0.0438231200309521
 40
-0.0438231200309521
 40
0.0
 40
0.0
 40
0.0
 40
0.0
 10
235.4222744523927
 20
278.3711822442254
 30
0.0
 10
235.5636773335064
 20
278.4011510604352
 30
0.0
 10
235.705100009389
 20
278.4310636588252
 30
0.0
 10
235.8465385211046
 20
278.460919880311
 30
0.0
  0
ELLIPSE
  5
1F2
330
6C
100
AcDbEntity
  8
Visible (ISO)
100
AcDbEllipse
 10
212.8655681325449
 20
269.3053304735761
 30
0.0
 11
-21.20886899232807
 21
36.82979603617591
 31
0.0
210
0.0
220
0.0
230
1.0
 40
0.5780931159156397
 41
4.629136080944567
 42
4.799509296670879
  0
SPLINE
  5
1F3
330
6C
100
AcDbEntity
  8
Visible (ISO)
100
AcDbSpline
210
0.0
220
0.0
230
1.0
 70
     8
 71
     3
 72
     8
 73
     4
 74
     0
 42
0.0000000001
 43
0.0000000001
 40
-0.0438231200332123
 40
-0.0438231200332123
 40
-0.0438231200332123
 40
-0.0438231200332123
 40
0.0
 40
0.0
 40
0.0
 40
0.0
 10
235.4222744523927
 20
233.7717573064216
 30
0.0
 10
235.5636773335028
 20
233.7417884902126
 30
0.0
 10
235.7051000093817
 20
233.7118758918232
 30
0.0
 10
235.8465385211046
 20
233.6820196703359
 30
0.0
  0
LINE
  5
1F4
330
6C
100
AcDbEntity
  8
Visible (ISO)
100
AcDbLine
 10
235.8465385211046
 20
233.6820196703359
 30
0.0
 11
235.8465385211046
 21
278.460919880311
 31
0.0
  0
SPLINE
  5
1F5
330
6C
100
AcDbEntity
  8
Visible (ISO)
100
AcDbSpline
210
0.0
220
0.0
230
1.0
 70
     8
 71
     3
 72
     8
 73
     4
 74
     0
 42
0.0000000001
 43
0.0000000001
 40
-0.0438231200331159
 40
-0.0438231200331159
 40
-0.0438231200331159
 40
-0.0438231200331159
 40
0.0
 40
0.0
 40
0.0
 40
0.0
 10
231.9407376201723
 20
231.7513360776398
 30
0.0
 10
232.0373594664405
 20
231.6953797283952
 30
0.0
 10
232.1339425865946
 20
231.6394456358664
 30
0.0
 10
232.2304848635794
 20
231.5835350280181
 30
0.0
  0
ELLIPSE
  5
1F6
330
6C
100
AcDbEntity
  8
Visible (ISO)
100
AcDbEllipse
 10
212.865568132545
 20
269.3053304735768
 30
0.0
 11
21.20886899232805
 21
-36.82979603617588
 31
0.0
210
0.0
220
0.0
230
1.0
 40
0.5780931159156396
 41
6.199932407739462
 42
6.370305623465773
  0
LINE
  5
1F7
330
6C
100
AcDbEntity
  8
Visible (ISO)
100
AcDbLine
 10
222.3585766886214
 20
237.268388861622
 30
0.0
 11
232.2304848635794
 21
231.5835350280181
 31
0.0
  0
ELLIPSE
  5
1F8
330
6C
100
AcDbEntity
  8
Visible (ISO)
100
AcDbEllipse
 10
224.1085659534123
 20
275.7797423228746
 30
0.0
 11
21.20886899232843
 21
-36.82979603617653
 31
0.0
210
0.0
220
0.0
230
1.0
 40
0.5780931159156393
 41
0.0
 42
0.0871203162861889
  0
SPLINE
  5
1F9
330
6C
100
AcDbEntity
  8
Visible (ISO)
100
AcDbSpline
210
0.0
220
0.0
230
1.0
 70
    24
 71
     3
 72
     8
 73
     4
 74
     0
 42
0.0000000001
 43
0.0000000001
 40
-0.0438231200337178
 40
-0.0438231200337178
 40
-0.0438231200337178
 40
-0.0438231200337178
 40
0.0
 40
0.0
 40
0.0
 40
0.0
 10
247.0895363419725
 20
285.0899115217979
 30
0.0
 10
247.0895363419724
 20
285.0384518343669
 30
0.0
 10
247.0895363419724
 20
284.986924530067
 30
0.0
 10
247.0895363419724
 20
284.9353317296082
 30
0.0
  0
LINE
  5
1FA
330
6C
100
AcDbEntity
  8
Visible (ISO)
100
AcDbLine
 10
247.0895363419724
 20
284.9353317296082
 30
0.0
 11
247.0895363419724
 21
240.156431519633
 31
0.0
  0
SPLINE
  5
1FB
330
6C
100
AcDbEntity
  8
Visible (ISO)
100
AcDbSpline
210
0.0
220
0.0
230
1.0
 70
     8
 71
     3
 72
     8
 73
     4
 74
     0
 42
0.0000000001
 43
0.0000000001
 40
-0.0438231200328689
 40
-0.0438231200328689
 40
-0.0438231200328689
 40
-0.0438231200328689
 40
0.0
 40
0.0
 40
0.0
 40
0.0
 10
243.6079995097521
 20
291.1201001950718
 30
0.0
 10
243.56321847491
 20
291.146203406468
 30
0.0
 10
243.5183789191848
 20
291.1723403619697
 30
0.0
 10
243.4734826844472
 20
291.1985099920804
 30
0.0
  0
ELLIPSE
  5
1FC
330
6C
100
AcDbEntity
  8
Visible (ISO)
100
AcDbEllipse
 10
224.1085659534127
 20
275.7797423228733
 30
0.0
 11
21.20886899232805
 21
-36.82979603617587
 31
0.0
210
0.0
220
0.0
230
1.0
 40
0.5780931159156394
 41
1.487543427354774
 42
1.657916643081085
  0
LINE
  5
1FD
330
6C
100
AcDbEntity
  8
Visible (ISO)
100
AcDbLine
 10
204.7436492223788
 20
313.5015377684315
 30
0.0
 11
243.4734826844472
 21
291.1985099920804
 31
0.0
  0
ELLIPSE
  5
1FE
330
6C
100
AcDbEntity
  8
Visible (ISO)
100
AcDbEllipse
 10
224.1085659534142
 20
275.7797423228713
 30
0.0
 11
-21.20886899232894
 21
36.8297960361775
 31
0.0
210
0.0
220
0.0
230
1.0
 40
0.5780931159156393
 41
6.199932407739474
 42
6.283185307179594
  0
LINE
  5
1FF
330
6C
100
AcDbEntity
  8
Visible (ISO)
100
AcDbLine
 10
247.0895363419724
 20
240.156431519633
 30
0.0
 11
235.8465385211046
 21
233.6820196703359
 31
0.0
  0
LINE
  5
200
330
6C
100
AcDbEntity
  8
Visible (ISO)
100
AcDbLine
 10
247.0895363419724
 20
284.9353317296082
 30
0.0
 11
235.8465385211046
 21
278.460919880311
 31
0.0
  0
LINE
  5
201
330
6C
100
AcDbEntity
  8
Visible (ISO)
100
AcDbLine
 10
243.4734826844472
 20
291.1985099920804
 30
0.0
 11
232.2304848635794
 21
284.7240981427832
 31
0.0
  0
LINE
  5
202
330
6C
100
AcDbEntity
  8
Visible (ISO)
100
AcDbLine
 10
204.7436492223788
 20
313.5015377684315
 30
0.0
 11
193.500651401511
 21
307.0271259191344
 31
0.0
  0
LINE
  5
203
330
6C
100
AcDbEntity
  8
Visible (ISO)
100
AcDbLine
 10
245.3174349457408
 20
238.949946286698
 30
0.0
 11
234.074437124873
 21
232.4755344374009
 31
0.0
  0
LINE
  5
204
330
6C
100
AcDbEntity
  8
Visible (ISO)
100
AcDbLine
 10
202.8996969610852
 20
312.6095383590488
 30
0.0
 11
191.6566991402174
 21
306.1351265097516
 31
0.0
  0
ELLIPSE
  5
205
330
6C
100
AcDbEntity
  8
Visible (ISO)
100
AcDbEllipse
 10
224.67425137836
 20
294.535021872701
 30
0.0
 11
-3.863999999999999
 21
0.0000000000002309
 31
0.0
210
0.0
220
0.0
230
1.0
 40
0.5758617009853117
 41
0.0
 42
6.283185307179586
  0
ELLIPSE
  5
206
330
6C
100
AcDbEntity
  8
Visible (ISO)
100
AcDbEllipse
 10
224.67425137836
 20
293.7178736486506
 30
0.0
 11
-4.832765247622278
 21
0.0000000000000014
 31
0.0
210
0.0
220
0.0
230
1.0
 40
0.5758617009853118
 41
5.531721013547661
 42
10.1762422544013
  0
LINE
  5
207
330
6C
100
AcDbEntity
  8
Visible (ISO)
100
AcDbLine
 10
227.4976374050813
 20
296.0541388560449
 30
0.0
 11
228.2055044504514
 21
295.6178570244728
 31
0.0
  0
LINE
  5
208
330
6C
100
AcDbEntity
  8
Visible (ISO)
100
AcDbLine
 10
221.8508653516387
 20
296.0541388560449
 30
0.0
 11
221.1429983062686
 21
295.6178570244728
 31
0.0
  0
LINE
  5
209
330
6C
100
AcDbEntity
  8
Visible (ISO)
100
AcDbLine
 10
221.8858636992339
 20
294.1047689756475
 30
0.0
 11
222.633009926041
 21
295.7104946475554
 31
0.0
  0
LINE
  5
20A
330
6C
100
AcDbEntity
  8
Visible (ISO)
100
AcDbLine
 10
222.633009926041
 20
295.7104946475554
 30
0.0
 11
225.4213976051671
 21
296.1407475446089
 31
0.0
  0
LINE
  5
20B
330
6C
100
AcDbEntity
  8
Visible (ISO)
100
AcDbLine
 10
225.4213976051671
 20
296.1407475446089
 30
0.0
 11
227.4626390574862
 21
294.9652747697545
 31
0.0
  0
LINE
  5
20C
330
6C
100
AcDbEntity
  8
Visible (ISO)
100
AcDbLine
 10
227.4626390574862
 20
294.9652747697545
 30
0.0
 11
226.7154928306791
 21
293.3595490978465
 31
0.0
  0
LINE
  5
20D
330
6C
100
AcDbEntity
  8
Visible (ISO)
100
AcDbLine
 10
226.7154928306791
 20
293.3595490978465
 30
0.0
 11
223.9271051515529
 21
292.929296200793
 31
0.0
  0
LINE
  5
20E
330
6C
100
AcDbEntity
  8
Visible (ISO)
100
AcDbLine
 10
223.9271051515529
 20
292.929296200793
 30
0.0
 11
221.8858636992339
 21
294.1047689756475
 31
0.0
  0
LINE
  5
20F
330
6C
100
AcDbEntity
  8
Visible (ISO)
100
AcDbLine
 10
222.633009926041
 20
293.6745160785935
 30
0.0
 11
222.633009926041
 21
295.7104946475554
 31
0.0
  0
SPLINE
  5
210
330
6C
100
AcDbEntity
  8
Visible (ISO)
100
AcDbSpline
210
0.0
220
0.0
230
1.0
 70
    12
 71
     2
 72
     6
 73
     3
 74
     0
 42
0.0000000001
 43
0.0000000001
 40
0.0
 40
0.0
 40
0.0
 40
0.058103514446059
 40
0.058103514446059
 40
0.058103514446059
 10
225.4213976051671
 20
293.27933260766
 30
0.0
 41
1.0
 10
225.1107360434584
 20
293.1554927885684
 30
0.0
 41
1.030771540432901
 10
224.8273118483151
 20
293.0681996044081
 30
0.0
 41
1.049301524236021
  0
LINE
  5
211
330
6C
100
AcDbEntity
  8
Visible (ISO)
100
AcDbLine
 10
225.4213976051671
 20
293.27933260766
 30
0.0
 11
225.4213976051671
 21
296.1407475446089
 31
0.0
  0
SPLINE
  5
212
330
6C
100
AcDbEntity
  8
Visible (ISO)
100
AcDbSpline
210
0.0
220
0.0
230
1.0
 70
    12
 71
     2
 72
     6
 73
     3
 74
     0
 42
0.0000000001
 43
0.0000000001
 40
0.2777031406804476
 40
0.2777031406804476
 40
0.2777031406804476
 40
0.2921090345194801
 40
0.2921090345194801
 40
0.2921090345194801
 10
225.5352193609982
 20
293.1774309212934
 30
0.0
 41
1.014506172702379
 10
225.4790779923832
 20
293.2268651479021
 30
0.0
 41
1.007629341339608
 10
225.4213976051671
 20
293.27933260766
 30
0.0
 41
1.0
  0
LINE
  5
213
330
6C
100
AcDbEntity
  8
Visible (ISO)
100
AcDbLine
 10
219.8426722998942
 20
293.6562160237526
 30
0.0
 11
219.8426570559663
 21
293.6566147312697
 31
0.0
  0
LINE
  5
214
330
6C
100
AcDbEntity
  8
Visible (ISO)
100
AcDbLine
 10
229.5058304568258
 20
293.6562160237526
 30
0.0
 11
229.5058457007538
 21
293.6566147312697
 31
0.0
  0
CIRCLE
  5
215
330
6C
100
AcDbEntity
  8
Visible Narrow (ISO)
100
AcDbCircle
 10
174.9999999999891
 20
123.75
 30
0.0
 40
17.29289321881345
  0
CIRCLE
  5
216
330
6C
100
AcDbEntity
  8
Visible Narrow (ISO)
100
AcDbCircle
 10
174.9999999999891
 20
123.75
 30
0.0
 40
17.64644660940673
  0
CIRCLE
  5
217
330
6C
100
AcDbEntity
  8
Visible Narrow (ISO)
100
AcDbCircle
 10
174.9999999999894
 20
123.75
 30
0.0
 40
18.70710678118656
  0
CIRCLE
  5
218
330
6C
100
AcDbEntity
  8
Visible Narrow (ISO)
100
AcDbCircle
 10
174.9999999999895
 20
123.75
 30
0.0
 40
19.4142135623731
  0
CIRCLE
  5
219
330
6C
100
AcDbEntity
  8
Visible (ISO)
100
AcDbCircle
 10
174.9999999999891
 20
123.75
 30
0.0
 40
16.57735026918962
  0
CIRCLE
  5
21A
330
6C
100
AcDbEntity
  8
Visible (ISO)
100
AcDbCircle
 10
174.9999999999894
 20
123.75
 30
0.0
 40
16.0
  0
CIRCLE
  5
21B
330
6C
100
AcDbEntity
  8
Visible Narrow (ISO)
100
AcDbCircle
 10
174.9999999999895
 20
123.75
 30
0.0
 40
29.0
  0
CIRCLE
  5
21C
330
6C
100
AcDbEntity
  8
Visible (ISO)
100
AcDbCircle
 10
174.9999999999901
 20
123.75
 30
0.0
 40
31.00000000000001
  0
CIRCLE
  5
21D
330
6C
100
AcDbEntity
  8
Visible (ISO)
100
AcDbCircle
 10
143.1801948465995
 20
155.5698051533946
 30
0.0
 40
2.458499999999999
  0
CIRCLE
  5
21E
330
6C
100
AcDbEntity
  8
Visible (ISO)
100
AcDbCircle
 10
143.1801948465995
 20
91.93019484660537
 30
0.0
 40
2.458499999999999
  0
CIRCLE
  5
21F
330
6C
100
AcDbEntity
  8
Visible (ISO)
100
AcDbCircle
 10
206.8198051533888
 20
91.93019484660537
 30
0.0
 40
2.458499999999999
  0
CIRCLE
  5
220
330
6C
100
AcDbEntity
  8
Visible Narrow (ISO)
100
AcDbCircle
 10
143.1801948465995
 20
155.5698051533946
 30
0.0
 40
3.0
  0
CIRCLE
  5
221
330
6C
100
AcDbEntity
  8
Visible Narrow (ISO)
100
AcDbCircle
 10
143.1801948465995
 20
91.93019484660537
 30
0.0
 40
3.0
  0
CIRCLE
  5
222
330
6C
100
AcDbEntity
  8
Visible Narrow (ISO)
100
AcDbCircle
 10
206.8198051533888
 20
91.93019484660537
 30
0.0
 40
3.0
  0
CIRCLE
  5
223
330
6C
100
AcDbEntity
  8
Visible (ISO)
100
AcDbCircle
 10
206.8198051533888
 20
155.5698051533946
 30
0.0
 40
2.458499999999999
  0
CIRCLE
  5
224
330
6C
100
AcDbEntity
  8
Visible Narrow (ISO)
100
AcDbCircle
 10
174.9999999999932
 20
123.75
 30
0.0
 40
33.00000000000001
  0
CIRCLE
  5
225
330
6C
100
AcDbEntity
  8
Visible (ISO)
100
AcDbCircle
 10
174.9999999999932
 20
123.75
 30
0.0
 40
34.5
  0
CIRCLE
  5
226
330
6C
100
AcDbEntity
  8
Visible (ISO)
100
AcDbCircle
 10
174.9999999999934
 20
123.75
 30
0.0
 40
35.0
  0
CIRCLE
  5
227
330
6C
100
AcDbEntity
  8
Visible Narrow (ISO)
100
AcDbCircle
 10
174.9999999999941
 20
123.75
 30
0.0
 40
35.40000000000001
  0
LINE
  5
228
330
6C
100
AcDbEntity
  8
Visible (ISO)
100
AcDbLine
 10
140.9999999999941
 20
162.25
 30
0.0
 11
208.9999999999941
 21
162.25
 31
0.0
  0
ARC
  5
229
330
6C
100
AcDbEntity
  8
Visible (ISO)
100
AcDbCircle
 10
140.9999999999941
 20
157.75
 30
0.0
 40
4.499999999999997
100
AcDbArc
 50
89.99999999999971
 51
180.0
  0
LINE
  5
22A
330
6C
100
AcDbEntity
  8
Visible (ISO)
100
AcDbLine
 10
136.4999999999941
 20
89.74999999999999
 30
0.0
 11
136.4999999999941
 21
157.75
 31
0.0
  0
ARC
  5
22B
330
6C
100
AcDbEntity
  8
Visible (ISO)
100
AcDbCircle
 10
140.9999999999941
 20
89.74999999999999
 30
0.0
 40
4.499999999999997
100
AcDbArc
 50
180.0
 51
270.0
  0
LINE
  5
22C
330
6C
100
AcDbEntity
  8
Visible (ISO)
100
AcDbLine
 10
208.9999999999941
 20
85.25
 30
0.0
 11
140.9999999999941
 21
85.25
 31
0.0
  0
ARC
  5
22D
330
6C
100
AcDbEntity
  8
Visible (ISO)
100
AcDbCircle
 10
208.9999999999941
 20
89.74999999999999
 30
0.0
 40
4.499999999999997
100
AcDbArc
 50
270.0
 51
0.0
  0
LINE
  5
22E
330
6C
100
AcDbEntity
  8
Visible (ISO)
100
AcDbLine
 10
213.4999999999942
 20
157.75
 30
0.0
 11
213.4999999999942
 21
89.74999999999999
 31
0.0
  0
ARC
  5
22F
330
6C
100
AcDbEntity
  8
Visible (ISO)
100
AcDbCircle
 10
208.9999999999941
 20
157.75
 30
0.0
 40
4.499999999999997
100
AcDbArc
 50
0.0
 51
90.0
  0
LINE
  5
230
330
6C
100
AcDbEntity
  8
Visible Narrow (ISO)
100
AcDbLine
 10
140.9999999999943
 20
162.75
 30
0.0
 11
140.9999999999941
 21
162.25
 31
0.0
  0
LINE
  5
231
330
6C
100
AcDbEntity
  8
Visible Narrow (ISO)
100
AcDbLine
 10
208.9999999999941
 20
162.25
 30
0.0
 11
208.9999999999943
 21
162.75
 31
0.0
  0
LINE
  5
232
330
6C
100
AcDbEntity
  8
Visible (ISO)
100
AcDbLine
 10
208.9999999999943
 20
162.75
 30
0.0
 11
140.9999999999943
 21
162.75
 31
0.0
  0
LINE
  5
233
330
6C
100
AcDbEntity
  8
Visible Narrow (ISO)
100
AcDbLine
 10
213.4999999999942
 20
157.75
 30
0.0
 11
213.9999999999943
 21
157.75
 31
0.0
  0
ARC
  5
234
330
6C
100
AcDbEntity
  8
Visible (ISO)
100
AcDbCircle
 10
208.9999999999943
 20
157.75
 30
0.0
 40
4.999999999999991
100
AcDbArc
 50
0.0
 51
90.00000000000047
  0
LINE
  5
235
330
6C
100
AcDbEntity
  8
Visible Narrow (ISO)
100
AcDbLine
 10
213.4999999999942
 20
89.74999999999999
 30
0.0
 11
213.9999999999943
 21
89.74999999999999
 31
0.0
  0
LINE
  5
236
330
6C
100
AcDbEntity
  8
Visible (ISO)
100
AcDbLine
 10
213.9999999999943
 20
89.74999999999999
 30
0.0
 11
213.9999999999943
 21
157.75
 31
0.0
  0
LINE
  5
237
330
6C
100
AcDbEntity
  8
Visible Narrow (ISO)
100
AcDbLine
 10
208.9999999999941
 20
85.25
 30
0.0
 11
208.9999999999943
 21
84.74999999999999
 31
0.0
  0
ARC
  5
238
330
6C
100
AcDbEntity
  8
Visible (ISO)
100
AcDbCircle
 10
208.9999999999943
 20
89.74999999999999
 30
0.0
 40
4.999999999999991
100
AcDbArc
 50
270.0
 51
0.0
  0
LINE
  5
239
330
6C
100
AcDbEntity
  8
Visible Narrow (ISO)
100
AcDbLine
 10
140.9999999999941
 20
85.25
 30
0.0
 11
140.9999999999943
 21
84.74999999999999
 31
0.0
  0
LINE
  5
23A
330
6C
100
AcDbEntity
  8
Visible (ISO)
100
AcDbLine
 10
140.9999999999943
 20
84.74999999999999
 30
0.0
 11
208.9999999999943
 21
84.74999999999999
 31
0.0
  0
LINE
  5
23B
330
6C
100
AcDbEntity
  8
Visible Narrow (ISO)
100
AcDbLine
 10
136.4999999999941
 20
89.74999999999999
 30
0.0
 11
135.9999999999943
 21
89.74999999999999
 31
0.0
  0
ARC
  5
23C
330
6C
100
AcDbEntity
  8
Visible (ISO)
100
AcDbCircle
 10
140.9999999999943
 20
89.74999999999999
 30
0.0
 40
4.999999999999991
100
AcDbArc
 50
180.0
 51
270.0000000000002
  0
LINE
  5
23D
330
6C
100
AcDbEntity
  8
Visible Narrow (ISO)
100
AcDbLine
 10
136.4999999999941
 20
157.75
 30
0.0
 11
135.9999999999943
 21
157.75
 31
0.0
  0
LINE
  5
23E
330
6C
100
AcDbEntity
  8
Visible (ISO)
100
AcDbLine
 10
135.9999999999943
 20
157.75
 30
0.0
 11
135.9999999999943
 21
89.74999999999999
 31
0.0
  0
ARC
  5
23F
330
6C
100
AcDbEntity
  8
Visible (ISO)
100
AcDbCircle
 10
140.9999999999943
 20
157.75
 30
0.0
 40
4.999999999999991
100
AcDbArc
 50
90.0
 51
180.0
  0
CIRCLE
  5
240
330
6C
100
AcDbEntity
  8
Visible Narrow (ISO)
100
AcDbCircle
 10
206.8198051533888
 20
155.5698051533946
 30
0.0
 40
3.0
  0
CIRCLE
  5
241
330
6C
100
AcDbEntity
  8
Visible (ISO)
100
AcDbCircle
 10
174.9999999999891
 20
123.75
 30
0.0
 40
11.57735026918963
  0
CIRCLE
  5
242
330
6C
100
AcDbEntity
  8
Visible (ISO)
100
AcDbCircle
 10
174.9999999999891
 20
123.75
 30
0.0
 40
15.42264973081037
  0
CIRCLE
  5
243
330
6C
100
AcDbEntity
  8
Visible (ISO)
100
AcDbCircle
 10
174.9999999999894
 20
123.75
 30
0.0
 40
16.0
  0
CIRCLE
  5
244
330
6C
100
AcDbEntity
  8
Visible (ISO)
100
AcDbCircle
 10
174.9999999999793
 20
123.75
 30
0.0
 40
3.749999999999999
  0
CIRCLE
  5
245
330
6C
100
AcDbEntity
  8
Visible (ISO)
100
AcDbCircle
 10
174.9999999999799
 20
123.75
 30
0.0
 40
2.458499999999999
  0
CIRCLE
  5
246
330
6C
100
AcDbEntity
  8
Visible Narrow (ISO)
100
AcDbCircle
 10
174.9999999999882
 20
123.75
 30
0.0
 40
9.900000000000002
  0
CIRCLE
  5
247
330
6C
100
AcDbEntity
  8
Visible (ISO)
100
AcDbCircle
 10
174.9999999999882
 20
123.75
 30
0.0
 40
10.6360297657338
  0
CIRCLE
  5
248
330
6C
100
AcDbEntity
  8
Visible (ISO)
100
AcDbCircle
 10
174.9999999999885
 20
123.75
 30
0.0
 40
11.0
  0
CIRCLE
  5
249
330
6C
100
AcDbEntity
  8
Visible (ISO)
100
AcDbCircle
 10
174.9999999999796
 20
123.75
 30
0.0
 40
9.500000000000001
  0
CIRCLE
  5
24A
330
6C
100
AcDbEntity
  8
Visible Narrow (ISO)
100
AcDbCircle
 10
174.9999999999793
 20
123.75
 30
0.0
 40
8.500000000000001
  0
CIRCLE
  5
24B
330
6C
100
AcDbEntity
  8
Visible Narrow (ISO)
100
AcDbCircle
 10
174.9999999999797
 20
123.75
 30
0.0
 40
3.0
  0
LINE
  5
24C
330
6C
100
AcDbEntity
  8
Visible (ISO)
100
AcDbLine
 10
313.25
 20
230.2071067811866
 30
0.0
 11
313.25
 21
264.7928932188134
 31
0.0
  0
LINE
  5
24D
330
6C
100
AcDbEntity
  8
Visible Narrow (ISO)
100
AcDbLine
 10
313.3964466094067
 20
265.1464466094067
 30
0.0
 11
313.3964466094067
 21
229.8535533905933
 31
0.0
  0
ARC
  5
24E
330
6C
100
AcDbEntity
  8
Visible (ISO)
100
AcDbCircle
 10
313.75
 20
230.2071067811866
 30
0.0
 40
0.5000000000000001
100
AcDbArc
 50
180.0
 51
225.0
  0
ARC
  5
24F
330
6C
100
AcDbEntity
  8
Visible (ISO)
100
AcDbCircle
 10
313.75
 20
264.7928932188134
 30
0.0
 40
0.5000000000000001
100
AcDbArc
 50
135.0
 51
180.0
  0
LINE
  5
250
330
6C
100
AcDbEntity
  8
Visible Narrow (ISO)
100
AcDbLine
 10
314.4571067811865
 20
228.7928932188135
 30
0.0
 11
314.4571067811865
 21
266.2071067811865
 31
0.0
  0
ARC
  5
251
330
6C
100
AcDbEntity
  8
Visible (ISO)
100
AcDbCircle
 10
313.75
 20
228.0857864376269
 30
0.0
 40
1.0
100
AcDbArc
 50
0.0
 51
44.99999999999999
  0
ARC
  5
252
330
6C
100
AcDbEntity
  8
Visible (ISO)
100
AcDbCircle
 10
313.75
 20
266.9142135623731
 30
0.0
 40
1.0
100
AcDbArc
 50
315.0
 51
0.0
  0
LINE
  5
253
330
6C
100
AcDbEntity
  8
Visible (ISO)
100
AcDbLine
 10
314.75
 20
218.5
 30
0.0
 11
314.75
 21
276.5
 31
0.0
  0
LINE
  5
254
330
6C
100
AcDbEntity
  8
Visible Narrow (ISO)
100
AcDbLine
 10
316.75
 20
278.5
 30
0.0
 11
316.75
 21
216.5
 31
0.0
  0
ARC
  5
255
330
6C
100
AcDbEntity
  8
Visible (ISO)
100
AcDbCircle
 10
316.75
 20
218.5
 30
0.0
 40
2.0
100
AcDbArc
 50
180.0
 51
270.0
  0
ARC
  5
256
330
6C
100
AcDbEntity
  8
Visible (ISO)
100
AcDbCircle
 10
316.75
 20
276.5
 30
0.0
 40
2.0
100
AcDbArc
 50
90.0
 51
180.0
  0
LINE
  5
257
330
6C
100
AcDbEntity
  8
Visible Narrow (ISO)
100
AcDbLine
 10
325.25
 20
216.5
 30
0.0
 11
325.25
 21
278.5
 31
0.0
  0
ARC
  5
258
330
6C
100
AcDbEntity
  8
Visible (ISO)
100
AcDbCircle
 10
325.25
 20
214.5
 30
0.0
 40
2.0
100
AcDbArc
 50
0.0
 51
90.0
  0
ARC
  5
259
330
6C
100
AcDbEntity
  8
Visible (ISO)
100
AcDbCircle
 10
325.25
 20
280.5
 30
0.0
 40
2.0
100
AcDbArc
 50
270.0
 51
0.0
  0
LINE
  5
25A
330
6C
100
AcDbEntity
  8
Visible (ISO)
100
AcDbLine
 10
327.25
 20
213.0
 30
0.0
 11
327.25
 21
282.0
 31
0.0
  0
LINE
  5
25B
330
6C
100
AcDbEntity
  8
Visible (ISO)
100
AcDbLine
 10
327.75
 20
282.5
 30
0.0
 11
327.75
 21
212.5
 31
0.0
  0
LINE
  5
25C
330
6C
100
AcDbEntity
  8
Visible (ISO)
100
AcDbLine
 10
327.25
 20
282.0
 30
0.0
 11
327.75
 21
282.5
 31
0.0
  0
LINE
  5
25D
330
6C
100
AcDbEntity
  8
Visible (ISO)
100
AcDbLine
 10
327.25
 20
213.0
 30
0.0
 11
327.75
 21
212.5
 31
0.0
  0
LINE
  5
25E
330
6C
100
AcDbEntity
  8
Visible Narrow (ISO)
100
AcDbLine
 10
329.85
 20
212.5
 30
0.0
 11
329.85
 21
282.5
 31
0.0
  0
ARC
  5
25F
330
6C
100
AcDbEntity
  8
Visible (ISO)
100
AcDbCircle
 10
329.85
 20
212.1
 30
0.0
 40
0.4000000000000001
100
AcDbArc
 50
0.0
 51
90.0
  0
ARC
  5
260
330
6C
100
AcDbEntity
  8
Visible (ISO)
100
AcDbCircle
 10
329.85
 20
282.9
 30
0.0
 40
0.4000000000000001
100
AcDbArc
 50
270.0
 51
0.0
  0
LINE
  5
261
330
6C
100
AcDbEntity
  8
Visible (ISO)
100
AcDbLine
 10
330.25
 20
281.5000000000114
 30
0.0
 11
330.25
 21
213.5000000000114
 31
0.0
  0
LINE
  5
262
330
6C
100
AcDbEntity
  8
Visible (ISO)
100
AcDbLine
 10
330.25
 20
281.5000000000114
 30
0.0
 11
330.25
 21
286.0000000000101
 31
0.0
  0
LINE
  5
263
330
6C
100
AcDbEntity
  8
Visible (ISO)
100
AcDbLine
 10
330.25
 20
209.0000000000101
 30
0.0
 11
330.25
 21
213.5000000000114
 31
0.0
  0
LINE
  5
264
330
6C
100
AcDbEntity
  8
Visible Narrow (ISO)
100
AcDbLine
 10
330.75
 20
281.5000000000116
 30
0.0
 11
330.25
 21
281.5000000000114
 31
0.0
  0
LINE
  5
265
330
6C
100
AcDbEntity
  8
Visible Narrow (ISO)
100
AcDbLine
 10
330.25
 20
213.5000000000114
 30
0.0
 11
330.75
 21
213.5000000000116
 31
0.0
  0
LINE
  5
266
330
6C
100
AcDbEntity
  8
Visible (ISO)
100
AcDbLine
 10
330.75
 20
213.5000000000116
 30
0.0
 11
330.75
 21
281.5000000000116
 31
0.0
  0
LINE
  5
267
330
6C
100
AcDbEntity
  8
Visible (ISO)
100
AcDbLine
 10
330.25
 20
209.0000000000101
 30
0.0
 11
330.75
 21
208.5000000000101
 31
0.0
  0
LINE
  5
268
330
6C
100
AcDbEntity
  8
Visible (ISO)
100
AcDbLine
 10
330.75
 20
213.5000000000116
 30
0.0
 11
330.75
 21
208.5000000000101
 31
0.0
  0
LINE
  5
269
330
6C
100
AcDbEntity
  8
Visible (ISO)
100
AcDbLine
 10
330.25
 20
286.0000000000101
 30
0.0
 11
330.75
 21
286.5000000000101
 31
0.0
  0
LINE
  5
26A
330
6C
100
AcDbEntity
  8
Visible (ISO)
100
AcDbLine
 10
330.75
 20
286.5000000000101
 30
0.0
 11
330.75
 21
281.5000000000116
 31
0.0
  0
LINE
  5
26B
330
6C
100
AcDbEntity
  8
Visible (ISO)
100
AcDbLine
 10
364.45
 20
286.5000000000101
 30
0.0
 11
330.75
 21
286.5000000000101
 31
0.0
  0
LINE
  5
26C
330
6C
100
AcDbEntity
  8
Visible Narrow (ISO)
100
AcDbLine
 10
364.45
 20
281.5000000000116
 30
0.0
 11
330.75
 21
281.5000000000116
 31
0.0
  0
LINE
  5
26D
330
6C
100
AcDbEntity
  8
Visible Narrow (ISO)
100
AcDbLine
 10
364.45
 20
213.5000000000116
 30
0.0
 11
330.75
 21
213.5000000000116
 31
0.0
  0
LINE
  5
26E
330
6C
100
AcDbEntity
  8
Visible (ISO)
100
AcDbLine
 10
364.45
 20
208.5000000000101
 30
0.0
 11
330.75
 21
208.5000000000101
 31
0.0
  0
LINE
  5
26F
330
6C
100
AcDbEntity
  8
Visible (ISO)
100
AcDbLine
 10
364.45
 20
281.5000000000117
 30
0.0
 11
364.45
 21
286.5000000000101
 31
0.0
  0
LINE
  5
270
330
6C
100
AcDbEntity
  8
Visible (ISO)
100
AcDbLine
 10
364.45
 20
281.5000000000116
 30
0.0
 11
364.45
 21
213.5000000000116
 31
0.0
  0
LINE
  5
271
330
6C
100
AcDbEntity
  8
Visible Narrow (ISO)
100
AcDbLine
 10
364.45
 20
213.5000000000116
 30
0.0
 11
364.75
 21
213.5000000000115
 31
0.0
  0
LINE
  5
272
330
6C
100
AcDbEntity
  8
Visible (ISO)
100
AcDbLine
 10
364.75
 20
213.5000000000115
 30
0.0
 11
364.75
 21
281.5000000000115
 31
0.0
  0
LINE
  5
273
330
6C
100
AcDbEntity
  8
Visible Narrow (ISO)
100
AcDbLine
 10
364.75
 20
281.5000000000115
 30
0.0
 11
364.45
 21
281.5000000000116
 31
0.0
  0
LINE
  5
274
330
6C
100
AcDbEntity
  8
Visible (ISO)
100
AcDbLine
 10
364.75
 20
286.2000000000101
 30
0.0
 11
364.45
 21
286.5000000000101
 31
0.0
  0
LINE
  5
275
330
6C
100
AcDbEntity
  8
Visible (ISO)
100
AcDbLine
 10
364.75
 20
286.2000000000102
 30
0.0
 11
364.75
 21
281.5000000000115
 31
0.0
  0
LINE
  5
276
330
6C
100
AcDbEntity
  8
Visible (ISO)
100
AcDbLine
 10
364.75
 20
208.8000000000101
 30
0.0
 11
364.45
 21
208.5000000000101
 31
0.0
  0
LINE
  5
277
330
6C
100
AcDbEntity
  8
Visible (ISO)
100
AcDbLine
 10
364.45
 20
208.5000000000101
 30
0.0
 11
364.45
 21
213.5000000000116
 31
0.0
  0
LINE
  5
278
330
6C
100
AcDbEntity
  8
Visible (ISO)
100
AcDbLine
 10
364.75
 20
213.5000000000115
 30
0.0
 11
364.75
 21
208.8000000000101
 31
0.0
  0
LINE
  5
279
330
6C
100
AcDbEntity
  8
Visible (ISO)
100
AcDbLine
 10
313.3964466094067
 20
265.1464466094067
 30
0.0
 11
314.4571067811865
 21
266.2071067811865
 31
0.0
  0
LINE
  5
27A
330
6C
100
AcDbEntity
  8
Visible (ISO)
100
AcDbLine
 10
313.3964466094067
 20
229.8535533905933
 30
0.0
 11
314.4571067811865
 21
228.7928932188135
 31
0.0
  0
LINE
  5
27B
330
6C
100
AcDbEntity
  8
Visible (ISO)
100
AcDbLine
 10
325.25
 20
216.5
 30
0.0
 11
316.75
 21
216.5
 31
0.0
  0
LINE
  5
27C
330
6C
100
AcDbEntity
  8
Visible (ISO)
100
AcDbLine
 10
325.25
 20
278.5
 30
0.0
 11
316.75
 21
278.5
 31
0.0
  0
LINE
  5
27D
330
6C
100
AcDbEntity
  8
Visible (ISO)
100
AcDbLine
 10
329.85
 20
212.5
 30
0.0
 11
327.75
 21
212.5
 31
0.0
  0
LINE
  5
27E
330
6C
100
AcDbEntity
  8
Visible (ISO)
100
AcDbLine
 10
329.85
 20
282.5
 30
0.0
 11
327.75
 21
282.5
 31
0.0
  0
LINE
  5
27F
330
6C
100
AcDbEntity
  8
Visible Narrow (ISO)
100
AcDbLine
 10
309.85
 20
238.0
 30
0.0
 11
309.85
 21
257.0
 31
0.0
  0
ARC
  5
280
330
6C
100
AcDbEntity
  8
Visible (ISO)
100
AcDbCircle
 10
309.85
 20
237.6
 30
0.0
 40
0.4000000000000001
100
AcDbArc
 50
0.0
 51
90.0
  0
ARC
  5
281
330
6C
100
AcDbEntity
  8
Visible (ISO)
100
AcDbCircle
 10
309.85
 20
257.4
 30
0.0
 40
0.4000000000000001
100
AcDbArc
 50
270.0
 51
0.0
  0
LINE
  5
282
330
6C
100
AcDbEntity
  8
Visible (ISO)
100
AcDbLine
 10
310.25
 20
236.8639702342662
 30
0.0
 11
310.25
 21
258.1360297657338
 31
0.0
  0
LINE
  5
283
330
6C
100
AcDbEntity
  8
Visible (ISO)
100
AcDbLine
 10
311.25
 20
258.5
 30
0.0
 11
311.25
 21
236.5
 31
0.0
  0
LINE
  5
284
330
6C
100
AcDbEntity
  8
Visible (ISO)
100
AcDbLine
 10
310.25
 20
258.1360297657338
 30
0.0
 11
311.25
 21
258.5
 31
0.0
  0
LINE
  5
285
330
6C
100
AcDbEntity
  8
Visible (ISO)
100
AcDbLine
 10
310.25
 20
236.8639702342662
 30
0.0
 11
311.25
 21
236.5
 31
0.0
  0
LINE
  5
286
330
6C
100
AcDbEntity
  8
Visible Narrow (ISO)
100
AcDbLine
 10
281.25
 20
257.0
 30
0.0
 11
281.25
 21
238.0
 31
0.0
  0
LINE
  5
287
330
6C
100
AcDbEntity
  8
Visible (ISO)
100
AcDbLine
 10
280.25
 20
239.0
 30
0.0
 11
280.25
 21
256.0
 31
0.0
  0
ARC
  5
288
330
6C
100
AcDbEntity
  8
Visible (ISO)
100
AcDbCircle
 10
281.25
 20
239.0
 30
0.0
 40
1.0
100
AcDbArc
 50
180.0
 51
270.0
  0
ARC
  5
289
330
6C
100
AcDbEntity
  8
Visible (ISO)
100
AcDbCircle
 10
281.25
 20
256.0
 30
0.0
 40
1.0
100
AcDbArc
 50
90.0
 51
180.0
  0
LINE
  5
28A
330
6C
100
AcDbEntity
  8
Visible (ISO)
100
AcDbLine
 10
309.85
 20
238.0
 30
0.0
 11
281.25
 21
238.0
 31
0.0
  0
LINE
  5
28B
330
6C
100
AcDbEntity
  8
Visible (ISO)
100
AcDbLine
 10
309.85
 20
257.0
 30
0.0
 11
281.25
 21
257.0
 31
0.0
  0
LINE
  5
28C
330
6C
100
AcDbEntity
  8
Visible (ISO)
100
AcDbLine
 10
313.25
 20
236.5
 30
0.0
 11
311.25
 21
236.5
 31
0.0
  0
LINE
  5
28D
330
6C
100
AcDbEntity
  8
Visible (ISO)
100
AcDbLine
 10
313.25
 20
258.5
 30
0.0
 11
311.25
 21
258.5
 31
0.0
  0
LINE
  5
28E
330
6C
100
AcDbEntity
  8
Visible Narrow (ISO)
100
AcDbLine
 10
377.75
 20
281.5000000000113
 30
0.0
 11
376.75
 21
281.5000000000117
 31
0.0
  0
LINE
  5
28F
330
6C
100
AcDbEntity
  8
Visible (ISO)
100
AcDbLine
 10
377.75
 20
285.5000000000101
 30
0.0
 11
377.75
 21
281.5000000000113
 31
0.0
  0
ARC
  5
290
330
6C
100
AcDbEntity
  8
Visible (ISO)
100
AcDbCircle
 10
376.75
 20
285.5000000000101
 30
0.0
 40
1.000000000000005
100
AcDbArc
 50
0.0
 51
89.99999999999745
  0
LINE
  5
291
330
6C
100
AcDbEntity
  8
Visible Narrow (ISO)
100
AcDbLine
 10
376.75
 20
281.5000000000116
 30
0.0
 11
376.75
 21
286.5000000000101
 31
0.0
  0
ARC
  5
292
330
6C
100
AcDbEntity
  8
Visible (ISO)
100
AcDbCircle
 10
376.75
 20
209.5000000000101
 30
0.0
 40
1.000000000000009
100
AcDbArc
 50
270.0000000000025
 51
0.0
  0
LINE
  5
293
330
6C
100
AcDbEntity
  8
Visible Narrow (ISO)
100
AcDbLine
 10
376.75
 20
213.5000000000116
 30
0.0
 11
377.75
 21
213.5000000000113
 31
0.0
  0
LINE
  5
294
330
6C
100
AcDbEntity
  8
Visible Narrow (ISO)
100
AcDbLine
 10
376.75
 20
208.5000000000101
 30
0.0
 11
376.75
 21
213.5000000000115
 31
0.0
  0
LINE
  5
295
330
6C
100
AcDbEntity
  8
Visible (ISO)
100
AcDbLine
 10
377.75
 20
213.5000000000113
 30
0.0
 11
377.75
 21
209.5000000000101
 31
0.0
  0
LINE
  5
296
330
6C
100
AcDbEntity
  8
Visible Narrow (ISO)
100
AcDbLine
 10
376.75
 20
281.5000000000116
 30
0.0
 11
376.75
 21
213.5000000000116
 31
0.0
  0
LINE
  5
297
330
6C
100
AcDbEntity
  8
Visible (ISO)
100
AcDbLine
 10
377.75
 20
213.5000000000113
 30
0.0
 11
377.75
 21
281.5000000000113
 31
0.0
  0
LINE
  5
298
330
6C
100
AcDbEntity
  8
Visible (ISO)
100
AcDbLine
 10
376.75
 20
208.5000000000101
 30
0.0
 11
365.05
 21
208.5000000000101
 31
0.0
  0
LINE
  5
299
330
6C
100
AcDbEntity
  8
Visible Narrow (ISO)
100
AcDbLine
 10
376.75
 20
213.5000000000116
 30
0.0
 11
365.05
 21
213.5000000000116
 31
0.0
  0
LINE
  5
29A
330
6C
100
AcDbEntity
  8
Visible Narrow (ISO)
100
AcDbLine
 10
376.75
 20
281.5000000000116
 30
0.0
 11
365.05
 21
281.5000000000116
 31
0.0
  0
LINE
  5
29B
330
6C
100
AcDbEntity
  8
Visible (ISO)
100
AcDbLine
 10
376.75
 20
286.5000000000101
 30
0.0
 11
365.05
 21
286.5000000000101
 31
0.0
  0
LINE
  5
29C
330
6C
100
AcDbEntity
  8
Visible (ISO)
100
AcDbLine
 10
365.05
 20
213.5000000000115
 30
0.0
 11
365.05
 21
208.5000000000101
 31
0.0
  0
LINE
  5
29D
330
6C
100
AcDbEntity
  8
Visible (ISO)
100
AcDbLine
 10
365.05
 20
213.5000000000116
 30
0.0
 11
365.05
 21
281.5000000000116
 31
0.0
  0
LINE
  5
29E
330
6C
100
AcDbEntity
  8
Visible (ISO)
100
AcDbLine
 10
365.05
 20
286.5000000000101
 30
0.0
 11
365.05
 21
281.5000000000116
 31
0.0
  0
LINE
  5
29F
330
6C
100
AcDbEntity
  8
Visible (ISO)
100
AcDbLine
 10
402.9499999999999
 20
215.0
 30
0.0
 11
402.9499999999999
 21
280.0
 31
0.0
  0
LINE
  5
2A0
330
6C
100
AcDbEntity
  8
Visible (ISO)
100
AcDbLine
 10
365.05
 20
208.5000000000101
 30
0.0
 11
364.75
 21
208.8000000000101
 31
0.0
  0
LINE
  5
2A1
330
6C
100
AcDbEntity
  8
Visible (ISO)
100
AcDbLine
 10
364.75
 20
286.2000000000102
 30
0.0
 11
365.05
 21
286.5000000000101
 31
0.0
  0
LINE
  5
2A2
330
6C
100
AcDbEntity
  8
Visible Narrow (ISO)
100
AcDbLine
 10
364.75
 20
281.5000000000115
 30
0.0
 11
365.05
 21
281.5000000000116
 31
0.0
  0
LINE
  5
2A3
330
6C
100
AcDbEntity
  8
Visible (ISO)
100
AcDbLine
 10
364.75
 20
281.5000000000115
 30
0.0
 11
364.75
 21
286.2000000000102
 31
0.0
  0
LINE
  5
2A4
330
6C
100
AcDbEntity
  8
Visible Narrow (ISO)
100
AcDbLine
 10
364.75
 20
213.5000000000115
 30
0.0
 11
365.05
 21
213.5000000000116
 31
0.0
  0
LINE
  5
2A5
330
6C
100
AcDbEntity
  8
Visible (ISO)
100
AcDbLine
 10
364.75
 20
281.5000000000115
 30
0.0
 11
364.75
 21
213.5000000000115
 31
0.0
  0
LINE
  5
2A6
330
6C
100
AcDbEntity
  8
Visible (ISO)
100
AcDbLine
 10
364.75
 20
208.80000000001
 30
0.0
 11
364.75
 21
213.5000000000115
 31
0.0
  0
LINE
  5
2A7
330
6C
100
AcDbEntity
  8
Visible (ISO)
100
AcDbLine
 10
403.2499999999999
 20
215.3
 30
0.0
 11
402.9499999999999
 21
215.0
 31
0.0
  0
LINE
  5
2A8
330
6C
100
AcDbEntity
  8
Visible (ISO)
100
AcDbLine
 10
403.2499999999999
 20
279.7
 30
0.0
 11
402.9499999999999
 21
280.0
 31
0.0
  0
LINE
  5
2A9
330
6C
100
AcDbEntity
  8
Visible Narrow (ISO)
100
AcDbLine
 10
379.75
 20
274.3198051534001
 30
0.0
 11
379.75
 21
220.6801948466108
 31
0.0
  0
LINE
  5
2AA
330
6C
100
AcDbEntity
  8
Visible (ISO)
100
AcDbLine
 10
402.9499999999999
 20
215.0
 30
0.0
 11
383.75
 21
215.0
 31
0.0
  0
LINE
  5
2AB
330
6C
100
AcDbEntity
  8
Visible (ISO)
100
AcDbLine
 10
402.9499999999999
 20
280.0
 30
0.0
 11
383.75
 21
280.0
 31
0.0
  0
LINE
  5
2AC
330
6C
100
AcDbEntity
  8
Visible (ISO)
100
AcDbLine
 10
383.75
 20
283.7198051534041
 30
0.0
 11
383.75
 21
274.9198051534041
 31
0.0
  0
LINE
  5
2AD
330
6C
100
AcDbEntity
  8
Visible Narrow (ISO)
100
AcDbLine
 10
383.15
 20
274.3198051534041
 30
0.0
 11
383.15
 21
284.3198051534041
 31
0.0
  0
ARC
  5
2AE
330
6C
100
AcDbEntity
  8
Visible (ISO)
100
AcDbCircle
 10
383.15
 20
283.7198051534041
 30
0.0
 40
0.6
100
AcDbArc
 50
0.0
 51
90.0
  0
ARC
  5
2AF
330
6C
100
AcDbEntity
  8
Visible (ISO)
100
AcDbCircle
 10
383.15
 20
274.9198051534041
 30
0.0
 40
0.6
100
AcDbArc
 50
270.0
 51
0.0
  0
LINE
  5
2B0
330
6C
100
AcDbEntity
  8
Visible (ISO)
100
AcDbLine
 10
383.15
 20
274.3198051534041
 30
0.0
 11
377.75
 21
274.3198051534041
 31
0.0
  0
LINE
  5
2B1
330
6C
100
AcDbEntity
  8
Visible (ISO)
100
AcDbLine
 10
383.15
 20
284.3198051534041
 30
0.0
 11
377.75
 21
284.3198051534041
 31
0.0
  0
LINE
  5
2B2
330
6C
100
AcDbEntity
  8
Visible (ISO)
100
AcDbLine
 10
383.75
 20
220.0801948466148
 30
0.0
 11
383.75
 21
211.2801948466148
 31
0.0
  0
LINE
  5
2B3
330
6C
100
AcDbEntity
  8
Visible Narrow (ISO)
100
AcDbLine
 10
383.15
 20
210.6801948466148
 30
0.0
 11
383.15
 21
220.6801948466148
 31
0.0
  0
ARC
  5
2B4
330
6C
100
AcDbEntity
  8
Visible (ISO)
100
AcDbCircle
 10
383.15
 20
220.0801948466148
 30
0.0
 40
0.6
100
AcDbArc
 50
0.0
 51
90.0
  0
ARC
  5
2B5
330
6C
100
AcDbEntity
  8
Visible (ISO)
100
AcDbCircle
 10
383.15
 20
211.2801948466148
 30
0.0
 40
0.6
100
AcDbArc
 50
270.0
 51
0.0
  0
LINE
  5
2B6
330
6C
100
AcDbEntity
  8
Visible (ISO)
100
AcDbLine
 10
383.15
 20
210.6801948466148
 30
0.0
 11
377.75
 21
210.6801948466148
 31
0.0
  0
LINE
  5
2B7
330
6C
100
AcDbEntity
  8
Visible (ISO)
100
AcDbLine
 10
383.15
 20
220.6801948466148
 30
0.0
 11
377.75
 21
220.6801948466148
 31
0.0
  0
LINE
  5
2B8
330
6C
100
AcDbEntity
  8
Visible (ISO)
100
AcDbLine
 10
419.7499999999999
 20
279.700000000008
 30
0.0
 11
419.7499999999999
 21
274.7763633939813
 31
0.0
  0
LINE
  5
2B9
330
6C
100
AcDbEntity
  8
Visible (ISO)
100
AcDbLine
 10
419.7499999999999
 20
220.2236366060378
 30
0.0
 11
419.7499999999999
 21
274.7763633939813
 31
0.0
  0
LINE
  5
2BA
330
6C
100
AcDbEntity
  8
Visible (ISO)
100
AcDbLine
 10
419.7499999999999
 20
220.2236366060378
 30
0.0
 11
419.7499999999999
 21
215.3000000000081
 31
0.0
  0
LINE
  5
2BB
330
6C
100
AcDbEntity
  8
Visible (ISO)
100
AcDbLine
 10
403.2499999999999
 20
215.3000000000081
 30
0.0
 11
403.2499999999999
 21
220.2236366060378
 31
0.0
  0
LINE
  5
2BC
330
6C
100
AcDbEntity
  8
Visible (ISO)
100
AcDbLine
 10
403.2499999999999
 20
274.7763633939813
 30
0.0
 11
403.2499999999999
 21
220.2236366060378
 31
0.0
  0
LINE
  5
2BD
330
6C
100
AcDbEntity
  8
Visible (ISO)
100
AcDbLine
 10
403.2499999999999
 20
274.7763633939813
 30
0.0
 11
403.2499999999999
 21
279.7000000000081
 31
0.0
  0
SPLINE
  5
2BE
330
6C
100
AcDbEntity
  8
Visible (ISO)
100
AcDbSpline
210
0.0
220
0.0
230
1.0
 70
    24
 71
     3
 72
     8
 73
     4
 74
     0
 42
0.0000000001
 43
0.0000000001
 40
-0.0438231200332123
 40
-0.0438231200332123
 40
-0.0438231200332123
 40
-0.0438231200332123
 40
0.0
 40
0.0
 40
0.0
 40
0.0
 10
403.2499999999999
 20
279.7000000000081
 30
0.0
 10
403.3499869361122
 20
279.7999869361203
 30
0.0
 10
403.4499878692397
 20
279.8999878692479
 30
0.0
 10
403.5499999999999
 20
280.0000000000082
 30
0.0
  0
SPLINE
  5
2BF
330
6C
100
AcDbEntity
  8
Visible (ISO)
100
AcDbSpline
210
0.0
220
0.0
230
1.0
 70
     8
 71
     3
 72
     8
 73
     4
 74
     0
 42
0.0000000001
 43
0.0000000001
 40
-0.0438231200331159
 40
-0.0438231200331159
 40
-0.0438231200331159
 40
-0.0438231200331159
 40
0.0
 40
0.0
 40
0.0
 40
0.0
 10
403.2499999999999
 20
274.7763633939813
 30
0.0
 10
403.3499869361123
 20
274.8130203832831
 30
0.0
 10
403.44998786924
 20
274.8496086085737
 30
0.0
 10
403.5499999999999
 20
274.886127875268
 30
0.0
  0
LINE
  5
2C0
330
6C
100
AcDbEntity
  8
Visible (ISO)
100
AcDbLine
 10
403.5499999999999
 20
280.0000000000082
 30
0.0
 11
403.5499999999999
 21
274.886127875268
 31
0.0
  0
SPLINE
  5
2C1
330
6C
100
AcDbEntity
  8
Visible (ISO)
100
AcDbSpline
210
0.0
220
0.0
230
1.0
 70
     8
 71
     3
 72
     8
 73
     4
 74
     0
 42
0.0000000001
 43
0.0000000001
 40
-0.0438231200310444
 40
-0.0438231200310444
 40
-0.0438231200310444
 40
-0.0438231200310444
 40
0.0
 40
0.0
 40
0.0
 40
0.0
 10
403.2499999999999
 20
220.2236366060378
 30
0.0
 10
403.3499869361146
 20
220.1869796167353
 30
0.0
 10
403.4499878692447
 20
220.1503913914439
 30
0.0
 10
403.5499999999999
 20
220.1138721247513
 30
0.0
  0
LINE
  5
2C2
330
6C
100
AcDbEntity
  8
Visible (ISO)
100
AcDbLine
 10
403.5499999999999
 20
220.1138721247513
 30
0.0
 11
403.5499999999999
 21
274.886127875268
 31
0.0
  0
SPLINE
  5
2C3
330
6C
100
AcDbEntity
  8
Visible (ISO)
100
AcDbSpline
210
0.0
220
0.0
230
1.0
 70
    24
 71
     3
 72
     8
 73
     4
 74
     0
 42
0.0000000001
 43
0.0000000001
 40
-0.0438231200309521
 40
-0.0438231200309521
 40
-0.0438231200309521
 40
-0.0438231200309521
 40
0.0
 40
0.0
 40
0.0
 40
0.0
 10
403.2499999999999
 20
215.3000000000081
 30
0.0
 10
403.3499869361147
 20
215.2000130638933
 30
0.0
 10
403.4499878692449
 20
215.1000121307632
 30
0.0
 10
403.5499999999999
 20
215.0000000000081
 30
0.0
  0
LINE
  5
2C4
330
6C
100
AcDbEntity
  8
Visible (ISO)
100
AcDbLine
 10
403.5499999999999
 20
220.1138721247513
 30
0.0
 11
403.5499999999999
 21
215.0000000000081
 31
0.0
  0
SPLINE
  5
2C5
330
6C
100
AcDbEntity
  8
Visible (ISO)
100
AcDbSpline
210
0.0
220
0.0
230
1.0
 70
    24
 71
     3
 72
     8
 73
     4
 74
     0
 42
0.0000000001
 43
0.0000000001
 40
-0.0438231202515215
 40
-0.0438231202515215
 40
-0.0438231202515215
 40
-0.0438231202515215
 40
0.0
 40
0.0
 40
0.0
 40
0.0
 10
419.4499999999999
 20
280.0000000000082
 30
0.0
 10
419.5500121307602
 20
279.8999878692479
 30
0.0
 10
419.6500130638877
 20
279.7999869361203
 30
0.0
 10
419.7499999999999
 20
279.7000000000081
 30
0.0
  0
SPLINE
  5
2C6
330
6C
100
AcDbEntity
  8
Visible (ISO)
100
AcDbSpline
210
0.0
220
0.0
230
1.0
 70
    24
 71
     3
 72
     8
 73
     4
 74
     0
 42
0.0000000001
 43
0.0000000001
 40
-0.0438231200337178
 40
-0.0438231200337178
 40
-0.0438231200337178
 40
-0.0438231200337178
 40
0.0
 40
0.0
 40
0.0
 40
0.0
 10
419.7499999999999
 20
215.3000000000081
 30
0.0
 10
419.6500130638883
 20
215.2000130638964
 30
0.0
 10
419.5500121307612
 20
215.1000121307695
 30
0.0
 10
419.4499999999999
 20
215.0000000000081
 30
0.0
  0
SPLINE
  5
2C7
330
6C
100
AcDbEntity
  8
Visible (ISO)
100
AcDbSpline
210
0.0
220
0.0
230
1.0
 70
     8
 71
     3
 72
     8
 73
     4
 74
     0
 42
0.0000000001
 43
0.0000000001
 40
-0.0438231200328689
 40
-0.0438231200328689
 40
-0.0438231200328689
 40
-0.0438231200328689
 40
0.0
 40
0.0
 40
0.0
 40
0.0
 10
419.7499999999999
 20
220.2236366060378
 30
0.0
 10
419.6500130638873
 20
220.186979616736
 30
0.0
 10
419.5500121307594
 20
220.1503913914454
 30
0.0
 10
419.4499999999999
 20
220.1138721247513
 30
0.0
  0
LINE
  5
2C8
330
6C
100
AcDbEntity
  8
Visible (ISO)
100
AcDbLine
 10
419.4499999999999
 20
215.0000000000082
 30
0.0
 11
419.4499999999999
 21
220.1138721247513
 31
0.0
  0
SPLINE
  5
2C9
330
6C
100
AcDbEntity
  8
Visible (ISO)
100
AcDbSpline
210
0.0
220
0.0
230
1.0
 70
     8
 71
     3
 72
     8
 73
     4
 74
     0
 42
0.0000000001
 43
0.0000000001
 40
-0.0438231200332337
 40
-0.0438231200332337
 40
-0.0438231200332337
 40
-0.0438231200332337
 40
0.0
 40
0.0
 40
0.0
 40
0.0
 10
419.7499999999999
 20
274.7763633939813
 30
0.0
 10
419.6500130638877
 20
274.8130203832831
 30
0.0
 10
419.5500121307602
 20
274.8496086085736
 30
0.0
 10
419.4499999999999
 20
274.886127875268
 30
0.0
  0
LINE
  5
2CA
330
6C
100
AcDbEntity
  8
Visible (ISO)
100
AcDbLine
 10
419.4499999999999
 20
274.886127875268
 30
0.0
 11
419.4499999999999
 21
220.1138721247513
 31
0.0
  0
LINE
  5
2CB
330
6C
100
AcDbEntity
  8
Visible (ISO)
100
AcDbLine
 10
419.4499999999999
 20
274.886127875268
 30
0.0
 11
419.4499999999999
 21
280.0000000000082
 31
0.0
  0
LINE
  5
2CC
330
6C
100
AcDbEntity
  8
Visible (ISO)
100
AcDbLine
 10
419.4499999999999
 20
280.0000000000082
 30
0.0
 11
403.5499999999999
 21
280.0000000000082
 31
0.0
  0
LINE
  5
2CD
330
6C
100
AcDbEntity
  8
Visible (ISO)
100
AcDbLine
 10
419.4499999999999
 20
215.0000000000081
 30
0.0
 11
403.5499999999999
 21
215.0000000000081
 31
0.0
  0
LINE
  5
2CE
330
6C
100
AcDbEntity
  8
Visible (ISO)
100
AcDbLine
 10
419.4499999999999
 20
220.1138721247513
 30
0.0
 11
403.5499999999999
 21
220.1138721247513
 31
0.0
  0
LINE
  5
2CF
330
6C
100
AcDbEntity
  8
Visible (ISO)
100
AcDbLine
 10
419.4499999999999
 20
274.886127875268
 30
0.0
 11
403.5499999999999
 21
274.886127875268
 31
0.0
  0
CIRCLE
  5
2D0
330
6C
100
AcDbEntity
  8
Visible Narrow (ISO)
100
AcDbCircle
 10
409.2499999999999
 20
236.5000000000097
 30
0.0
 40
4.845657006448431
  0
CIRCLE
  5
2D1
330
6C
100
AcDbEntity
  8
Visible (ISO)
100
AcDbCircle
 10
409.25
 20
236.50000000001
 30
0.0
 40
3.863999999999999
  0
CIRCLE
  5
2D2
330
6C
100
AcDbEntity
  8
Visible (ISO)
100
AcDbCircle
 10
409.25
 20
236.5000000000097
 30
0.0
 40
4.832765247622278
  0
LINE
  5
2D3
330
6C
100
AcDbEntity
  8
Visible (ISO)
100
AcDbLine
 10
406.7499999999999
 20
237.943375672984
 30
0.0
 11
409.25
 21
239.3867513459581
 31
0.0
  0
LINE
  5
2D4
330
6C
100
AcDbEntity
  8
Visible (ISO)
100
AcDbLine
 10
409.25
 20
239.3867513459581
 30
0.0
 11
411.75
 21
237.943375672984
 31
0.0
  0
LINE
  5
2D5
330
6C
100
AcDbEntity
  8
Visible (ISO)
100
AcDbLine
 10
411.75
 20
237.943375672984
 30
0.0
 11
411.75
 21
235.0566243270359
 31
0.0
  0
LINE
  5
2D6
330
6C
100
AcDbEntity
  8
Visible (ISO)
100
AcDbLine
 10
411.75
 20
235.0566243270359
 30
0.0
 11
409.25
 21
233.6132486540618
 31
0.0
  0
LINE
  5
2D7
330
6C
100
AcDbEntity
  8
Visible (ISO)
100
AcDbLine
 10
409.25
 20
233.6132486540618
 30
0.0
 11
406.7499999999999
 21
235.0566243270359
 31
0.0
  0
LINE
  5
2D8
330
6C
100
AcDbEntity
  8
Visible (ISO)
100
AcDbLine
 10
406.7499999999999
 20
235.0566243270359
 30
0.0
 11
406.7499999999999
 21
237.943375672984
 31
0.0
  0
LINE
  5
2D9
330
6C
100
AcDbEntity
  8
Center Mark (ISO)
100
AcDbLine
 10
213.1249999999934
 20
123.75
 30
0.0
 11
136.8749999999934
 21
123.75
 31
0.0
  0
LINE
  5
2DA
330
6C
100
AcDbEntity
  8
Center Mark (ISO)
100
AcDbLine
 10
174.9999999999934
 20
161.875
 30
0.0
 11
174.9999999999934
 21
85.625
 31
0.0
  0
LINE
  5
2DB
330
6C
100
AcDbEntity
  8
Center Mark (ISO)
100
AcDbLine
 10
147.1283255593546
 20
95.87832555936046
 30
0.0
 11
139.2320641338444
 21
87.98206413385027
 31
0.0
  0
LINE
  5
2DC
330
6C
100
AcDbEntity
  8
Center Mark (ISO)
100
AcDbLine
 10
147.1283255593546
 20
151.6216744406395
 30
0.0
 11
139.2320641338444
 21
159.5179358661497
 31
0.0
  0
LINE
  5
2DD
330
6C
100
AcDbEntity
  8
Center Mark (ISO)
100
AcDbLine
 10
202.8716744406337
 20
95.87832555936046
 30
0.0
 11
210.7679358661438
 21
87.98206413385027
 31
0.0
  0
LINE
  5
2DE
330
6C
100
AcDbEntity
  8
Center Mark (ISO)
100
AcDbLine
 10
210.7679358661439
 20
159.5179358661497
 30
0.0
 11
202.8716744406337
 21
151.6216744406395
 31
0.0
  0
CIRCLE
  5
2DF
330
6C
100
AcDbEntity
  8
Centerline (ISO)
100
AcDbCircle
 10
174.9999999999941
 20
123.75
 30
0.0
 40
45.00000000000001
  0
LINE
  5
2E0
330
6C
100
AcDbEntity
  8
Center Mark (ISO)
100
AcDbLine
 10
144.1249999999943
 20
89.74999999999999
 30
0.0
 11
132.8749999999943
 21
89.74999999999999
 31
0.0
  0
LINE
  5
2E1
330
6C
100
AcDbEntity
  8
Center Mark (ISO)
100
AcDbLine
 10
140.9999999999943
 20
92.87499999999999
 30
0.0
 11
140.9999999999943
 21
81.62499999999999
 31
0.0
  0
LINE
  5
2E2
330
6C
100
AcDbEntity
  8
Center Mark (ISO)
100
AcDbLine
 10
144.1249999999943
 20
157.75
 30
0.0
 11
132.8749999999943
 21
157.75
 31
0.0
  0
LINE
  5
2E3
330
6C
100
AcDbEntity
  8
Center Mark (ISO)
100
AcDbLine
 10
140.9999999999943
 20
165.875
 30
0.0
 11
140.9999999999943
 21
154.625
 31
0.0
  0
LINE
  5
2E4
330
6C
100
AcDbEntity
  8
Center Mark (ISO)
100
AcDbLine
 10
217.1249999999943
 20
89.74999999999999
 30
0.0
 11
205.8749999999943
 21
89.74999999999999
 31
0.0
  0
LINE
  5
2E5
330
6C
100
AcDbEntity
  8
Center Mark (ISO)
100
AcDbLine
 10
208.9999999999943
 20
92.87499999999999
 30
0.0
 11
208.9999999999943
 21
81.62499999999999
 31
0.0
  0
LINE
  5
2E6
330
6C
100
AcDbEntity
  8
Center Mark (ISO)
100
AcDbLine
 10
217.1249999999943
 20
157.75
 30
0.0
 11
205.8749999999943
 21
157.75
 31
0.0
  0
LINE
  5
2E7
330
6C
100
AcDbEntity
  8
Center Mark (ISO)
100
AcDbLine
 10
208.9999999999943
 20
165.875
 30
0.0
 11
208.9999999999943
 21
154.625
 31
0.0
  0
ENDSEC
  0
SECTION
  2
OBJECTS
  0
DICTIONARY
  5
C
330
0
100
AcDbDictionary
281
     1
  3
ACAD_CIP_PREVIOUS_PRODUCT_INFO
350
2E8
  3
ACAD_COLOR
350
63
  3
ACAD_GROUP
350
D
  3
ACAD_LAYOUT
350
62
  3
ACAD_MATERIAL
350
10
  3
ACAD_MLEADERSTYLE
350
66
  3
ACAD_MLINESTYLE
350
5F
  3
ACAD_PLOTSETTINGS
350
61
  3
ACAD_PLOTSTYLENAME
350
E
  3
ACAD_SCALELIST
350
42
  3
ACAD_TABLESTYLE
350
64
  3
ACAD_VISUALSTYLE
350
29
  3
ACDB_RECOMPOSE_DATA
350
2FC
  3
AcDbVariableDictionary
350
2E9
  0
DICTIONARY
  5
2F6
330
CD
100
AcDbDictionary
280
     1
281
     1
  3
ACAD_MLATT
360
2F8
  3
ACAD_XREC_ROUNDTRIP
360
2F7
  0
DICTIONARY
  5
2F9
330
D3
100
AcDbDictionary
280
     1
281
     1
  3
ACAD_MLATT
360
2FB
  3
ACAD_XREC_ROUNDTRIP
360
2FA
  0
XRECORD
  5
2E8
102
{ACAD_REACTORS
330
C
102
}
330
C
100
AcDbXrecord
280
     1
300
INVPROSA
300
2012
300
85768INVNTOR_2012_0F
  0
DICTIONARY
  5
63
102
{ACAD_REACTORS
330
C
102
}
330
C
100
AcDbDictionary
281
     1
  0
DICTIONARY
  5
D
102
{ACAD_REACTORS
330
C
102
}
330
C
100
AcDbDictionary
281
     1
  0
DICTIONARY
  5
62
102
{ACAD_REACTORS
330
C
102
}
330
C
100
AcDbDictionary
281
     1
  3
Layout1
350
6B
  3
Layout2
350
73
  3
Model
350
6F
  0
DICTIONARY
  5
10
102
{ACAD_REACTORS
330
C
102
}
330
C
100
AcDbDictionary
281
     1
  3
ByBlock
350
19
  3
ByLayer
350
11
  3
Global
350
21
  0
DICTIONARY
  5
66
102
{ACAD_REACTORS
330
C
102
}
330
C
100
AcDbDictionary
281
     1
  3
Standard
350
67
  0
DICTIONARY
  5
5F
102
{ACAD_REACTORS
330
C
102
}
330
C
100
AcDbDictionary
281
     1
  3
Standard
350
60
  0
DICTIONARY
  5
61
102
{ACAD_REACTORS
330
C
102
}
330
C
100
AcDbDictionary
281
     1
  0
ACDBDICTIONARYWDFLT
  5
E
102
{ACAD_REACTORS
330
C
102
}
330
C
100
AcDbDictionary
281
     1
  3
Normal
350
F
100
AcDbDictionaryWithDefault
340
F
  0
DICTIONARY
  5
42
102
{ACAD_REACTORS
330
C
102
}
330
C
100
AcDbDictionary
281
     1
  3
A0
350
43
  3
A1
350
44
  3
A2
350
45
  3
A3
350
46
  3
A4
350
47
  3
A5
350
48
  3
A6
350
49
  3
A7
350
4A
  3
A8
350
4B
  3
A9
350
4C
  3
B0
350
4D
  3
B1
350
4E
  3
B2
350
4F
  3
B3
350
50
  3
B4
350
51
  3
B5
350
52
  3
B6
350
53
  0
DICTIONARY
  5
64
102
{ACAD_REACTORS
330
C
102
}
330
C
100
AcDbDictionary
281
     1
  3
Standard
350
65
  0
DICTIONARY
  5
29
102
{ACAD_REACTORS
330
C
102
}
330
C
100
AcDbDictionary
281
     1
  3
2dWireframe
350
2F
  3
Basic
350
2E
  3
Brighten
350
35
  3
ColorChange
350
39
  3
Conceptual
350
32
  3
Dim
350
34
  3
EdgeColorOff
350
41
  3
Facepattern
350
38
  3
Flat
350
2A
  3
FlatWithEdges
350
2B
  3
Gouraud
350
2C
  3
GouraudWithEdges
350
2D
  3
Hidden
350
31
  3
JitterOff
350
3F
  3
Linepattern
350
37
  3
OverhangOff
350
40
  3
Realistic
350
33
  3
Shaded
350
3E
  3
Shaded with edges
350
3D
  3
Shades of Gray
350
3A
  3
Sketchy
350
3B
  3
Thicken
350
36
  3
Wireframe
350
30
  3
X-Ray
350
3C
  0
XRECORD
  5
2FC
102
{ACAD_REACTORS
330
C
102
}
330
C
100
AcDbXrecord
280
     1
 90
        1
330
65
330
CD
330
D3
  0
DICTIONARY
  5
2E9
102
{ACAD_REACTORS
330
C
102
}
330
C
100
AcDbDictionary
281
     1
  3
CANNOSCALE
350
2ED
  3
CMLEADERSTYLE
350
2EB
  3
CTABLESTYLE
350
2EA
  3
LAYEREVAL
350
2EF
  3
LAYERNOTIFY
350
2F0
  3
LIGHTINGUNITS
350
2EE
  3
MSLTSCALE
350
2EC
  3
XCLIPFRAME
350
2F1
  0
XRECORD
  5
2F8
102
{ACAD_REACTORS
330
2F6
102
}
330
2F6
100
AcDbXrecord
280
     1
 70
     4
 70
     0
 70
     0
 40
1.0
  2
部品番号
  1
Embedded Object
 10
39.99999999999993
 20
104.5
 30
0.0
 40
3.100000023841857
 41
52.04190794399206
 46
0.0
 71
     5
 72
     5
  1
VRXF-□-3~9C-S-14BP10
  7
文字スタイル12
 73
     1
 44
1.0
  0
XRECORD
  5
2F7
102
{ACAD_REACTORS
330
2F6
102
}
330
2F6
100
AcDbXrecord
280
     1
102
ACAD_MATT_HEIGHT
140
3.100000023841857
  0
XRECORD
  5
2FB
102
{ACAD_REACTORS
330
2F9
102
}
330
2F9
100
AcDbXrecord
280
     1
 70
     2
 70
     0
 70
     0
 40
1.0
  2
部品番号
  1
Embedded Object
 10
262.5
 20
18.12499999999999
 30
0.0
 40
3.875000029802322
 41
65.05238492999009
 46
0.0
 71
     5
 72
     5
  1
VRXF-□-3~9C-S-14BP10
  7
文字スタイル12
 73
     1
 44
1.0
  0
XRECORD
  5
2FA
102
{ACAD_REACTORS
330
2F9
102
}
330
2F9
100
AcDbXrecord
280
     1
102
ACAD_MATT_HEIGHT
140
3.875000029802322
  0
LAYOUT
  5
6B
102
{ACAD_REACTORS
330
62
102
}
330
62
100
AcDbPlotSettings
  1

  2

  4

  6

 40
0.0
 41
0.0
 42
0.0
 43
0.0
 44
0.0
 45
0.0
 46
0.0
 47
0.0
 48
0.0
 49
0.0
140
0.0
141
0.0
142
1.0
143
1.0
 70
   688
 72
     0
 73
     0
 74
     5
  7

 75
    16
147
1.0
 76
     0
 77
     2
 78
   300
148
0.0
149
0.0
100
AcDbLayout
  1
Layout1
 70
     1
 71
     1
 10
0.0
 20
0.0
 11
12.0
 21
9.0
 12
0.0
 22
0.0
 32
0.0
 14
0.0
 24
0.0
 34
0.0
 15
0.0
 25
0.0
 35
0.0
146
0.0
 13
0.0
 23
0.0
 33
0.0
 16
1.0
 26
0.0
 36
0.0
 17
0.0
 27
1.0
 37
0.0
 76
     0
330
68
  0
LAYOUT
  5
73
102
{ACAD_REACTORS
330
62
102
}
330
62
100
AcDbPlotSettings
  1

  2

  4

  6

 40
0.0
 41
0.0
 42
0.0
 43
0.0
 44
0.0
 45
0.0
 46
0.0
 47
0.0
 48
0.0
 49
0.0
140
0.0
141
0.0
142
1.0
143
1.0
 70
   688
 72
     0
 73
     0
 74
     5
  7

 75
    16
147
1.0
 76
     0
 77
     2
 78
   300
148
0.0
149
0.0
100
AcDbLayout
  1
Layout2
 70
     1
 71
     2
 10
0.0
 20
0.0
 11
12.0
 21
9.0
 12
0.0
 22
0.0
 32
0.0
 14
0.0
 24
0.0
 34
0.0
 15
0.0
 25
0.0
 35
0.0
146
0.0
 13
0.0
 23
0.0
 33
0.0
 16
1.0
 26
0.0
 36
0.0
 17
0.0
 27
1.0
 37
0.0
 76
     0
330
70
  0
LAYOUT
  5
6F
102
{ACAD_REACTORS
330
62
102
}
330
62
100
AcDbPlotSettings
  1

  2

  4

  6

 40
0.0
 41
0.0
 42
0.0
 43
0.0
 44
0.0
 45
0.0
 46
0.0
 47
0.0
 48
0.0
 49
0.0
140
0.0
141
0.0
142
1.0
143
1.0
 70
  1712
 72
     0
 73
     0
 74
     0
  7

 75
     0
147
1.0
 76
     0
 77
     2
 78
   300
148
0.0
149
0.0
100
AcDbLayout
  1
Model
 70
     1
 71
     0
 10
0.0
 20
0.0
 11
12.0
 21
9.0
 12
0.0
 22
0.0
 32
0.0
 14
0.0
 24
0.0
 34
0.0
 15
0.0
 25
0.0
 35
0.0
146
0.0
 13
0.0
 23
0.0
 33
0.0
 16
1.0
 26
0.0
 36
0.0
 17
0.0
 27
1.0
 37
0.0
 76
     0
330
6C
  0
MATERIAL
  5
19
102
{ACAD_XDICTIONARY
360
1A
102
}
102
{ACAD_REACTORS
330
10
102
}
330
10
100
AcDbMaterial
  1
ByBlock
 72
     0
 43
0.0208333333333333
 43
0.0
 43
0.0
 43
0.0
 43
0.0
 43
0.0208333333333333
 43
0.0
 43
0.0
 43
0.0
 43
0.0
 43
1.0
 43
0.0
 43
0.0
 43
0.0
 43
0.0
 43
1.0
 77
     0
 47
0.0208333333333333
 47
0.0
 47
0.0
 47
0.0
 47
0.0
 47
0.0208333333333333
 47
0.0
 47
0.0
 47
0.0
 47
0.0
 47
1.0
 47
0.0
 47
0.0
 47
0.0
 47
0.0
 47
1.0
171
     0
 49
0.0208333333333333
 49
0.0
 49
0.0
 49
0.0
 49
0.0
 49
0.0208333333333333
 49
0.0
 49
0.0
 49
0.0
 49
0.0
 49
1.0
 49
0.0
 49
0.0
 49
0.0
 49
0.0
 49
1.0
175
     0
142
0.0208333333333333
142
0.0
142
0.0
142
0.0
142
0.0
142
0.0208333333333333
142
0.0
142
0.0
142
0.0
142
0.0
142
1.0
142
0.0
142
0.0
142
0.0
142
0.0
142
1.0
179
     0
144
0.0208333333333333
144
0.0
144
0.0
144
0.0
144
0.0
144
0.0208333333333333
144
0.0
144
0.0
144
0.0
144
0.0
144
1.0
144
0.0
144
0.0
144
0.0
144
0.0
144
1.0
147
0.0208333333333333
147
0.0
147
0.0
147
0.0
147
0.0
147
0.0208333333333333
147
0.0
147
0.0
147
0.0
147
0.0
147
1.0
147
0.0
147
0.0
147
0.0
147
0.0
147
1.0
  0
MATERIAL
  5
11
102
{ACAD_XDICTIONARY
360
12
102
}
102
{ACAD_REACTORS
330
10
102
}
330
10
100
AcDbMaterial
  1
ByLayer
 72
     0
 43
0.0208333333333333
 43
0.0
 43
0.0
 43
0.0
 43
0.0
 43
0.0208333333333333
 43
0.0
 43
0.0
 43
0.0
 43
0.0
 43
1.0
 43
0.0
 43
0.0
 43
0.0
 43
0.0
 43
1.0
 77
     0
 47
0.0208333333333333
 47
0.0
 47
0.0
 47
0.0
 47
0.0
 47
0.0208333333333333
 47
0.0
 47
0.0
 47
0.0
 47
0.0
 47
1.0
 47
0.0
 47
0.0
 47
0.0
 47
0.0
 47
1.0
171
     0
 49
0.0208333333333333
 49
0.0
 49
0.0
 49
0.0
 49
0.0
 49
0.0208333333333333
 49
0.0
 49
0.0
 49
0.0
 49
0.0
 49
1.0
 49
0.0
 49
0.0
 49
0.0
 49
0.0
 49
1.0
175
     0
142
0.0208333333333333
142
0.0
142
0.0
142
0.0
142
0.0
142
0.0208333333333333
142
0.0
142
0.0
142
0.0
142
0.0
142
1.0
142
0.0
142
0.0
142
0.0
142
0.0
142
1.0
179
     0
144
0.0208333333333333
144
0.0
144
0.0
144
0.0
144
0.0
144
0.0208333333333333
144
0.0
144
0.0
144
0.0
144
0.0
144
1.0
144
0.0
144
0.0
144
0.0
144
0.0
144
1.0
147
0.0208333333333333
147
0.0
147
0.0
147
0.0
147
0.0
147
0.0208333333333333
147
0.0
147
0.0
147
0.0
147
0.0
147
1.0
147
0.0
147
0.0
147
0.0
147
0.0
147
1.0
  0
MATERIAL
  5
21
102
{ACAD_XDICTIONARY
360
22
102
}
102
{ACAD_REACTORS
330
10
102
}
330
10
100
AcDbMaterial
  1
Global
 72
     0
 43
0.0208333333333333
 43
0.0
 43
0.0
 43
0.0
 43
0.0
 43
0.0208333333333333
 43
0.0
 43
0.0
 43
0.0
 43
0.0
 43
1.0
 43
0.0
 43
0.0
 43
0.0
 43
0.0
 43
1.0
 77
     0
 47
0.0208333333333333
 47
0.0
 47
0.0
 47
0.0
 47
0.0
 47
0.0208333333333333
 47
0.0
 47
0.0
 47
0.0
 47
0.0
 47
1.0
 47
0.0
 47
0.0
 47
0.0
 47
0.0
 47
1.0
171
     0
 49
0.0208333333333333
 49
0.0
 49
0.0
 49
0.0
 49
0.0
 49
0.0208333333333333
 49
0.0
 49
0.0
 49
0.0
 49
0.0
 49
1.0
 49
0.0
 49
0.0
 49
0.0
 49
0.0
 49
1.0
175
     0
142
0.0208333333333333
142
0.0
142
0.0
142
0.0
142
0.0
142
0.0208333333333333
142
0.0
142
0.0
142
0.0
142
0.0
142
1.0
142
0.0
142
0.0
142
0.0
142
0.0
142
1.0
179
     0
144
0.0208333333333333
144
0.0
144
0.0
144
0.0
144
0.0
144
0.0208333333333333
144
0.0
144
0.0
144
0.0
144
0.0
144
1.0
144
0.0
144
0.0
144
0.0
144
0.0
144
1.0
147
0.0208333333333333
147
0.0
147
0.0
147
0.0
147
0.0
147
0.0208333333333333
147
0.0
147
0.0
147
0.0
147
0.0
147
1.0
147
0.0
147
0.0
147
0.0
147
0.0
147
1.0
  0
MLEADERSTYLE
  5
67
102
{ACAD_XDICTIONARY
360
2F4
102
}
102
{ACAD_REACTORS
330
66
102
}
330
66
100
AcDbMLeaderStyle
170
     2
171
     1
172
     0
 90
        2
 40
0.0
 41
0.0
173
     1
 91
-1056964608
340
5B
 92
       -2
290
     1
 42
0.09
291
     1
 43
0.36
  3
Standard
 44
0.18
300

342
55
174
     1
178
     6
175
     1
176
     0
 93
-1056964608
 45
0.18
292
     0
297
     0
 46
0.18
 94
-1056964608
 47
1.0
 49
1.0
140
1.0
293
     1
141
0.0
294
     1
177
     0
142
1.0
295
     0
296
     0
143
0.125
1001
ACAD_MLEADERVER
1070
     2
  0
MLINESTYLE
  5
60
102
{ACAD_REACTORS
330
5F
102
}
330
5F
100
AcDbMlineStyle
  2
STANDARD
 70
     0
  3

 62
   256
 51
90.0
 52
90.0
 71
     2
 49
0.5
 62
   256
  6
BYLAYER
 49
-0.5
 62
   256
  6
BYLAYER
  0
ACDBPLACEHOLDER
  5
F
102
{ACAD_REACTORS
330
E
102
}
330
E
  0
SCALE
  5
43
102
{ACAD_REACTORS
330
42
102
}
330
42
100
AcDbScale
 70
     0
300
1:1
140
1.0
141
1.0
290
     1
  0
SCALE
  5
44
102
{ACAD_REACTORS
330
42
102
}
330
42
100
AcDbScale
 70
     0
300
1/128" = 1'-0"
140
0.0078125
141
12.0
290
     0
  0
SCALE
  5
45
102
{ACAD_REACTORS
330
42
102
}
330
42
100
AcDbScale
 70
     0
300
1/64" = 1'-0"
140
0.015625
141
12.0
290
     0
  0
SCALE
  5
46
102
{ACAD_REACTORS
330
42
102
}
330
42
100
AcDbScale
 70
     0
300
1/32" = 1'-0"
140
0.03125
141
12.0
290
     0
  0
SCALE
  5
47
102
{ACAD_REACTORS
330
42
102
}
330
42
100
AcDbScale
 70
     0
300
1/16" = 1'-0"
140
0.0625
141
12.0
290
     0
  0
SCALE
  5
48
102
{ACAD_REACTORS
330
42
102
}
330
42
100
AcDbScale
 70
     0
300
3/32" = 1'-0"
140
0.09375
141
12.0
290
     0
  0
SCALE
  5
49
102
{ACAD_REACTORS
330
42
102
}
330
42
100
AcDbScale
 70
     0
300
1/8" = 1'-0"
140
0.125
141
12.0
290
     0
  0
SCALE
  5
4A
102
{ACAD_REACTORS
330
42
102
}
330
42
100
AcDbScale
 70
     0
300
3/16" = 1'-0"
140
0.1875
141
12.0
290
     0
  0
SCALE
  5
4B
102
{ACAD_REACTORS
330
42
102
}
330
42
100
AcDbScale
 70
     0
300
1/4" = 1'-0"
140
0.25
141
12.0
290
     0
  0
SCALE
  5
4C
102
{ACAD_REACTORS
330
42
102
}
330
42
100
AcDbScale
 70
     0
300
3/8" = 1'-0"
140
0.375
141
12.0
290
     0
  0
SCALE
  5
4D
102
{ACAD_REACTORS
330
42
102
}
330
42
100
AcDbScale
 70
     0
300
1/2" = 1'-0"
140
0.5
141
12.0
290
     0
  0
SCALE
  5
4E
102
{ACAD_REACTORS
330
42
102
}
330
42
100
AcDbScale
 70
     0
300
3/4" = 1'-0"
140
0.75
141
12.0
290
     0
  0
SCALE
  5
4F
102
{ACAD_REACTORS
330
42
102
}
330
42
100
AcDbScale
 70
     0
300
1" = 1'-0"
140
1.0
141
12.0
290
     0
  0
SCALE
  5
50
102
{ACAD_REACTORS
330
42
102
}
330
42
100
AcDbScale
 70
     0
300
1-1/2" = 1'-0"
140
1.5
141
12.0
290
     0
  0
SCALE
  5
51
102
{ACAD_REACTORS
330
42
102
}
330
42
100
AcDbScale
 70
     0
300
3" = 1'-0"
140
3.0
141
12.0
290
     0
  0
SCALE
  5
52
102
{ACAD_REACTORS
330
42
102
}
330
42
100
AcDbScale
 70
     0
300
6" = 1'-0"
140
6.0
141
12.0
290
     0
  0
SCALE
  5
53
102
{ACAD_REACTORS
330
42
102
}
330
42
100
AcDbScale
 70
     0
300
1'-0" = 1'-0"
140
12.0
141
12.0
290
     0
  0
TABLESTYLE
  5
65
102
{ACAD_XDICTIONARY
360
2F2
102
}
102
{ACAD_REACTORS
330
64
102
}
330
64
100
AcDbTableStyle
  3
Standard
 70
     0
 71
     0
 40
0.06
 41
0.06
280
     0
281
     0
  7
Standard
140
0.18
170
     2
 62
     0
 63
     7
283
     0
274
    -2
284
     1
 64
     0
275
    -2
285
     1
 65
     0
276
    -2
286
     1
 66
     0
277
    -2
287
     1
 67
     0
278
    -2
288
     1
 68
     0
279
    -2
289
     1
 69
     0
  7
Standard
140
0.25
170
     5
 62
     0
 63
     7
283
     0
274
    -2
284
     1
 64
     0
275
    -2
285
     1
 65
     0
276
    -2
286
     1
 66
     0
277
    -2
287
     1
 67
     0
278
    -2
288
     1
 68
     0
279
    -2
289
     1
 69
     0
  7
Standard
140
0.18
170
     5
 62
     0
 63
     7
283
     0
274
    -2
284
     1
 64
     0
275
    -2
285
     1
 65
     0
276
    -2
286
     1
 66
     0
277
    -2
287
     1
 67
     0
278
    -2
288
     1
 68
     0
279
    -2
289
     1
 69
     0
  0
VISUALSTYLE
  5
2F
102
{ACAD_XDICTIONARY
360
30A
102
}
102
{ACAD_REACTORS
330
29
102
}
330
29
100
AcDbVisualStyle
  2
2dWireframe
 70
     4
 71
     0
 72
     2
 73
     0
 90
        0
 40
-0.6
 41
-30.0
 62
     5
 63
     7
421
 16777215
 74
     1
 91
        4
 64
     7
 65
   257
 75
     1
175
     1
 42
1.0
 92
        0
 66
   257
 43
1.0
 76
     1
 77
     6
 78
     2
 67
     7
 79
     5
170
     0
171
     0
290
     0
174
     0
 93
        1
 44
0.0
173
     0
291
     0
 45
0.0
1001
ACAD
1000
AcDbSavedByObjectVersion
1070
     0
  0
VISUALSTYLE
  5
2E
102
{ACAD_XDICTIONARY
360
308
102
}
102
{ACAD_REACTORS
330
29
102
}
330
29
100
AcDbVisualStyle
  2
Basic
 70
     7
 71
     1
 72
     0
 73
     1
 90
        0
 40
-0.6
 41
-30.0
 62
     5
 63
     7
421
 16777215
 74
     0
 91
        4
 64
     7
 65
   257
 75
     1
175
     1
 42
1.0
 92
        8
 66
     7
 43
1.0
 76
     1
 77
     6
 78
     2
 67
     7
 79
     5
170
     0
171
     0
290
     0
174
     0
 93
        1
 44
0.0
173
     0
291
     1
 45
0.0
1001
ACAD
1000
AcDbSavedByObjectVersion
1070
     0
  0
VISUALSTYLE
  5
35
102
{ACAD_XDICTIONARY
360
316
102
}
102
{ACAD_REACTORS
330
29
102
}
330
29
100
AcDbVisualStyle
  2
Brighten
 70
    12
 71
     2
 72
     2
 73
     0
 90
        0
 40
-0.6
 41
-30.0
 62
     5
 63
     7
421
 16777215
 74
     1
 91
        4
 64
     7
 65
   257
 75
     1
175
     1
 42
1.0
 92
        8
 66
     7
 43
1.0
 76
     1
 77
     6
 78
     2
 67
     7
 79
     5
170
     0
171
     0
290
     0
174
     0
 93
        1
 44
50.0
173
     0
291
     1
 45
0.0
1001
ACAD
1000
AcDbSavedByObjectVersion
1070
     0
  0
VISUALSTYLE
  5
39
102
{ACAD_XDICTIONARY
360
31E
102
}
102
{ACAD_REACTORS
330
29
102
}
330
29
100
AcDbVisualStyle
  2
ColorChange
 70
    16
 71
     2
 72
     2
 73
     3
 90
        0
 40
-0.6
 41
-30.0
 62
     5
 63
     8
421
  8421504
 74
     1
 91
        4
 64
     7
 65
   257
 75
     1
175
     1
 42
1.0
 92
        8
 66
     8
424
  8421504
 43
1.0
 76
     1
 77
     6
 78
     2
 67
     7
 79
     5
170
     0
171
     0
290
     0
174
     0
 93
        1
 44
0.0
173
     0
291
     1
 45
0.0
1001
ACAD
1000
AcDbSavedByObjectVersion
1070
     0
  0
VISUALSTYLE
  5
32
102
{ACAD_XDICTIONARY
360
310
102
}
102
{ACAD_REACTORS
330
29
102
}
330
29
100
AcDbVisualStyle
  2
Conceptual
 70
     9
 71
     3
 72
     2
 73
     0
 90
        0
 40
-0.6
 41
-30.0
 62
     5
 63
     7
421
 16777215
 74
     2
 91
        2
 64
     7
 65
   257
 75
     1
175
     1
 42
179.0
 92
        8
 66
     7
 43
1.0
 76
     1
 77
     6
 78
     2
 67
     7
 79
     3
170
     0
171
     0
290
     0
174
     0
 93
        1
 44
0.0
173
     0
291
     0
 45
0.0
1001
ACAD
1000
AcDbSavedByObjectVersion
1070
     0
  0
VISUALSTYLE
  5
34
102
{ACAD_XDICTIONARY
360
314
102
}
102
{ACAD_REACTORS
330
29
102
}
330
29
100
AcDbVisualStyle
  2
Dim
 70
    11
 71
     2
 72
     2
 73
     0
 90
        0
 40
-0.6
 41
-30.0
 62
     5
 63
     7
421
 16777215
 74
     1
 91
        4
 64
     7
 65
   257
 75
     1
175
     1
 42
1.0
 92
        8
 66
     7
 43
1.0
 76
     1
 77
     6
 78
     2
 67
     7
 79
     5
170
     0
171
     0
290
     0
174
     0
 93
        1
 44
-50.0
173
     0
291
     1
 45
0.0
1001
ACAD
1000
AcDbSavedByObjectVersion
1070
     0
  0
VISUALSTYLE
  5
41
102
{ACAD_XDICTIONARY
360
32E
102
}
102
{ACAD_REACTORS
330
29
102
}
330
29
100
AcDbVisualStyle
  2
EdgeColorOff
 70
    22
 71
     2
 72
     2
 73
     0
 90
        0
 40
-0.6
 41
-30.0
 62
     5
 63
     7
421
 16777215
 74
     1
 91
        4
 64
     7
 65
   257
 75
     1
175
     1
 42
1.0
 92
        8
 66
     7
 43
1.0
 76
     1
 77
     6
 78
     2
 67
     7
 79
     5
170
     0
171
     0
290
     0
174
     0
 93
        1
 44
0.0
173
     0
291
     1
 45
0.0
1001
ACAD
1000
AcDbSavedByObjectVersion
1070
     0
  0
VISUALSTYLE
  5
38
102
{ACAD_XDICTIONARY
360
31C
102
}
102
{ACAD_REACTORS
330
29
102
}
330
29
100
AcDbVisualStyle
  2
Facepattern
 70
    15
 71
     2
 72
     2
 73
     0
 90
        0
 40
-0.6
 41
-30.0
 62
     5
 63
     7
421
 16777215
 74
     1
 91
        4
 64
     7
 65
   257
 75
     1
175
     1
 42
1.0
 92
        8
 66
     7
 43
1.0
 76
     1
 77
     6
 78
     2
 67
     7
 79
     5
170
     0
171
     0
290
     0
174
     0
 93
        1
 44
0.0
173
     0
291
     1
 45
0.0
1001
ACAD
1000
AcDbSavedByObjectVersion
1070
     0
  0
VISUALSTYLE
  5
2A
102
{ACAD_XDICTIONARY
360
300
102
}
102
{ACAD_REACTORS
330
29
102
}
330
29
100
AcDbVisualStyle
  2
Flat
 70
     0
 71
     2
 72
     1
 73
     1
 90
        2
 40
-0.6
 41
30.0
 62
     5
 63
     7
421
 16777215
 74
     0
 91
        0
 64
     7
 65
   257
 75
     1
175
     1
 42
1.0
 92
        8
 66
     7
 43
1.0
 76
     1
 77
     6
 78
     2
 67
     7
 79
     5
170
     0
171
     0
290
     0
174
     0
 93
       13
 44
0.0
173
     0
291
     1
 45
0.0
1001
ACAD
1000
AcDbSavedByObjectVersion
1070
     0
  0
VISUALSTYLE
  5
2B
102
{ACAD_XDICTIONARY
360
302
102
}
102
{ACAD_REACTORS
330
29
102
}
330
29
100
AcDbVisualStyle
  2
FlatWithEdges
 70
     1
 71
     2
 72
     1
 73
     1
 90
        2
 40
-0.6
 41
30.0
 62
     5
 63
     7
421
 16777215
 74
     1
 91
        0
 64
     7
 65
   257
 75
     1
175
     1
 42
1.0
 92
        0
 66
   257
 43
1.0
 76
     1
 77
     6
 78
     2
 67
     7
 79
     5
170
     0
171
     0
290
     0
174
     0
 93
       13
 44
0.0
173
     0
291
     1
 45
0.0
1001
ACAD
1000
AcDbSavedByObjectVersion
1070
     0
  0
VISUALSTYLE
  5
2C
102
{ACAD_XDICTIONARY
360
304
102
}
102
{ACAD_REACTORS
330
29
102
}
330
29
100
AcDbVisualStyle
  2
Gouraud
 70
     2
 71
     2
 72
     2
 73
     1
 90
        2
 40
-0.6
 41
30.0
 62
     5
 63
     7
421
 16777215
 74
     0
 91
        0
 64
     7
 65
   257
 75
     1
175
     1
 42
1.0
 92
        0
 66
     7
 43
1.0
 76
     1
 77
     6
 78
     2
 67
     7
 79
     5
170
     0
171
     0
290
     0
174
     0
 93
       13
 44
0.0
173
     0
291
     1
 45
0.0
1001
ACAD
1000
AcDbSavedByObjectVersion
1070
     0
  0
VISUALSTYLE
  5
2D
102
{ACAD_XDICTIONARY
360
306
102
}
102
{ACAD_REACTORS
330
29
102
}
330
29
100
AcDbVisualStyle
  2
GouraudWithEdges
 70
     3
 71
     2
 72
     2
 73
     1
 90
        2
 40
-0.6
 41
30.0
 62
     5
 63
     7
421
 16777215
 74
     1
 91
        0
 64
     7
 65
   257
 75
     1
175
     1
 42
1.0
 92
        0
 66
   257
 43
1.0
 76
     1
 77
     6
 78
     2
 67
     7
 79
     5
170
     0
171
     0
290
     0
174
     0
 93
       13
 44
0.0
173
     0
291
     1
 45
0.0
1001
ACAD
1000
AcDbSavedByObjectVersion
1070
     0
  0
VISUALSTYLE
  5
31
102
{ACAD_XDICTIONARY
360
30E
102
}
102
{ACAD_REACTORS
330
29
102
}
330
29
100
AcDbVisualStyle
  2
Hidden
 70
     6
 71
     1
 72
     2
 73
     2
 90
        0
 40
-0.6
 41
-30.0
 62
     5
 63
     7
421
 16777215
 74
     2
 91
        2
 64
     7
 65
   257
 75
     2
175
     1
 42
40.0
 92
        0
 66
   257
 43
1.0
 76
     1
 77
     6
 78
     2
 67
     7
 79
     3
170
     0
171
     0
290
     0
174
     0
 93
        1
 44
0.0
173
     0
291
     0
 45
0.0
1001
ACAD
1000
AcDbSavedByObjectVersion
1070
     0
  0
VISUALSTYLE
  5
3F
102
{ACAD_XDICTIONARY
360
32A
102
}
102
{ACAD_REACTORS
330
29
102
}
330
29
100
AcDbVisualStyle
  2
JitterOff
 70
    20
 71
     2
 72
     2
 73
     0
 90
        0
 40
-0.6
 41
-30.0
 62
     5
 63
     7
421
 16777215
 74
     1
 91
        4
 64
     7
 65
   257
 75
     1
175
     1
 42
1.0
 92
       10
 66
     7
 43
1.0
 76
     1
 77
     6
 78
     2
 67
     7
 79
     5
170
     0
171
     0
290
     0
174
     0
 93
        1
 44
0.0
173
     0
291
     1
 45
0.0
1001
ACAD
1000
AcDbSavedByObjectVersion
1070
     0
  0
VISUALSTYLE
  5
37
102
{ACAD_XDICTIONARY
360
31A
102
}
102
{ACAD_REACTORS
330
29
102
}
330
29
100
AcDbVisualStyle
  2
Linepattern
 70
    14
 71
     2
 72
     2
 73
     0
 90
        0
 40
-0.6
 41
-30.0
 62
     5
 63
     7
421
 16777215
 74
     1
 91
        4
 64
     7
 65
   257
 75
     7
175
     7
 42
1.0
 92
        8
 66
     7
 43
1.0
 76
     1
 77
     6
 78
     2
 67
     7
 79
     5
170
     0
171
     0
290
     0
174
     0
 93
        1
 44
0.0
173
     0
291
     1
 45
0.0
1001
ACAD
1000
AcDbSavedByObjectVersion
1070
     0
  0
VISUALSTYLE
  5
40
102
{ACAD_XDICTIONARY
360
32C
102
}
102
{ACAD_REACTORS
330
29
102
}
330
29
100
AcDbVisualStyle
  2
OverhangOff
 70
    21
 71
     2
 72
     2
 73
     0
 90
        0
 40
-0.6
 41
-30.0
 62
     5
 63
     7
421
 16777215
 74
     1
 91
        4
 64
     7
 65
   257
 75
     1
175
     1
 42
1.0
 92
        9
 66
     7
 43
1.0
 76
     1
 77
     6
 78
     2
 67
     7
 79
     5
170
     0
171
     0
290
     0
174
     0
 93
        1
 44
0.0
173
     0
291
     1
 45
0.0
1001
ACAD
1000
AcDbSavedByObjectVersion
1070
     0
  0
VISUALSTYLE
  5
33
102
{ACAD_XDICTIONARY
360
312
102
}
102
{ACAD_REACTORS
330
29
102
}
330
29
100
AcDbVisualStyle
  2
Realistic
 70
     8
 71
     2
 72
     3
 73
     0
 90
        2
 40
-0.6
 41
30.0
 62
     5
 63
     7
421
 16777215
 74
     0
 91
        0
 64
     7
 65
   257
 75
     1
175
     1
 42
1.0
 92
        8
 66
   257
 43
1.0
 76
     1
 77
     6
 78
     2
 67
     7
 79
     3
170
     0
171
     0
290
     0
174
     0
 93
       13
 44
0.0
173
     0
291
     0
 45
0.0
1001
ACAD
1000
AcDbSavedByObjectVersion
1070
     0
  0
VISUALSTYLE
  5
3E
102
{ACAD_XDICTIONARY
360
328
102
}
102
{ACAD_REACTORS
330
29
102
}
330
29
100
AcDbVisualStyle
  2
Shaded
 70
    27
 71
     2
 72
     2
 73
     1
 90
        2
 40
-0.6
 41
30.0
 62
     5
 63
     7
421
 16777215
 74
     0
 91
        4
 64
     7
 65
   257
 75
     1
175
     1
 42
1.0
 92
        8
 66
   257
 43
1.0
 76
     1
 77
     6
 78
     2
 67
     8
425
  7895160
 79
     3
170
     0
171
     0
290
     0
174
     0
 93
        5
 44
0.0
173
     0
291
     0
 45
0.0
1001
ACAD
1000
AcDbSavedByObjectVersion
1070
     0
  0
VISUALSTYLE
  5
3D
102
{ACAD_XDICTIONARY
360
326
102
}
102
{ACAD_REACTORS
330
29
102
}
330
29
100
AcDbVisualStyle
  2
Shaded with edges
 70
    26
 71
     2
 72
     2
 73
     1
 90
        2
 40
-0.6
 41
30.0
 62
     5
 63
     7
421
 16777215
 74
     1
 91
       10
 64
     7
 65
   257
 75
     2
175
     1
 42
1.0
 92
        8
 66
   257
 43
1.0
 76
     1
 77
     6
 78
     2
 67
     7
 79
     3
170
     0
171
     0
290
     0
174
     0
 93
        5
 44
0.0
173
     0
291
     0
 45
0.0
1001
ACAD
1000
AcDbSavedByObjectVersion
1070
     0
  0
VISUALSTYLE
  5
3A
102
{ACAD_XDICTIONARY
360
320
102
}
102
{ACAD_REACTORS
330
29
102
}
330
29
100
AcDbVisualStyle
  2
Shades of Gray
 70
    23
 71
     2
 72
     2
 73
     3
 90
        0
 40
-0.6
 41
-30.0
 62
     5
 63
     7
421
 16777215
 74
     2
 91
        2
 64
     7
 65
     7
 75
     1
175
     1
 42
40.0
 92
        8
 66
     7
 43
1.0
 76
     1
 77
     6
 78
     2
 67
     7
 79
     3
170
     0
171
     0
290
     0
174
     0
 93
        1
 44
0.0
173
     0
291
     0
 45
0.0
1001
ACAD
1000
AcDbSavedByObjectVersion
1070
     0
  0
VISUALSTYLE
  5
3B
102
{ACAD_XDICTIONARY
360
322
102
}
102
{ACAD_REACTORS
330
29
102
}
330
29
100
AcDbVisualStyle
  2
Sketchy
 70
    24
 71
     1
 72
     2
 73
     2
 90
        0
 40
-0.6
 41
-30.0
 62
     5
 63
     7
421
 16777215
 74
     2
 91
        2
 64
     7
 65
     7
 75
     1
175
     1
 42
40.0
 92
       11
 66
     7
 43
1.0
 76
     1
 77
     6
 78
     2
 67
     7
 79
     6
170
     0
171
     0
290
     0
174
     0
 93
        1
 44
0.0
173
     0
291
     0
 45
0.0
1001
ACAD
1000
AcDbSavedByObjectVersion
1070
     0
  0
VISUALSTYLE
  5
36
102
{ACAD_XDICTIONARY
360
318
102
}
102
{ACAD_REACTORS
330
29
102
}
330
29
100
AcDbVisualStyle
  2
Thicken
 70
    13
 71
     2
 72
     2
 73
     0
 90
        0
 40
-0.6
 41
-30.0
 62
     5
 63
     7
421
 16777215
 74
     1
 91
        4
 64
     7
 65
   257
 75
     1
175
     1
 42
1.0
 92
       12
 66
     7
 43
1.0
 76
     1
 77
     6
 78
     2
 67
     7
 79
     5
170
     0
171
     0
290
     0
174
     0
 93
        1
 44
0.0
173
     0
291
     1
 45
0.0
1001
ACAD
1000
AcDbSavedByObjectVersion
1070
     0
  0
VISUALSTYLE
  5
30
102
{ACAD_XDICTIONARY
360
30C
102
}
102
{ACAD_REACTORS
330
29
102
}
330
29
100
AcDbVisualStyle
  2
Wireframe
 70
     5
 71
     0
 72
     2
 73
     0
 90
        0
 40
-0.6
 41
-30.0
 62
     5
 63
     7
421
 16777215
 74
     1
 91
        4
 64
     7
 65
   257
 75
     1
175
     1
 42
1.0
 92
        0
 66
   257
 43
1.0
 76
     1
 77
     6
 78
     2
 67
     7
 79
     3
170
     0
171
     0
290
     0
174
     0
 93
        1
 44
0.0
173
     0
291
     0
 45
0.0
1001
ACAD
1000
AcDbSavedByObjectVersion
1070
     0
  0
VISUALSTYLE
  5
3C
102
{ACAD_XDICTIONARY
360
324
102
}
102
{ACAD_REACTORS
330
29
102
}
330
29
100
AcDbVisualStyle
  2
X-Ray
 70
    25
 71
     2
 72
     2
 73
     1
 90
        1
 40
0.5
 41
-30.0
 62
     5
 63
     7
421
 16777215
 74
     1
 91
        0
 64
     7
 65
   257
 75
     1
175
     1
 42
1.0
 92
        8
 66
     7
 43
1.0
 76
     1
 77
     6
 78
     2
 67
     7
 79
     3
170
     0
171
     0
290
     0
174
     0
 93
       13
 44
0.0
173
     0
291
     0
 45
0.0
1001
ACAD
1000
AcDbSavedByObjectVersion
1070
     0
  0
DICTIONARYVAR
  5
2ED
102
{ACAD_REACTORS
330
2E9
102
}
330
2E9
100
DictionaryVariables
280
     0
  1
1:1
  0
DICTIONARYVAR
  5
2EB
102
{ACAD_REACTORS
330
2E9
102
}
330
2E9
100
DictionaryVariables
280
     0
  1
STANDARD
  0
DICTIONARYVAR
  5
2EA
102
{ACAD_REACTORS
330
2E9
102
}
330
2E9
100
DictionaryVariables
280
     0
  1
STANDARD
  0
DICTIONARYVAR
  5
2EF
102
{ACAD_REACTORS
330
2E9
102
}
330
2E9
100
DictionaryVariables
280
     0
  1
0
  0
DICTIONARYVAR
  5
2F0
102
{ACAD_REACTORS
330
2E9
102
}
330
2E9
100
DictionaryVariables
280
     0
  1
0
  0
DICTIONARYVAR
  5
2EE
102
{ACAD_REACTORS
330
2E9
102
}
330
2E9
100
DictionaryVariables
280
     0
  1
2
  0
DICTIONARYVAR
  5
2EC
102
{ACAD_REACTORS
330
2E9
102
}
330
2E9
100
DictionaryVariables
280
     0
  1
1
  0
DICTIONARYVAR
  5
2F1
102
{ACAD_REACTORS
330
2E9
102
}
330
2E9
100
DictionaryVariables
280
     0
  1
2
  0
DICTIONARY
  5
1A
330
19
100
AcDbDictionary
280
     1
281
     1
  3
ACAD_XREC_ROUNDTRIP
360
2FE
  3
BUMPTILE
360
1C
  3
DIFFUSETILE
360
1B
  3
OPACITYTILE
360
1F
  3
REFLECTIONTILE
360
1E
  3
REFRACTIONTILE
360
20
  3
SPECULARTILE
360
1D
  0
DICTIONARY
  5
12
330
11
100
AcDbDictionary
280
     1
281
     1
  3
ACAD_XREC_ROUNDTRIP
360
2FD
  3
BUMPTILE
360
14
  3
DIFFUSETILE
360
13
  3
FBXASSET
360
AC
  3
OPACITYTILE
360
17
  3
REFLECTIONTILE
360
16
  3
REFRACTIONTILE
360
18
  3
SPECULARTILE
360
15
  0
DICTIONARY
  5
22
330
21
100
AcDbDictionary
280
     1
281
     1
  3
ACAD_XREC_ROUNDTRIP
360
2FF
  3
BUMPTILE
360
24
  3
DIFFUSETILE
360
23
  3
OPACITYTILE
360
27
  3
REFLECTIONTILE
360
26
  3
REFRACTIONTILE
360
28
  3
SPECULARTILE
360
25
  0
DICTIONARY
  5
2F4
330
67
100
AcDbDictionary
280
     1
281
     1
  3
ACAD_XREC_ROUNDTRIP
360
2F5
  0
DICTIONARY
  5
2F2
330
65
100
AcDbDictionary
280
     1
281
     1
  3
ACAD_ROUNDTRIP_2008_TABLESTYLE_CELLSTYLEMAP
360
2F3
  3
ACAD_XREC_ROUNDTRIP
360
330
  0
DICTIONARY
  5
30A
330
2F
100
AcDbDictionary
280
     1
281
     1
  3
ACAD_XREC_ROUNDTRIP
360
30B
  0
DICTIONARY
  5
308
330
2E
100
AcDbDictionary
280
     1
281
     1
  3
ACAD_XREC_ROUNDTRIP
360
309
  0
DICTIONARY
  5
316
330
35
100
AcDbDictionary
280
     1
281
     1
  3
ACAD_XREC_ROUNDTRIP
360
317
  0
DICTIONARY
  5
31E
330
39
100
AcDbDictionary
280
     1
281
     1
  3
ACAD_XREC_ROUNDTRIP
360
31F
  0
DICTIONARY
  5
310
330
32
100
AcDbDictionary
280
     1
281
     1
  3
ACAD_XREC_ROUNDTRIP
360
311
  0
DICTIONARY
  5
314
330
34
100
AcDbDictionary
280
     1
281
     1
  3
ACAD_XREC_ROUNDTRIP
360
315
  0
DICTIONARY
  5
32E
330
41
100
AcDbDictionary
280
     1
281
     1
  3
ACAD_XREC_ROUNDTRIP
360
32F
  0
DICTIONARY
  5
31C
330
38
100
AcDbDictionary
280
     1
281
     1
  3
ACAD_XREC_ROUNDTRIP
360
31D
  0
DICTIONARY
  5
300
330
2A
100
AcDbDictionary
280
     1
281
     1
  3
ACAD_XREC_ROUNDTRIP
360
301
  0
DICTIONARY
  5
302
330
2B
100
AcDbDictionary
280
     1
281
     1
  3
ACAD_XREC_ROUNDTRIP
360
303
  0
DICTIONARY
  5
304
330
2C
100
AcDbDictionary
280
     1
281
     1
  3
ACAD_XREC_ROUNDTRIP
360
305
  0
DICTIONARY
  5
306
330
2D
100
AcDbDictionary
280
     1
281
     1
  3
ACAD_XREC_ROUNDTRIP
360
307
  0
DICTIONARY
  5
30E
330
31
100
AcDbDictionary
280
     1
281
     1
  3
ACAD_XREC_ROUNDTRIP
360
30F
  0
DICTIONARY
  5
32A
330
3F
100
AcDbDictionary
280
     1
281
     1
  3
ACAD_XREC_ROUNDTRIP
360
32B
  0
DICTIONARY
  5
31A
330
37
100
AcDbDictionary
280
     1
281
     1
  3
ACAD_XREC_ROUNDTRIP
360
31B
  0
DICTIONARY
  5
32C
330
40
100
AcDbDictionary
280
     1
281
     1
  3
ACAD_XREC_ROUNDTRIP
360
32D
  0
DICTIONARY
  5
312
330
33
100
AcDbDictionary
280
     1
281
     1
  3
ACAD_XREC_ROUNDTRIP
360
313
  0
DICTIONARY
  5
328
330
3E
100
AcDbDictionary
280
     1
281
     1
  3
ACAD_XREC_ROUNDTRIP
360
329
  0
DICTIONARY
  5
326
330
3D
100
AcDbDictionary
280
     1
281
     1
  3
ACAD_XREC_ROUNDTRIP
360
327
  0
DICTIONARY
  5
320
330
3A
100
AcDbDictionary
280
     1
281
     1
  3
ACAD_XREC_ROUNDTRIP
360
321
  0
DICTIONARY
  5
322
330
3B
100
AcDbDictionary
280
     1
281
     1
  3
ACAD_XREC_ROUNDTRIP
360
323
  0
DICTIONARY
  5
318
330
36
100
AcDbDictionary
280
     1
281
     1
  3
ACAD_XREC_ROUNDTRIP
360
319
  0
DICTIONARY
  5
30C
330
30
100
AcDbDictionary
280
     1
281
     1
  3
ACAD_XREC_ROUNDTRIP
360
30D
  0
DICTIONARY
  5
324
330
3C
100
AcDbDictionary
280
     1
281
     1
  3
ACAD_XREC_ROUNDTRIP
360
325
  0
XRECORD
  5
2FE
102
{ACAD_REACTORS
330
1A
102
}
330
1A
100
AcDbXrecord
280
     1
102
MATERIAL
148
0.0
149
0.0
149
0.0
 93
        0
 94
      127
282
     0
 72
     0
 77
     0
171
     0
175
     0
179
     0
273
     0
  0
XRECORD
  5
1C
102
{ACAD_REACTORS
330
1A
102
}
330
1A
100
AcDbXrecord
280
     1
270
     1
271
     1
  0
XRECORD
  5
1B
102
{ACAD_REACTORS
330
1A
102
}
330
1A
100
AcDbXrecord
280
     1
270
     1
271
     1
  0
XRECORD
  5
1F
102
{ACAD_REACTORS
330
1A
102
}
330
1A
100
AcDbXrecord
280
     1
270
     1
271
     1
  0
XRECORD
  5
1E
102
{ACAD_REACTORS
330
1A
102
}
330
1A
100
AcDbXrecord
280
     1
270
     1
271
     1
  0
XRECORD
  5
20
102
{ACAD_REACTORS
330
1A
102
}
330
1A
100
AcDbXrecord
280
     1
270
     1
271
     1
  0
XRECORD
  5
1D
102
{ACAD_REACTORS
330
1A
102
}
330
1A
100
AcDbXrecord
280
     1
270
     1
271
     1
  0
XRECORD
  5
2FD
102
{ACAD_REACTORS
330
12
102
}
330
12
100
AcDbXrecord
280
     1
102
MATERIAL
148
0.0
149
0.0
149
0.0
 93
        0
 94
      127
282
     0
 72
     0
 77
     0
171
     0
175
     0
179
     0
273
     0
  0
XRECORD
  5
14
102
{ACAD_REACTORS
330
12
102
}
330
12
100
AcDbXrecord
280
     1
270
     1
271
     1
  0
XRECORD
  5
13
102
{ACAD_REACTORS
330
12
102
}
330
12
100
AcDbXrecord
280
     1
270
     1
271
     1
  0
XRECORD
  5
AC
102
{ACAD_REACTORS
330
12
102
}
330
12
100
AcDbXrecord
280
     1
 70
     1
 90
1959938040
 71
     1
  1
9514FF19-782D-43BA-A6D5-E66893304C6E
311
504B03040A00000800007D6886473DEE336E79000000790000001B0000006175746F6465736B2D64657369676E2D7061636B6167652E786D6C3C3F786D6C2076657273696F6E3D22312E302220656E636F64696E673D227574662D3822203F3E3C666F726D6174733E3C666F726D61743E687474703A2F2F736368656D612E
311
6175746F6465736B2E636F6D2F64657369676E2D7061636B6167652F323030393C2F666F726D61743E3C2F666F726D6174733E504B03041400060808007D688647D486FD9CA0000000F4000000130000005B436F6E74656E745F54797065735D2E786D6C7D8EC10E82300C865F65E91D8A1E8C310C0EEA1BF002731658846E
311
D98AC1B77784ABF1D8FE5FBFBF75BBCE937A534CCEB38643598122B6FEE978D0B0485F9C41B54DDD7D022595594E1A469170414C76A4D9A4D207E29CF43ECE46F218070CC6BECC4078ACAA135ACF422C856C0E68EA1BF5669944DDD7BCDE7B1F8E415D77AECB980613C2E4AC91FC167A2B244592486606FC29C8FD7F045B9A
311
EF7053A7E60B504B03041400060808007D688647119733FEEB0000007C01000008000000636F72652E786D6C8D90DD8E832010855F85CCED0605B5560DD2A43F3EC1BE00016A492B1881CD3EFE626B93DDBBBD612687F3CD4C0E3B7C4F0FF4A5176F9CED81660490B6D22963C71E62B8E206D081B3C5B9F0CB06C88A49F7B0
311
CAC0D9B8B8386F927436681B926A9DD29B28BCD701907CA4A6072F6F7A1299882139FC3D9B85BC8B5167F4DD253846A3D06B8951699EB91ABD00BF5C9AA12E8B01933339E1AA3916B8DD9F8FB84ECFBEA94EED500D2C5F61CE8299DEFBE5A245D00A7841E80ED30293FA93961D29BBDDFE83B41D212C5FED7FA038AB7F42D1
311
D85016DBB92FCC03A7E990E70767F99A452ACFA0525D73E33F504B03041400060808007D68864755019EA25F0000007C00000007000000636E782E786D6C4DCB3B0E80201045D1AD90E915ED2CF8AC45050C11660C8261F98AB1B07AC9C97D42D718D865D3E909258CFD00CCE24AC6E326A164D74DC0B4128928FF32603847
311
2BA13128B1252AC747C6BAB984FC68F0B87FE8960A5C09FE86CFB69FBA01504B03041400060808007D688647DC46DDE567010000020300000C0000006662782F636F72652E786D6C8D52ED8A8330107C9590BF87267EB4B525A6D00F9FE05E20D5D4936A2231913EFEAD1FC5EB514A116298D9D99D1D65FB7B53A35E9AAED2
311
2AC5814F31922AD745A5CA143B7BF5128CF69C19ADED9F328C9468648A071873561AEDDA19CAB5B2525940952EE40C8AAE9316A3BC864B8ABBFC4736C217CE424577F35B91DF4429FDC0071AEA38EBAC0103681A329C985F2F7746269C33E7AA6266AB02A655D74A1ACCCFE7245B4761E6D1133D7A717208BDEDE674F0D670
311
6C92F8B8CDE28C9141CC99AD9A87BBDC486165817948839517841E5D7F07D18E46BBD5E68B6E77943232943F895C5B7C287295B25138DB9D641DE6011819897FDB42441675A2073F8433328408AF31E1E7A0211008D98A4BFDD8E306502F73AB4D0C4CA1DD42F5A27612A652343E8C4C2C741E1BC0662FFB846FFABCEF011F
311
50A812AC090BD78BB3C374364D9DA368A5F17A7B474A9B46D48BB9C9E2722E835ECA735D6BF3899ACCAB92394C32FCBDFC17504B03041400060808007D6886475A95E0757D0000009D0000000B0000006662782F636E782E786D6C4DCCD10E82201805E05761FF3D99A0441BE0A87C1097E858088DC0F9F861F3A2ABB37DE7
311
EC886E5B1C5A4DFCD8E025D4A73320E39F61B47E9690D38439A04E891842FA9B01F2C36224EC0C4ACC31E4F741A39986EC525167FDEBC09ADC9BAB262D265C53DCF007C5BCBF5D70CB74AF2961A565502951FD9E4AEEC7EA0B504B03041400060808007D688647BBB0B29D2C01000015020000310000006662782F31324334
311
394132352D323841332D343844332D384542372D3536414541333236433439362F636F72652E786D6C8D515B6EC32010BC0AE22B55850DD8264E8489DC3637E8051C9BA42831583CAA1CBFEBDA91DABFFCB068766676B42B0FF7F186BEB50FC6D906B38C62A46DEF06632F0D4EF14C6A8C0E4A7AE7E21F1A46B61B75836718
311
2B79F12E4D2BD43B1BB58D805A37E815EC42D011A3FE069F0687FE4B8F5DD6A5088C70CDA6AEBF76179DB10CDAC05332440F01D032647EB162FCBDDCB5BC22BC6E0B52D61F05A98F6F5B5289F6D8165C4057C87C112A99921956B919208E391BED9F3599C54A46333EE2F75E77510F5871CA2AC238A1E293157B5AECABED2B
311
DDED2995F94CFF274AD3F0A428191B0BBEC65D6401B2CA7C692839B874BA3DC2E8FBE47C44F3BC4DD0FD0B5634A3B46642947C2BF3850B1B005351AEA6213A0F1BDE5C4F4067D5E22C4A25F3F948507E2F08753EA8FA01504B03041400060808007D68864702AE33F84E01000033030000300000006662782F313243343941
311
32352D323841332D343844332D384542372D3536414541333236433439362F636E782E786D6CD593BB6E032110457F05D146FBF22BB1C5622945BE20455A16C636310B2B1E51FCF7196CECB87191320D5ADDB9DC3B3A62D9F67B34E40B7CD0CEF6B4AB5B4AC04AA7B4DDF734C55DF542C99633EF5CBCB35162C5083DCD32E5
311
6CEF5D9A8AA460279289A81A6D8F45F4105CF21202CAF926314E0A830160AB84228C0328058ADC8CF8B5038FABA0389C483C00797BFD206EF80419036B720A674DEEE02C9FA5E9CE44893422849E06798051D42245A7201C6B25A2A8BBFADAF560A7DF24922F5C2B93D72497F7349F94978D6AE4C81A1C7216A2477AC5144F
311
13502EA6C9682922426ECEC68B87B3A46D5C2D8A5723788FEE6E355F2C30EC3CE32CEA118A437A101114E5B3B65B56DDAC6A57EFDD7CD3CE37CBE7A776BD695BD6643B678373A65CC218F06E22D2D9083652DEB1268F1FE12B3EA2B447D6CE9FFE00120194D60B9D5BC67FE6D39CDF37E2F2F817F01F504B03041400060808
311
007D68864790001804A505000081100000340000006662782F31324334394132352D323841332D343844332D384542372D3536414541333236433439362F6F626A656374732E786D6CAD57D96EDB3814FD1541F332F3E045B6E3C6034585632785D1A62D6AB4980703062D510A27D402924A9DF9FA3914295972EDD433E88B
311
162E97F79E7BEE42FFED3EE5CE331592E5D98DEBF587AE43B3308F5896DCB8A58A7BD7AEF336F0459EABD632D7C9484A6F5C3DEC067E22F2B2B043118D49C9D5D1E8FDED5F8E0C69465D27E444CA1B57868F34257D52AA3CA2F2A91F1145FA49BCEF7B7DB3B02B3611A4783C125A104133054D319E418A6394F2BABF437710
311
F8033D1FF8FA69578DCFAF1A54F674CF679954240B7F38EC48CCD89B2CEF4657B3DED56432EE4DA623AF777B7FBBEC796FC6C3C574B198CDEF6638582A0149561341633778076C040BFD81990AFC92656A3CB24BAC8306823E33ED293718399E3F306B1AEBAC91A7D40FF32CA3618515D0A8ECB3A2235AD02C82CF1995D0AC
311
85D0B0FBEB691C5BD363FD6F8F6C0F5F86407B474B50AD7BFD6E6B9AEFFE8609F21206094935030D96D650C3D5E101E15D9E733BC7A49312450523DCE16C27887871032CD54B02BF23463359E868D016B801BC60A6BB744118FD9CE7A7B48C4BCE358DDDA08A822D62852A5969C6FEA1E2A07D1B19E8045F69365C5B83D44B
311
41DD606628727DC42603A4137392C0E53053EF1C8F8E0C5DE8385D2DDDE0FDFD6EBFD6B17BFAF042E405154AD307D4AA1D57BF354A5627EF22CFE90DEE912A0750BE00F98F08F5832AF09B60FBC97E624F51826432CE450ADF3843A737C463E878D5537FB7BEFC41B3B9EBBD7378C2D91AAA5F8067D786B62F5B7006FE3308
311
9F8BB1356D1D128EB4F1C03200A449E2F01C43C8C3F16EEF062B64396465EC223CF06032D47DC6A73FB0629028AA935AEF0C581EA5C50B123460AB1809350CF9AD82073FFD90CEAA83EDB273F05EFD12BACE97EBF7EB52C424A40F36A69734661953287107DEB415EA60DEB1E889BE7CCF4504437FC47BDDC63BB54749A0AD
311
31D7C027754ED73F87933B0784D897E43ADDF83F390146E8C2DA92FFC06448392719CDCBFADC57EB07CA86815807BB667253600E8505A43133473188221D0A5668109B6AD524CDFE19EBBEAE3E82916E70FBF281BCB4B3D7EE907BC39CE762BB7BD99AB47412EA6F5D6E5B0C065A0AE85E05491DFF16F46DC4E2B894488227
311
70FDB65AB47DA7D30252442DD544CB04F623B888B0A4ADE5A25A0B824A9A675B86BA89B83B79405B3E20B50CA8049ED358521E6F19E765BA8D194735DAA6A43803C7FFD77F57A6C596A47999A933B23BAAA33A7475EFB0577E272A7C748375F5EEDD22F746343A43065D4B4E60D571EDECCA9BDCDF7BB3DE9BEBD1B23719DF
311
CE7BF3E9F2AA77379D5ECFC6E3E16431BDABFD643409FCBAD4B4231A5E4269F34BC1ACFBBEAE103F3609B8C1035172F3CE8467FDFEBAEAA317F607D8837AD96C9C47CFE8FB68F4730187952705ADD282D394668AE8187AD01FFC0B419FD151C68CAF5292D00BA47C7AB73E32062317ECFBACE39D7E3FDA6B47173A204F0A51
311
8F65BACB08E3471B138364BFC8128B5FED93E66D0A4DFDABFFAC63D099CA9CB308793072129AA754211B5E5084444A25A8D7EEE9237BF7B860F7B3E91015D9715A6BF248D0247389B000B5CA5075C79DDFD0D4E9BEEAC645B9ED3FE1613385EB8033372E9A74C5422AFB3B1468DD0A55C2C1A576278FC69F640947AF6D3635
311
FFCD2E8D4DA724374B2EE99FAC5D26855B0390460AF40D6888E09D4A99C0AF74B3F3E17F32BC56C7210A9FBB5235B61C061A63AA6310A2C6287B5B4013F3648FDE23505F37CBEB576B3A885C74CB7A9504466A4F1191543705AD9F5569BEFC3C4087E2AC3E39052F13F8F272493D4141E652073858045658990551A0EAE2CF
311
CD6791E3269B3AF70C14707EDF5F4FFFD82CF234CD3333B499DBFBB0B37EC4ED36DA2039507D2D919BD1D01B6DAAEB80BDA16C7744D23E89E41306E059C11AA03BEE072FCD9D1175C84C34EB06DA15470C5D2D1D5BD826106AE9D2CEAD1A1C341E19751043FA4AA923A6BDA078F54630A8964205815E3EF817504B03041400
311
060800007C688647000000000000000000000000350000006662782F31324334394132352D323841332D343844332D384542372D3536414541333236433439362F76657274696365732E62696E504B03041400060808007D688647F270F1330600000004000000360000006662782F31324334394132352D323841332D3438
311
44332D384542372D3536414541333236433439362F747269616E676C65732E62696E636660600000504B03041400060800007C688647000000000000000000000000370000006662782F31324334394132352D323841332D343844332D384542372D3536414541333236433439362F617474726962757465732E62696E504B
311
03041400060808007D688647D5987DFC8F00000041010000360000006662782F31324334394132352D323841332D343844332D384542372D3536414541333236433439362F6469726563746F72792E786D6C858F410EC2201045AF4266AF15DDB800BA74E7C21B903225242D6328188F2FA5C4183471359997F9FF81E89FF3
311
C41E1816475E02DF1F80A11FC8386F25A438EECEC07A250251FC3803E6F58C12560C4AD840E95E91C151A72936F496F35732D860FE635F62C8F2DA16B505C545B74125BAA2FA9E05D7CC053D063734D5C7665FD55B6B8D15D5E9BFEAFD8490FFA45E504B03041400060808007D688647797D6ECFFE000000A00100003B0000
311
006662782F31324334394132352D323841332D343844332D384542372D3536414541333236433439362F7265736F75726365732F636F72652E786D6C8D50596AC33010BD8A99DF225BB2132F4156208B4FD00B0879E28AC452D0527AFCCAB10BED5F7F6686B7308FC78F5FF323FB44E7B5353DB09C428646D9519BA987186E
311
A485EC28B8B336FC924166E48C3D2C30083E391B9F1BA4AC096842428D1D7103A5F71820538F74F4E0D507CE3297312485BFE74FA9EE72C29CE5894E3AC17D702940B63E59260887DE46A7D0F36265058F518F9B468FE9A7BE697420AED776A8ABF24AE8859EC9AE3D95A46B2E2752A7D1B4BB7337EC065E2C66C1839E7F32
311
2A8732E008A2A46C4F584968FDCEAA03AD0EFBE68D76074A79B1C8FF98E273FCA7296A13AA728BBBDA3C089682BC08C18BA5AFB45E65A6BD742BBE01504B010214000A00000800007D6886473DEE336E79000000790000001B00000000000000000000000000000000006175746F6465736B2D64657369676E2D7061636B61
311
67652E786D6C504B010214001400060808007D688647D486FD9CA0000000F40000001300000000000000000000000000B20000005B436F6E74656E745F54797065735D2E786D6C504B010214001400060808007D688647119733FEEB0000007C010000080000000000000000000000000083010000636F72652E786D6C504B
311
010214001400060808007D68864755019EA25F0000007C000000070000000000000000000000000094020000636E782E786D6C504B010214001400060808007D688647DC46DDE567010000020300000C00000000000000000000000000180300006662782F636F72652E786D6C504B010214001400060808007D6886475A95
311
E0757D0000009D0000000B00000000000000000000000000A90400006662782F636E782E786D6C504B010214001400060808007D688647BBB0B29D2C0100001502000031000000000000000000000000004F0500006662782F31324334394132352D323841332D343844332D384542372D3536414541333236433439362F63
311
6F72652E786D6C504B010214001400060808007D68864702AE33F84E010000330300003000000000000000000000000000CA0600006662782F31324334394132352D323841332D343844332D384542372D3536414541333236433439362F636E782E786D6C504B010214001400060808007D68864790001804A50500008110
311
00003400000000000000000000000000660800006662782F31324334394132352D323841332D343844332D384542372D3536414541333236433439362F6F626A656374732E786D6C504B010214001400060800007C68864700000000000000000000000035000000000000000000000000005D0E00006662782F3132433439
311
4132352D323841332D343844332D384542372D3536414541333236433439362F76657274696365732E62696E504B010214001400060808007D688647F270F13306000000040000003600000000000000000000000000B00E00006662782F31324334394132352D323841332D343844332D384542372D353641454133323643
311
3439362F747269616E676C65732E62696E504B010214001400060800007C68864700000000000000000000000037000000000000000000000000000A0F00006662782F31324334394132352D323841332D343844332D384542372D3536414541333236433439362F617474726962757465732E62696E504B01021400140006
311
0808007D688647D5987DFC8F0000004101000036000000000000000000000000005F0F00006662782F31324334394132352D323841332D343844332D384542372D3536414541333236433439362F6469726563746F72792E786D6C504B010214001400060808007D688647797D6ECFFE000000A00100003B00000000000000
311
000000000000421000006662782F31324334394132352D323841332D343844332D384542372D3536414541333236433439362F7265736F75726365732F636F72652E786D6C504B0506000000000E000E0080040000991100000000
310
504B03040A00000800007C6886473DEE336E79000000790000001B0000006175746F6465736B2D64657369676E2D7061636B6167652E786D6C3C3F786D6C2076657273696F6E3D22312E302220656E636F64696E673D227574662D3822203F3E3C666F726D6174733E3C666F726D61743E687474703A2F2F736368656D612E
310
6175746F6465736B2E636F6D2F64657369676E2D7061636B6167652F323030393C2F666F726D61743E3C2F666F726D6174733E504B03041400060808007C688647D486FD9CA0000000F4000000130000005B436F6E74656E745F54797065735D2E786D6C7D8EC10E82300C865F65E91D8A1E8C310C0EEA1BF002731658846E
310
D98AC1B77784ABF1D8FE5FBFBF75BBCE937A534CCEB38643598122B6FEE978D0B0485F9C41B54DDD7D022595594E1A469170414C76A4D9A4D207E29CF43ECE46F218070CC6BECC4078ACAA135ACF422C856C0E68EA1BF5669944DDD7BCDE7B1F8E415D77AECB980613C2E4AC91FC167A2B244592486606FC29C8FD7F045B9A
310
EF7053A7E60B504B03041400060808007C6886479C323046EC0000007C01000008000000636F72652E786D6C8D90416E83301045AF62CDB632D8384040C6518BC2097A01CB38C44AB011B6AB1EBF262152BBEB6A467FFE9B197D7EFA9EEFE84BAFDE38DB01CD08206D951B8D9D3A88E1828F804E82AFCE855F364056CEBA83
310
4D06C1A7D5C5659794B341DB9054EB46BD8BD27B1D00A97B6A3AF0EAAA6799C91892C3DFB245AA9B9C74465F5D826334237A1E3163DA672E46AF20EAE1D893A6EAF17028067CF8282BFC3EB006B3BE3ED3F350B39E153CDF60C183995FF7D5AA65D0238882D012D30293EA93B296B0B6ACDF48D312C2F3CDFE078ACBF84F28
310
1A1B58B1BFFBC43C089A1E790C04CFB72C52790495EA969BF801504B03041400060808007C68864755019EA25F0000007C00000007000000636E782E786D6C4DCB3B0E80201045D1AD90E915ED2CF8AC45050C11660C8261F98AB1B07AC9C97D42D718D865D3E909258CFD00CCE24AC6E326A164D74DC0B4128928FF326038
310
472BA13128B1252AC747C6BAB984FC68F0B87FE8960A5C09FE86CFB69FBA01504B03041400060808007C6886475601344467010000020300000C0000006662782F636F72652E786D6C8D52ED8E8320107C15C2DF0B82DAEF20CD9DA94F702F40957AA60A06C1F4F16FFD68BC5E9AA6314132B3B33B3BCA8FB7A646BDB25D65
310
7482C38061A4746E8A4A9709F6EE4276181D05B7C6B83F651869D9A8040F3016BCB4C6B733941BED9476806A53A819945DA71C46790D970477F98F6A6420BD838AEE1AB432BFCA5205610034D409DE390B06D0346438B1B89C6F9C4EB8E0DE57C5CC56054CAB2E95B2586CB35DCAF69B9464AB2823ABAFF5867C66F19EC4E9
310
F6149EB26D9CC611A783587057357777B955D2A9028B88856B1246846DBEC3F8C0E2C37AFBC1F607C6381DCA1F44BE2DDE14F94ABB389AED4EB20E8B108C8CC4BF6D2122873AD9831F2A381D4284D798F063D0100884ECE4B9BEEF7105A857B93376054C61FC42F5B2F60AA632343E9C4E2C741E1BC0664FFB442FFABCEE01
310
1F50EA12AC4907D7B377C3743E4D9DA3689525BDBB216D6C23EBC5DC64713997414FE5B9A98D7D474DE755E91C261DFE5EF10B504B03041400060808007C68864769110D0D7E0000009D0000000B0000006662782F636E782E786D6C4DCCD10A83201886E15B91FFDCA564AB811A3ADD7DC4B288990EA76397BF1A1DECE883
310
878F97F79FD5A3B74BAF250601F44400B9708FE3126601254FB803D44B9E62CC7F374061589D809D41F239C5F23C6874D3507CDED42FE171E0AD35E4A21B83756B2966865C714789C267A6ACAE596D1B65A092BCFA95B6DDC3F20B504B03041400060808007C6886479542402F2D01000015020000310000006662782F4637
310
4430394235442D423745312D344430432D383130412D3634414542333433453541442F636F72652E786D6C8D515B6EC32010BC0AE22B55850DF12B8E305152A727E8051C20094A0C168F2AC72FD48ED4FEE58745B333B3A35DBA7B8C77F02DAD53467790641802A9B9114A5F3A18FC196D20D8316A8DF17F6810E861941D4C
310
3064F4624D9816881BEDA5F611D546C8051C9C931E027E8F9F0E3A7E95E3900DC14786BB65D3C06FC34566248BEDC863D4791B038079487A21FB6C7ADC1EAA1E1D9A2341658F3FD086E03DAACBFDF15094C5B1DAF7349F858C86A0C4225722C6516725EDAB2649CCA857E3333EB772F05240B6C6A442648D70FD458A2D2EB6
310
55F38EDB2DC6344FF47FA23089174541695FAC97B8B3CC4146683E371815269CEECF30F23119EB419AB77292BF4186338CDBAA6E9B6A43F3991B37104DEB723175DED8B8E1D5ED14E9C5E25C978CE6E948B1FC5E30D67450F603504B03041400060808007C6886476409FCEF5701000033030000300000006662782F463744
310
30394235442D423745312D344430432D383130412D3634414542333433453541442F636E782E786D6CBD93CD6EC32010845F0571ADFC17276E1A6122F5D027E8A1570C9B84068305B86ADEBE4B42D25C7AA854F582ACD96166F509B3EDE768C807F8A09DED6953D69480954E69BBEFE91C77C59A922D67DEB97867A3C48A11
310
7A9A64CAD9DEBB79CA92829D984D44D5687BCCA287E0662F21A09C6E12E3A4301800B69851847100A540919B11BF76E071151487138907202FCF6FC40DEF206360554AE1AC4A1D9CA53337DD9928914684D0D3200F308A52CCD12908C7528928CAA6BC76FDB0D377124917AE95B3D72495F7349D94E78D4AE4C82A1C7216A2
310
477AD9144F13502EA6C968292242AECEC68B87B359DBD82DB35723788FEE76D1ADD718769E7116F508D9213D88088AF245DDAC8A6651D4DD6BD36EEA76B37A7CA89F3675CDAA64E76C70CEE44B1803DE4D443A1BC146CA1B56A5F14FF8B28F28ED91B5F3A75F804400B9F542E796F1977C9AAE5D2EFF914F757EDF88CBE35F
310
C0BF00504B03041400060808007C6886479AF29898640700009A1B0000340000006662782F46374430394235442D423745312D344430432D383130412D3634414542333433453541442F6F626A656374732E786D6CED59DD73A33610FF5718FAD23E189BD8CE251DC24D625F6E3CD75C6FEA5EA70F9E616490891A211849E4
310
E2FEF55D7D80819804B7E9DB3DD8809056BBBFFDD412BC7FCAA8F388B92039BB727D6FE23A98C57942587AE5967237BA709DF761C0F35C36A6B90E4319BE72D5B01B0629CFCBC20E2578874A2A3BA3B7377F3A22C60CBB4E4C911057AE88EF71863C54CA3CC1E2C14B90445EBA7BF27CCF4C6C934D392AEE3B440BC43193C0
310
298C33A0E218A6FCF6E3C41D87C158BD0F03F56F674D07CD9AF5CF1A6BA9DB5C12262462F133963A64A683589AFAB3E587B3F9E5683E9B4D47B3F3337F74737BB31CF9EFA693C5F9627179FDE112D8DBE639B53225B8C02C01FDEDDDD00FC6EA4D2DBA45E018D771CE188E3590009516AB4B9060015B35E09BB41F7D2551E3
310
B596B0F13C53EF2D0B8DE1699B4ADFAC6140B4E8822076BB4AE2EADA942FDFFE05828B2146C90596C0AD901CB46BE1E1E0156E3809C666340CB6075D10E16448624E107528D972C4412930554D0903B3C09251CEC18194A324D09A33AFDBB6059EF9BAEB1CE3725752AA3CC30DB56345E07E580ACD19F91BF303F74D648027
310
90B6244C5E582EE5BEC06E78198CF56018A8CBF4CCBE34403A3B8A52A111316F3B822E94EBAF966EF8E976FBB456E1E0F8E605CF0BCCA5323AA547CD1718B2BD2A94ECB6FE20CDA905208C01D5AE3C80F21B20FF19A2C78115D01B274FB3A7999D2B39626297F30C74E34C9CD104FE268EAFFFD57DE32E18D78BDBDAEBC313
310
DC544175F1DFF16CCBA0B1B2FC37E00C834730F89C4FEDAB758C28D8F31D610090321287E63004A17DB77D72C315044E08F4B00AD1D0079181DD47B80DC696CC412B957B59AF6380A8DD633A4449009BB64860A3474F1F217B70121FD4D414B10FDEF99B98EBF572FD695DF21D8AF19DF5E925DE11462464CDE30CB5306F49
310
F480F7DF729E80A0CFF15E37F1CEEC5602D056982BE0D30A04F570D8B9B5410CEBD25C859BE0951D400895AB1BF4EF888831A588E1BCACF6ADA39B32D4DAE36DCDE0866706E2E959C784397E24AAAA00A739CC68310A793FE6A45020BAE14723591D34BD1EE9BEAE3E8345D6F37B66AD18845E86E8EF3A681DC1A165D915D2
310
16885AE0ED219CC739CD79B4DD4726D2B9504B001B6D6FF9A3451462BD5192A2021EA4FDAE0A29A991364AC86E570A88AB4758FC63B5689AC3C49BFA73A7F9DF71C619445BF05DC4ADDF75F6884886521CED50D2B75D73B79AB6D0247B4873BCA320177924721F21194D129C9E02CD49C42FDF947A4A732108C302F2D551F0
310
9B684C3C0824469B15CB4AAB1DA08988322C113D050145A6075C9D76748D1B43E9F03A8FB5F5BEA4B126D1FFC92238825A32671181521472C8AB8CFBDE1C62481B5D8372075FB0B68AB61683965042C4FBE81B26E9BD3C057543BE07F7188E24A58CF202C560D603C83EF315A5D40EEF5B143FA8FC11C5257D2B031198EE22
310
42699945F0230C4E1E435CBB0E4C2FA2D0206E629FC419146548967CC826E7F3C9B37D4CCDD00D818D8D768442D88E3254F4A0DE0A88BA1E716AF02DF51EA56ECBAC885096976C90A178D3AE3759F25DB52AB203F955A522948D15614B300C08937556AD623698BA0EACE0463A50ED2381B2829A53D82B89C7AFBD4953EEDD
310
805B3F7DDB0D3228FC7AB4D78CA8B30A06CB63AB3010DF908CEFDD70ADAFA31BA8BF139C1C527D556B362B40404C45F29213ABA2AF2B286F6C8DE68677488ACD479375ABEBD79507DD8F600C6BA076A917AE14D0196612A9CAE44EDDD0DF1084E0160D33BE5239F5142AD749A2AB46446F499F3A5B65446BD38C78C53D6679
310
063FB6212CA665823728110FD19DA4D19A28D6AD945E462A8C5F14F0D78FEB0E3C303240A42FAAC0C3DF3A6BEDE842954B4789C8FB32DB32442008B6444B8D6EBC82A556239596EBAB3A5340DD050666553CFB7EB268B623BE9F2C526B18FFE96471B3FF05ED9B7D91463A8F955D9F740CA8F393A2F216C700DD76A8A9D659
310
C424732BBF75A608826215E507576355D03004FB38FED759BB2F0B9AED3AFC9F96B5FD6715C74959A5355975A98E54AEAB660EBB9CFBB3DB5BFF72F4EEE26C399A4D6FAE47D7E7CBF9E8C3F9F9C5E5743A992DCE3FD4686A470D833A98E9DC05CF26A855C3EAC962005D59915392C0693E71520C315FC2997E40FB9C675840
310
F26C36BB13DB941FB0FAD1F43925DA525C71728FA0414C05A475C0A88C657BDCF9015A93120EDA572E348DBC07F8B356E93A9079AE5C6815481263E16DA1CDA41A7A9A38A45C9DFB2D31C007B154A544B3A87EAE57296C5AE1BF9E32240D58B95A3D0C28DC0AE87EB53A149A37CB537C92E0153B0E9270BB2D25546B4696C3
310
402D8CDEE6A07E231B25ECC16EFD04AEFBB258BEA7E7B41019F4C9E0452330544712F154F7BB156396A5EBE59731F4D99CD5AF4E41CB1474399CD2886330E6521554604560159666812498EAE2E7CD179EC3279ECCD15591F3E3D3C5F94F9B459E653933439B6B389525F0A1C859DFC3679F6403C50356CD75B1399BF8671B
310
DDD4B67DF6688B04F6545504035531A104E9981CD8E5B306956D5F8E952A3AD3574BC706D13910D5B6FBACC76B3E7239E043EA738AF218EDE795B42FF6B5C77A2AD804878E74F80F504B03041400060800007C688647000000000000000000000000350000006662782F46374430394235442D423745312D344430432D3831
310
30412D3634414542333433453541442F76657274696365732E62696E504B03041400060808007C688647F270F1330600000004000000360000006662782F46374430394235442D423745312D344430432D383130412D3634414542333433453541442F747269616E676C65732E62696E636660600000504B03041400060800
310
007C688647000000000000000000000000370000006662782F46374430394235442D423745312D344430432D383130412D3634414542333433453541442F617474726962757465732E62696E504B03041400060808007C688647D5987DFC8F00000041010000360000006662782F46374430394235442D423745312D344430
310
432D383130412D3634414542333433453541442F6469726563746F72792E786D6C858F410EC2201045AF4266AF15DDB800BA74E7C21B903225242D6328188F2FA5C4183471359997F9FF81E89FF3C41E1816475E02DF1F80A11FC8386F25A438EECEC07A250251FC3803E6F58C12560C4AD840E95E91C151A72936F496F357
310
32D860FE635F62C8F2DA16B505C545B74125BAA2FA9E05D7CC053D063734D5C7665FD55B6B8D15D5E9BFEAFD8490FFA45E504B03041400060808007C6886478F991EDEFF000000A00100003B0000006662782F46374430394235442D423745312D344430432D383130412D3634414542333433453541442F7265736F757263
310
65732F636F72652E786D6C8D504B6EC23010BD4A34DBCA891D0321C8312A1139412F60390358103BF2A7EAF1EB402AB5BB6E6646EFA3797AE2F8353D8A4FF4C138DB012B291468B51B8DBD7690E285ECA1384AE19D8BBF6450583561070B0C525CBD4BF30A696723DA9851EB465C4115024628F4231F1D047DC349952AC5AC
310
08F77256FAAEAE58B232D3592745883E07285E4F9609D26370C96B0CA27AB152A464C65563C6FCD35C0C7A90CDB0EF69BB3B9161530F6473DAEEC8FBC05BC2FBE6CCCE43C37B5E8B6A314B11CDF493517B5411479035655BC26A42771F8C1F283F6C9B37DA1E2815D522FF634AF3F84F533236F27A8DFBB205902C07791252
310
544B5F793DCBCC7BE9567E03504B010214000A00000800007C6886473DEE336E79000000790000001B00000000000000000000000000000000006175746F6465736B2D64657369676E2D7061636B6167652E786D6C504B010214001400060808007C688647D486FD9CA0000000F40000001300000000000000000000000000
310
B20000005B436F6E74656E745F54797065735D2E786D6C504B010214001400060808007C6886479C323046EC0000007C010000080000000000000000000000000083010000636F72652E786D6C504B010214001400060808007C68864755019EA25F0000007C000000070000000000000000000000000095020000636E782E
310
786D6C504B010214001400060808007C6886475601344467010000020300000C00000000000000000000000000190300006662782F636F72652E786D6C504B010214001400060808007C68864769110D0D7E0000009D0000000B00000000000000000000000000AA0400006662782F636E782E786D6C504B01021400140006
310
0808007C6886479542402F2D010000150200003100000000000000000000000000510500006662782F46374430394235442D423745312D344430432D383130412D3634414542333433453541442F636F72652E786D6C504B010214001400060808007C6886476409FCEF570100003303000030000000000000000000000000
310
00CD0600006662782F46374430394235442D423745312D344430432D383130412D3634414542333433453541442F636E782E786D6C504B010214001400060808007C6886479AF29898640700009A1B00003400000000000000000000000000720800006662782F46374430394235442D423745312D344430432D383130412D
310
3634414542333433453541442F6F626A656374732E786D6C504B010214001400060800007C6886470000000000000000000000003500000000000000000000000000281000006662782F46374430394235442D423745312D344430432D383130412D3634414542333433453541442F76657274696365732E62696E504B0102
310
14001400060808007C688647F270F133060000000400000036000000000000000000000000007B1000006662782F46374430394235442D423745312D344430432D383130412D3634414542333433453541442F747269616E676C65732E62696E504B010214001400060800007C688647000000000000000000000000370000
310
0000000000000000000000D51000006662782F46374430394235442D423745312D344430432D383130412D3634414542333433453541442F617474726962757465732E62696E504B010214001400060808007C688647D5987DFC8F0000004101000036000000000000000000000000002A1100006662782F46374430394235
310
442D423745312D344430432D383130412D3634414542333433453541442F6469726563746F72792E786D6C504B010214001400060808007C6886478F991EDEFF000000A00100003B000000000000000000000000000D1200006662782F46374430394235442D423745312D344430432D383130412D36344145423334334535
310
41442F7265736F75726365732F636F72652E786D6C504B0506000000000E000E0080040000651300000000
  0
XRECORD
  5
17
102
{ACAD_REACTORS
330
12
102
}
330
12
100
AcDbXrecord
280
     1
270
     1
271
     1
  0
XRECORD
  5
16
102
{ACAD_REACTORS
330
12
102
}
330
12
100
AcDbXrecord
280
     1
270
     1
271
     1
  0
XRECORD
  5
18
102
{ACAD_REACTORS
330
12
102
}
330
12
100
AcDbXrecord
280
     1
270
     1
271
     1
  0
XRECORD
  5
15
102
{ACAD_REACTORS
330
12
102
}
330
12
100
AcDbXrecord
280
     1
270
     1
271
     1
  0
XRECORD
  5
2FF
102
{ACAD_REACTORS
330
22
102
}
330
22
100
AcDbXrecord
280
     1
102
MATERIAL
148
0.0
149
0.0
149
0.0
 93
        0
 94
      127
282
     0
 72
     0
 77
     0
171
     0
175
     0
179
     0
273
     0
  0
XRECORD
  5
24
102
{ACAD_REACTORS
330
22
102
}
330
22
100
AcDbXrecord
280
     1
270
     1
271
     1
  0
XRECORD
  5
23
102
{ACAD_REACTORS
330
22
102
}
330
22
100
AcDbXrecord
280
     1
270
     1
271
     1
  0
XRECORD
  5
27
102
{ACAD_REACTORS
330
22
102
}
330
22
100
AcDbXrecord
280
     1
270
     1
271
     1
  0
XRECORD
  5
26
102
{ACAD_REACTORS
330
22
102
}
330
22
100
AcDbXrecord
280
     1
270
     1
271
     1
  0
XRECORD
  5
28
102
{ACAD_REACTORS
330
22
102
}
330
22
100
AcDbXrecord
280
     1
270
     1
271
     1
  0
XRECORD
  5
25
102
{ACAD_REACTORS
330
22
102
}
330
22
100
AcDbXrecord
280
     1
270
     1
271
     1
  0
XRECORD
  5
2F5
102
{ACAD_REACTORS
330
2F4
102
}
330
2F4
100
AcDbXrecord
280
     1
102
ACAD_ROUNDTRIP_2012_MLEADER_STYLE
298
     1
  0
CELLSTYLEMAP
  5
2F3
102
{ACAD_REACTORS
330
2F2
102
}
330
2F2
100
AcDbCellStyleMap
 90
        3
300
CELLSTYLE
  1
TABLEFORMAT_BEGIN
 90
        5
170
     1
 91
        0
 92
    32768
 62
   257
 93
        1
300
CONTENTFORMAT
  1
CONTENTFORMAT_BEGIN
 90
        0
 91
        0
 92
      512
 93
        0
300

 40
0.0
140
1.0
 94
        5
 62
     0
340
55
144
0.25
309
CONTENTFORMAT_END
171
     0
 94
        0
309
TABLEFORMAT_END
  1
CELLSTYLE_BEGIN
 90
        1
 91
        1
300
_TITLE
309
CELLSTYLE_END
300
CELLSTYLE
  1
TABLEFORMAT_BEGIN
 90
        5
170
     1
 91
        0
 92
        0
 62
   257
 93
        1
300
CONTENTFORMAT
  1
CONTENTFORMAT_BEGIN
 90
        0
 91
        0
 92
      512
 93
        0
300

 40
0.0
140
1.0
 94
        5
 62
     0
340
55
144
0.18
309
CONTENTFORMAT_END
171
     0
 94
        0
309
TABLEFORMAT_END
  1
CELLSTYLE_BEGIN
 90
        2
 91
        1
300
_HEADER
309
CELLSTYLE_END
300
CELLSTYLE
  1
TABLEFORMAT_BEGIN
 90
        5
170
     1
 91
        0
 92
        0
 62
   257
 93
        1
300
CONTENTFORMAT
  1
CONTENTFORMAT_BEGIN
 90
        0
 91
        0
 92
      512
 93
        0
300

 40
0.0
140
1.0
 94
        2
 62
     0
340
55
144
0.18
309
CONTENTFORMAT_END
171
     0
 94
        0
309
TABLEFORMAT_END
  1
CELLSTYLE_BEGIN
 90
        3
 91
        2
300
_DATA
309
CELLSTYLE_END
  0
XRECORD
  5
330
102
{ACAD_REACTORS
330
2F2
102
}
330
2F2
100
AcDbXrecord
280
     1
102
ACAD_ROUNDTRIP_PRE2007_TABLESTYLE
 90
      512
 91
        0
  1

 92
      512
 93
        0
  2

 94
      512
 95
        0
  3

  0
XRECORD
  5
30B
102
{ACAD_REACTORS
330
30A
102
}
330
30A
100
AcDbXrecord
280
     1
102
RTVSPropertyOp0
 70
     1
102
RTVSPropertyOp1
 70
     1
102
RTVSPropertyOp2
 70
     1
102
RTVSPropertyOp3
 70
     1
102
RTVSPropertyOp4
 70
     1
102
RTVSPropertyOp5
 70
     1
102
RTVSPropertyOp6
 70
     1
102
RTVSPropertyOp7
 70
     1
102
RTVSPropertyOp8
 70
     1
102
RTVSPropertyOp9
 70
     1
102
RTVSPropertyOp10
 70
     1
102
RTVSPropertyOp11
 70
     1
102
RTVSPropertyOp12
 70
     1
102
RTVSPropertyOp13
 70
     1
102
RTVSPropertyOp14
 70
     1
102
RTVSPropertyOp15
 70
     1
102
RTVSPropertyOp16
 70
     1
102
RTVSPropertyOp17
 70
     1
102
RTVSPropertyOp18
 70
     1
102
RTVSPropertyOp19
 70
     1
102
RTVSPropertyOp20
 70
     1
102
RTVSPropertyOp21
 70
     1
102
RTVSPropertyOp22
 70
     1
102
RTVSPropertyOp23
 70
     1
102
RTVSPropertyOp24
 70
     1
102
RTVSPropertyOp25
 70
     1
102
RTVSPropertyOp26
 70
     1
102
RTVSPropertyOp27
 70
     1
102
RTVSPropertyOp28
 70
     1
102
RTVSPropertyOp29
 70
     1
102
RTVSPropertyOp30
 70
     1
102
RTVSPropertyOp31
 70
     1
102
RTVSPropertyOp32
 70
     1
  0
XRECORD
  5
309
102
{ACAD_REACTORS
330
308
102
}
330
308
100
AcDbXrecord
280
     1
102
RTVSPropertyOp0
 70
     1
102
RTVSPropertyOp1
 70
     1
102
RTVSPropertyOp2
 70
     1
102
RTVSPropertyOp3
 70
     1
102
RTVSPropertyOp4
 70
     1
102
RTVSPropertyOp5
 70
     1
102
RTVSPropertyOp6
 70
     1
102
RTVSPropertyOp7
 70
     1
102
RTVSPropertyOp8
 70
     1
102
RTVSPropertyOp9
 70
     1
102
RTVSPropertyOp10
 70
     1
102
RTVSPropertyOp11
 70
     1
102
RTVSPropertyOp12
 70
     1
102
RTVSPropertyOp13
 70
     1
102
RTVSPropertyOp14
 70
     1
102
RTVSPropertyOp15
 70
     1
102
RTVSPropertyOp16
 70
     1
102
RTVSPropertyOp17
 70
     1
102
RTVSPropertyOp18
 70
     1
102
RTVSPropertyOp19
 70
     1
102
RTVSPropertyOp20
 70
     1
102
RTVSPropertyOp21
 70
     1
102
RTVSPropertyOp22
 70
     1
102
RTVSPropertyOp23
 70
     1
102
RTVSPropertyOp24
 70
     1
102
RTVSPropertyOp25
 70
     1
102
RTVSPropertyOp26
 70
     1
102
RTVSPropertyOp27
 70
     1
102
RTVSPropertyOp28
 70
     1
102
RTVSPropertyOp29
 70
     1
102
RTVSPropertyOp30
 70
     1
102
RTVSPropertyOp31
 70
     1
102
RTVSPropertyOp32
 70
     1
  0
XRECORD
  5
317
102
{ACAD_REACTORS
330
316
102
}
330
316
100
AcDbXrecord
280
     1
102
RTVSPropertyOp0
 70
     1
102
RTVSPropertyOp1
 70
     1
102
RTVSPropertyOp2
 70
     1
102
RTVSPropertyOp3
 70
     1
102
RTVSPropertyOp4
 70
     1
102
RTVSPropertyOp5
 70
     1
102
RTVSPropertyOp6
 70
     1
102
RTVSPropertyOp7
 70
     1
102
RTVSPropertyOp8
 70
     1
102
RTVSPropertyOp9
 70
     1
102
RTVSPropertyOp10
 70
     1
102
RTVSPropertyOp11
 70
     1
102
RTVSPropertyOp12
 70
     1
102
RTVSPropertyOp13
 70
     1
102
RTVSPropertyOp14
 70
     1
102
RTVSPropertyOp15
 70
     1
102
RTVSPropertyOp16
 70
     1
102
RTVSPropertyOp17
 70
     1
102
RTVSPropertyOp18
 70
     1
102
RTVSPropertyOp19
 70
     1
102
RTVSPropertyOp20
 70
     1
102
RTVSPropertyOp21
 70
     1
102
RTVSPropertyOp22
 70
     1
102
RTVSPropertyOp23
 70
     1
102
RTVSPropertyOp24
 70
     1
102
RTVSPropertyOp25
 70
     1
102
RTVSPropertyOp26
 70
     1
102
RTVSPropertyOp27
 70
     1
102
RTVSPropertyOp28
 70
     1
102
RTVSPropertyOp29
 70
     1
102
RTVSPropertyOp30
 70
     1
102
RTVSPropertyOp31
 70
     1
102
RTVSPropertyOp32
 70
     1
  0
XRECORD
  5
31F
102
{ACAD_REACTORS
330
31E
102
}
330
31E
100
AcDbXrecord
280
     1
102
RTVSPropertyOp0
 70
     1
102
RTVSPropertyOp1
 70
     1
102
RTVSPropertyOp2
 70
     1
102
RTVSPropertyOp3
 70
     1
102
RTVSPropertyOp4
 70
     1
102
RTVSPropertyOp5
 70
     1
102
RTVSPropertyOp6
 70
     1
102
RTVSPropertyOp7
 70
     1
102
RTVSPropertyOp8
 70
     1
102
RTVSPropertyOp9
 70
     1
102
RTVSPropertyOp10
 70
     1
102
RTVSPropertyOp11
 70
     1
102
RTVSPropertyOp12
 70
     1
102
RTVSPropertyOp13
 70
     1
102
RTVSPropertyOp14
 70
     1
102
RTVSPropertyOp15
 70
     1
102
RTVSPropertyOp16
 70
     1
102
RTVSPropertyOp17
 70
     1
102
RTVSPropertyOp18
 70
     1
102
RTVSPropertyOp19
 70
     1
102
RTVSPropertyOp20
 70
     1
102
RTVSPropertyOp21
 70
     1
102
RTVSPropertyOp22
 70
     1
102
RTVSPropertyOp23
 70
     1
102
RTVSPropertyOp24
 70
     1
102
RTVSPropertyOp25
 70
     1
102
RTVSPropertyOp26
 70
     1
102
RTVSPropertyOp27
 70
     1
102
RTVSPropertyOp28
 70
     1
102
RTVSPropertyOp29
 70
     1
102
RTVSPropertyOp30
 70
     1
102
RTVSPropertyOp31
 70
     1
102
RTVSPropertyOp32
 70
     1
  0
XRECORD
  5
311
102
{ACAD_REACTORS
330
310
102
}
330
310
100
AcDbXrecord
280
     1
102
RTVSPropertyOp0
 70
     1
102
RTVSPropertyOp1
 70
     1
102
RTVSPropertyOp2
 70
     1
102
RTVSPropertyOp3
 70
     1
102
RTVSPropertyOp4
 70
     1
102
RTVSPropertyOp5
 70
     1
102
RTVSPropertyOp6
 70
     1
102
RTVSPropertyOp7
 70
     1
102
RTVSPropertyOp8
 70
     1
102
RTVSPropertyOp9
 70
     1
102
RTVSPropertyOp10
 70
     1
102
RTVSPropertyOp11
 70
     1
102
RTVSPropertyOp12
 70
     1
102
RTVSPropertyOp13
 70
     1
102
RTVSPropertyOp14
 70
     1
102
RTVSPropertyOp15
 70
     1
102
RTVSPropertyOp16
 70
     1
102
RTVSPropertyOp17
 70
     1
102
RTVSPropertyOp18
 70
     1
102
RTVSPropertyOp19
 70
     1
102
RTVSPropertyOp20
 70
     1
102
RTVSPropertyOp21
 70
     1
102
RTVSPropertyOp22
 70
     1
102
RTVSPropertyOp23
 70
     1
102
RTVSPropertyOp24
 70
     1
102
RTVSPropertyOp25
 70
     1
102
RTVSPropertyOp26
 70
     1
102
RTVSPropertyOp27
 70
     1
102
RTVSPropertyOp28
 70
     1
102
RTVSPropertyOp29
 70
     1
102
RTVSPropertyOp30
 70
     1
102
RTVSPropertyOp31
 70
     1
102
RTVSPropertyOp32
 70
     1
  0
XRECORD
  5
315
102
{ACAD_REACTORS
330
314
102
}
330
314
100
AcDbXrecord
280
     1
102
RTVSPropertyOp0
 70
     1
102
RTVSPropertyOp1
 70
     1
102
RTVSPropertyOp2
 70
     1
102
RTVSPropertyOp3
 70
     1
102
RTVSPropertyOp4
 70
     1
102
RTVSPropertyOp5
 70
     1
102
RTVSPropertyOp6
 70
     1
102
RTVSPropertyOp7
 70
     1
102
RTVSPropertyOp8
 70
     1
102
RTVSPropertyOp9
 70
     1
102
RTVSPropertyOp10
 70
     1
102
RTVSPropertyOp11
 70
     1
102
RTVSPropertyOp12
 70
     1
102
RTVSPropertyOp13
 70
     1
102
RTVSPropertyOp14
 70
     1
102
RTVSPropertyOp15
 70
     1
102
RTVSPropertyOp16
 70
     1
102
RTVSPropertyOp17
 70
     1
102
RTVSPropertyOp18
 70
     1
102
RTVSPropertyOp19
 70
     1
102
RTVSPropertyOp20
 70
     1
102
RTVSPropertyOp21
 70
     1
102
RTVSPropertyOp22
 70
     1
102
RTVSPropertyOp23
 70
     1
102
RTVSPropertyOp24
 70
     1
102
RTVSPropertyOp25
 70
     1
102
RTVSPropertyOp26
 70
     1
102
RTVSPropertyOp27
 70
     1
102
RTVSPropertyOp28
 70
     1
102
RTVSPropertyOp29
 70
     1
102
RTVSPropertyOp30
 70
     1
102
RTVSPropertyOp31
 70
     1
102
RTVSPropertyOp32
 70
     1
  0
XRECORD
  5
32F
102
{ACAD_REACTORS
330
32E
102
}
330
32E
100
AcDbXrecord
280
     1
102
RTVSPropertyOp0
 70
     0
102
RTVSPropertyOp1
 70
     0
102
RTVSPropertyOp2
 70
     0
102
RTVSPropertyOp3
 70
     0
102
RTVSPropertyOp4
 70
     0
102
RTVSPropertyOp5
 70
     0
102
RTVSPropertyOp6
 70
     0
102
RTVSPropertyOp7
 70
     0
102
RTVSPropertyOp8
 70
     0
102
RTVSPropertyOp9
 70
     0
102
RTVSPropertyOp10
 70
     0
102
RTVSPropertyOp11
 70
     0
102
RTVSPropertyOp12
 70
     0
102
RTVSPropertyOp13
 70
     0
102
RTVSPropertyOp14
 70
     2
102
RTVSPropertyOp15
 70
     0
102
RTVSPropertyOp16
 70
     0
102
RTVSPropertyOp17
 70
     0
102
RTVSPropertyOp18
 70
     0
102
RTVSPropertyOp19
 70
     0
102
RTVSPropertyOp20
 70
     0
102
RTVSPropertyOp21
 70
     0
102
RTVSPropertyOp22
 70
     0
102
RTVSPropertyOp23
 70
     0
102
RTVSPropertyOp24
 70
     0
102
RTVSPropertyOp25
 70
     0
102
RTVSPropertyOp26
 70
     0
102
RTVSPropertyOp27
 70
     0
102
RTVSPropertyOp28
 70
     0
102
RTVSPropertyOp29
 70
     0
102
RTVSPropertyOp30
 70
     0
102
RTVSPropertyOp31
 70
     0
102
RTVSPropertyOp32
 70
     0
  0
XRECORD
  5
31D
102
{ACAD_REACTORS
330
31C
102
}
330
31C
100
AcDbXrecord
280
     1
102
RTVSPropertyOp0
 70
     1
102
RTVSPropertyOp1
 70
     1
102
RTVSPropertyOp2
 70
     1
102
RTVSPropertyOp3
 70
     1
102
RTVSPropertyOp4
 70
     1
102
RTVSPropertyOp5
 70
     1
102
RTVSPropertyOp6
 70
     1
102
RTVSPropertyOp7
 70
     1
102
RTVSPropertyOp8
 70
     1
102
RTVSPropertyOp9
 70
     1
102
RTVSPropertyOp10
 70
     1
102
RTVSPropertyOp11
 70
     1
102
RTVSPropertyOp12
 70
     1
102
RTVSPropertyOp13
 70
     1
102
RTVSPropertyOp14
 70
     1
102
RTVSPropertyOp15
 70
     1
102
RTVSPropertyOp16
 70
     1
102
RTVSPropertyOp17
 70
     1
102
RTVSPropertyOp18
 70
     1
102
RTVSPropertyOp19
 70
     1
102
RTVSPropertyOp20
 70
     1
102
RTVSPropertyOp21
 70
     1
102
RTVSPropertyOp22
 70
     1
102
RTVSPropertyOp23
 70
     1
102
RTVSPropertyOp24
 70
     1
102
RTVSPropertyOp25
 70
     1
102
RTVSPropertyOp26
 70
     1
102
RTVSPropertyOp27
 70
     1
102
RTVSPropertyOp28
 70
     1
102
RTVSPropertyOp29
 70
     1
102
RTVSPropertyOp30
 70
     1
102
RTVSPropertyOp31
 70
     1
102
RTVSPropertyOp32
 70
     1
  0
XRECORD
  5
301
102
{ACAD_REACTORS
330
300
102
}
330
300
100
AcDbXrecord
280
     1
102
RTVSPropertyOp0
 70
     1
102
RTVSPropertyOp1
 70
     1
102
RTVSPropertyOp2
 70
     1
102
RTVSPropertyOp3
 70
     1
102
RTVSPropertyOp4
 70
     1
102
RTVSPropertyOp5
 70
     1
102
RTVSPropertyOp6
 70
     1
102
RTVSPropertyOp7
 70
     1
102
RTVSPropertyOp8
 70
     1
102
RTVSPropertyOp9
 70
     1
102
RTVSPropertyOp10
 70
     1
102
RTVSPropertyOp11
 70
     1
102
RTVSPropertyOp12
 70
     1
102
RTVSPropertyOp13
 70
     1
102
RTVSPropertyOp14
 70
     1
102
RTVSPropertyOp15
 70
     1
102
RTVSPropertyOp16
 70
     1
102
RTVSPropertyOp17
 70
     1
102
RTVSPropertyOp18
 70
     1
102
RTVSPropertyOp19
 70
     1
102
RTVSPropertyOp20
 70
     1
102
RTVSPropertyOp21
 70
     1
102
RTVSPropertyOp22
 70
     1
102
RTVSPropertyOp23
 70
     1
102
RTVSPropertyOp24
 70
     1
102
RTVSPropertyOp25
 70
     1
102
RTVSPropertyOp26
 70
     1
102
RTVSPropertyOp27
 70
     1
102
RTVSPropertyOp28
 70
     1
102
RTVSPropertyOp29
 70
     1
102
RTVSPropertyOp30
 70
     1
102
RTVSPropertyOp31
 70
     1
102
RTVSPropertyOp32
 70
     1
  0
XRECORD
  5
303
102
{ACAD_REACTORS
330
302
102
}
330
302
100
AcDbXrecord
280
     1
102
RTVSPropertyOp0
 70
     1
102
RTVSPropertyOp1
 70
     1
102
RTVSPropertyOp2
 70
     1
102
RTVSPropertyOp3
 70
     1
102
RTVSPropertyOp4
 70
     1
102
RTVSPropertyOp5
 70
     1
102
RTVSPropertyOp6
 70
     1
102
RTVSPropertyOp7
 70
     1
102
RTVSPropertyOp8
 70
     1
102
RTVSPropertyOp9
 70
     1
102
RTVSPropertyOp10
 70
     1
102
RTVSPropertyOp11
 70
     1
102
RTVSPropertyOp12
 70
     1
102
RTVSPropertyOp13
 70
     1
102
RTVSPropertyOp14
 70
     1
102
RTVSPropertyOp15
 70
     1
102
RTVSPropertyOp16
 70
     1
102
RTVSPropertyOp17
 70
     1
102
RTVSPropertyOp18
 70
     1
102
RTVSPropertyOp19
 70
     1
102
RTVSPropertyOp20
 70
     1
102
RTVSPropertyOp21
 70
     1
102
RTVSPropertyOp22
 70
     1
102
RTVSPropertyOp23
 70
     1
102
RTVSPropertyOp24
 70
     1
102
RTVSPropertyOp25
 70
     1
102
RTVSPropertyOp26
 70
     1
102
RTVSPropertyOp27
 70
     1
102
RTVSPropertyOp28
 70
     1
102
RTVSPropertyOp29
 70
     1
102
RTVSPropertyOp30
 70
     1
102
RTVSPropertyOp31
 70
     1
102
RTVSPropertyOp32
 70
     1
  0
XRECORD
  5
305
102
{ACAD_REACTORS
330
304
102
}
330
304
100
AcDbXrecord
280
     1
102
RTVSPropertyOp0
 70
     1
102
RTVSPropertyOp1
 70
     1
102
RTVSPropertyOp2
 70
     1
102
RTVSPropertyOp3
 70
     1
102
RTVSPropertyOp4
 70
     1
102
RTVSPropertyOp5
 70
     1
102
RTVSPropertyOp6
 70
     1
102
RTVSPropertyOp7
 70
     1
102
RTVSPropertyOp8
 70
     1
102
RTVSPropertyOp9
 70
     1
102
RTVSPropertyOp10
 70
     1
102
RTVSPropertyOp11
 70
     1
102
RTVSPropertyOp12
 70
     1
102
RTVSPropertyOp13
 70
     1
102
RTVSPropertyOp14
 70
     1
102
RTVSPropertyOp15
 70
     1
102
RTVSPropertyOp16
 70
     1
102
RTVSPropertyOp17
 70
     1
102
RTVSPropertyOp18
 70
     1
102
RTVSPropertyOp19
 70
     1
102
RTVSPropertyOp20
 70
     1
102
RTVSPropertyOp21
 70
     1
102
RTVSPropertyOp22
 70
     1
102
RTVSPropertyOp23
 70
     1
102
RTVSPropertyOp24
 70
     1
102
RTVSPropertyOp25
 70
     1
102
RTVSPropertyOp26
 70
     1
102
RTVSPropertyOp27
 70
     1
102
RTVSPropertyOp28
 70
     1
102
RTVSPropertyOp29
 70
     1
102
RTVSPropertyOp30
 70
     1
102
RTVSPropertyOp31
 70
     1
102
RTVSPropertyOp32
 70
     1
  0
XRECORD
  5
307
102
{ACAD_REACTORS
330
306
102
}
330
306
100
AcDbXrecord
280
     1
102
RTVSPropertyOp0
 70
     1
102
RTVSPropertyOp1
 70
     1
102
RTVSPropertyOp2
 70
     1
102
RTVSPropertyOp3
 70
     1
102
RTVSPropertyOp4
 70
     1
102
RTVSPropertyOp5
 70
     1
102
RTVSPropertyOp6
 70
     1
102
RTVSPropertyOp7
 70
     1
102
RTVSPropertyOp8
 70
     1
102
RTVSPropertyOp9
 70
     1
102
RTVSPropertyOp10
 70
     1
102
RTVSPropertyOp11
 70
     1
102
RTVSPropertyOp12
 70
     1
102
RTVSPropertyOp13
 70
     1
102
RTVSPropertyOp14
 70
     1
102
RTVSPropertyOp15
 70
     1
102
RTVSPropertyOp16
 70
     1
102
RTVSPropertyOp17
 70
     1
102
RTVSPropertyOp18
 70
     1
102
RTVSPropertyOp19
 70
     1
102
RTVSPropertyOp20
 70
     1
102
RTVSPropertyOp21
 70
     1
102
RTVSPropertyOp22
 70
     1
102
RTVSPropertyOp23
 70
     1
102
RTVSPropertyOp24
 70
     1
102
RTVSPropertyOp25
 70
     1
102
RTVSPropertyOp26
 70
     1
102
RTVSPropertyOp27
 70
     1
102
RTVSPropertyOp28
 70
     1
102
RTVSPropertyOp29
 70
     1
102
RTVSPropertyOp30
 70
     1
102
RTVSPropertyOp31
 70
     1
102
RTVSPropertyOp32
 70
     1
  0
XRECORD
  5
30F
102
{ACAD_REACTORS
330
30E
102
}
330
30E
100
AcDbXrecord
280
     1
102
RTVSPropertyOp0
 70
     1
102
RTVSPropertyOp1
 70
     1
102
RTVSPropertyOp2
 70
     1
102
RTVSPropertyOp3
 70
     1
102
RTVSPropertyOp4
 70
     1
102
RTVSPropertyOp5
 70
     1
102
RTVSPropertyOp6
 70
     1
102
RTVSPropertyOp7
 70
     1
102
RTVSPropertyOp8
 70
     1
102
RTVSPropertyOp9
 70
     1
102
RTVSPropertyOp10
 70
     1
102
RTVSPropertyOp11
 70
     1
102
RTVSPropertyOp12
 70
     1
102
RTVSPropertyOp13
 70
     1
102
RTVSPropertyOp14
 70
     1
102
RTVSPropertyOp15
 70
     1
102
RTVSPropertyOp16
 70
     1
102
RTVSPropertyOp17
 70
     1
102
RTVSPropertyOp18
 70
     1
102
RTVSPropertyOp19
 70
     1
102
RTVSPropertyOp20
 70
     1
102
RTVSPropertyOp21
 70
     1
102
RTVSPropertyOp22
 70
     1
102
RTVSPropertyOp23
 70
     1
102
RTVSPropertyOp24
 70
     1
102
RTVSPropertyOp25
 70
     1
102
RTVSPropertyOp26
 70
     1
102
RTVSPropertyOp27
 70
     1
102
RTVSPropertyOp28
 70
     1
102
RTVSPropertyOp29
 70
     1
102
RTVSPropertyOp30
 70
     1
102
RTVSPropertyOp31
 70
     1
102
RTVSPropertyOp32
 70
     1
  0
XRECORD
  5
32B
102
{ACAD_REACTORS
330
32A
102
}
330
32A
100
AcDbXrecord
280
     1
102
RTVSPropertyOp0
 70
     0
102
RTVSPropertyOp1
 70
     0
102
RTVSPropertyOp2
 70
     0
102
RTVSPropertyOp3
 70
     0
102
RTVSPropertyOp4
 70
     0
102
RTVSPropertyOp5
 70
     0
102
RTVSPropertyOp6
 70
     0
102
RTVSPropertyOp7
 70
     0
102
RTVSPropertyOp8
 70
     0
102
RTVSPropertyOp9
 70
     0
102
RTVSPropertyOp10
 70
     0
102
RTVSPropertyOp11
 70
     0
102
RTVSPropertyOp12
 70
     0
102
RTVSPropertyOp13
 70
     0
102
RTVSPropertyOp14
 70
     2
102
RTVSPropertyOp15
 70
     0
102
RTVSPropertyOp16
 70
     0
102
RTVSPropertyOp17
 70
     0
102
RTVSPropertyOp18
 70
     0
102
RTVSPropertyOp19
 70
     0
102
RTVSPropertyOp20
 70
     0
102
RTVSPropertyOp21
 70
     0
102
RTVSPropertyOp22
 70
     0
102
RTVSPropertyOp23
 70
     0
102
RTVSPropertyOp24
 70
     0
102
RTVSPropertyOp25
 70
     0
102
RTVSPropertyOp26
 70
     0
102
RTVSPropertyOp27
 70
     0
102
RTVSPropertyOp28
 70
     0
102
RTVSPropertyOp29
 70
     0
102
RTVSPropertyOp30
 70
     0
102
RTVSPropertyOp31
 70
     0
102
RTVSPropertyOp32
 70
     0
  0
XRECORD
  5
31B
102
{ACAD_REACTORS
330
31A
102
}
330
31A
100
AcDbXrecord
280
     1
102
RTVSPropertyOp0
 70
     1
102
RTVSPropertyOp1
 70
     1
102
RTVSPropertyOp2
 70
     1
102
RTVSPropertyOp3
 70
     1
102
RTVSPropertyOp4
 70
     1
102
RTVSPropertyOp5
 70
     1
102
RTVSPropertyOp6
 70
     1
102
RTVSPropertyOp7
 70
     1
102
RTVSPropertyOp8
 70
     1
102
RTVSPropertyOp9
 70
     1
102
RTVSPropertyOp10
 70
     1
102
RTVSPropertyOp11
 70
     1
102
RTVSPropertyOp12
 70
     1
102
RTVSPropertyOp13
 70
     1
102
RTVSPropertyOp14
 70
     1
102
RTVSPropertyOp15
 70
     1
102
RTVSPropertyOp16
 70
     1
102
RTVSPropertyOp17
 70
     1
102
RTVSPropertyOp18
 70
     1
102
RTVSPropertyOp19
 70
     1
102
RTVSPropertyOp20
 70
     1
102
RTVSPropertyOp21
 70
     1
102
RTVSPropertyOp22
 70
     1
102
RTVSPropertyOp23
 70
     1
102
RTVSPropertyOp24
 70
     1
102
RTVSPropertyOp25
 70
     1
102
RTVSPropertyOp26
 70
     1
102
RTVSPropertyOp27
 70
     1
102
RTVSPropertyOp28
 70
     1
102
RTVSPropertyOp29
 70
     1
102
RTVSPropertyOp30
 70
     1
102
RTVSPropertyOp31
 70
     1
102
RTVSPropertyOp32
 70
     1
  0
XRECORD
  5
32D
102
{ACAD_REACTORS
330
32C
102
}
330
32C
100
AcDbXrecord
280
     1
102
RTVSPropertyOp0
 70
     0
102
RTVSPropertyOp1
 70
     0
102
RTVSPropertyOp2
 70
     0
102
RTVSPropertyOp3
 70
     0
102
RTVSPropertyOp4
 70
     0
102
RTVSPropertyOp5
 70
     0
102
RTVSPropertyOp6
 70
     0
102
RTVSPropertyOp7
 70
     0
102
RTVSPropertyOp8
 70
     0
102
RTVSPropertyOp9
 70
     0
102
RTVSPropertyOp10
 70
     0
102
RTVSPropertyOp11
 70
     0
102
RTVSPropertyOp12
 70
     0
102
RTVSPropertyOp13
 70
     0
102
RTVSPropertyOp14
 70
     2
102
RTVSPropertyOp15
 70
     0
102
RTVSPropertyOp16
 70
     0
102
RTVSPropertyOp17
 70
     0
102
RTVSPropertyOp18
 70
     0
102
RTVSPropertyOp19
 70
     0
102
RTVSPropertyOp20
 70
     0
102
RTVSPropertyOp21
 70
     0
102
RTVSPropertyOp22
 70
     0
102
RTVSPropertyOp23
 70
     0
102
RTVSPropertyOp24
 70
     0
102
RTVSPropertyOp25
 70
     0
102
RTVSPropertyOp26
 70
     0
102
RTVSPropertyOp27
 70
     0
102
RTVSPropertyOp28
 70
     0
102
RTVSPropertyOp29
 70
     0
102
RTVSPropertyOp30
 70
     0
102
RTVSPropertyOp31
 70
     0
102
RTVSPropertyOp32
 70
     0
  0
XRECORD
  5
313
102
{ACAD_REACTORS
330
312
102
}
330
312
100
AcDbXrecord
280
     1
102
RTVSPropertyOp0
 70
     1
102
RTVSPropertyOp1
 70
     1
102
RTVSPropertyOp2
 70
     1
102
RTVSPropertyOp3
 70
     1
102
RTVSPropertyOp4
 70
     1
102
RTVSPropertyOp5
 70
     1
102
RTVSPropertyOp6
 70
     1
102
RTVSPropertyOp7
 70
     1
102
RTVSPropertyOp8
 70
     1
102
RTVSPropertyOp9
 70
     1
102
RTVSPropertyOp10
 70
     1
102
RTVSPropertyOp11
 70
     1
102
RTVSPropertyOp12
 70
     1
102
RTVSPropertyOp13
 70
     1
102
RTVSPropertyOp14
 70
     1
102
RTVSPropertyOp15
 70
     1
102
RTVSPropertyOp16
 70
     1
102
RTVSPropertyOp17
 70
     1
102
RTVSPropertyOp18
 70
     1
102
RTVSPropertyOp19
 70
     1
102
RTVSPropertyOp20
 70
     1
102
RTVSPropertyOp21
 70
     1
102
RTVSPropertyOp22
 70
     1
102
RTVSPropertyOp23
 70
     1
102
RTVSPropertyOp24
 70
     1
102
RTVSPropertyOp25
 70
     1
102
RTVSPropertyOp26
 70
     1
102
RTVSPropertyOp27
 70
     1
102
RTVSPropertyOp28
 70
     1
102
RTVSPropertyOp29
 70
     1
102
RTVSPropertyOp30
 70
     1
102
RTVSPropertyOp31
 70
     1
102
RTVSPropertyOp32
 70
     1
  0
XRECORD
  5
329
102
{ACAD_REACTORS
330
328
102
}
330
328
100
AcDbXrecord
280
     1
102
RTVSPropertyOp0
 70
     1
102
RTVSPropertyOp1
 70
     1
102
RTVSPropertyOp2
 70
     1
102
RTVSPropertyOp3
 70
     1
102
RTVSPropertyOp4
 70
     1
102
RTVSPropertyOp5
 70
     1
102
RTVSPropertyOp6
 70
     1
102
RTVSPropertyOp7
 70
     1
102
RTVSPropertyOp8
 70
     1
102
RTVSPropertyOp9
 70
     1
102
RTVSPropertyOp10
 70
     1
102
RTVSPropertyOp11
 70
     1
102
RTVSPropertyOp12
 70
     1
102
RTVSPropertyOp13
 70
     1
102
RTVSPropertyOp14
 70
     1
102
RTVSPropertyOp15
 70
     1
102
RTVSPropertyOp16
 70
     1
102
RTVSPropertyOp17
 70
     1
102
RTVSPropertyOp18
 70
     1
102
RTVSPropertyOp19
 70
     1
102
RTVSPropertyOp20
 70
     1
102
RTVSPropertyOp21
 70
     1
102
RTVSPropertyOp22
 70
     1
102
RTVSPropertyOp23
 70
     1
102
RTVSPropertyOp24
 70
     1
102
RTVSPropertyOp25
 70
     1
102
RTVSPropertyOp26
 70
     1
102
RTVSPropertyOp27
 70
     1
102
RTVSPropertyOp28
 70
     1
102
RTVSPropertyOp29
 70
     1
102
RTVSPropertyOp30
 70
     1
102
RTVSPropertyOp31
 70
     1
102
RTVSPropertyOp32
 70
     1
  0
XRECORD
  5
327
102
{ACAD_REACTORS
330
326
102
}
330
326
100
AcDbXrecord
280
     1
102
RTVSPropertyOp0
 70
     1
102
RTVSPropertyOp1
 70
     1
102
RTVSPropertyOp2
 70
     1
102
RTVSPropertyOp3
 70
     1
102
RTVSPropertyOp4
 70
     1
102
RTVSPropertyOp5
 70
     1
102
RTVSPropertyOp6
 70
     1
102
RTVSPropertyOp7
 70
     1
102
RTVSPropertyOp8
 70
     1
102
RTVSPropertyOp9
 70
     1
102
RTVSPropertyOp10
 70
     1
102
RTVSPropertyOp11
 70
     1
102
RTVSPropertyOp12
 70
     1
102
RTVSPropertyOp13
 70
     1
102
RTVSPropertyOp14
 70
     1
102
RTVSPropertyOp15
 70
     1
102
RTVSPropertyOp16
 70
     1
102
RTVSPropertyOp17
 70
     1
102
RTVSPropertyOp18
 70
     1
102
RTVSPropertyOp19
 70
     1
102
RTVSPropertyOp20
 70
     1
102
RTVSPropertyOp21
 70
     1
102
RTVSPropertyOp22
 70
     1
102
RTVSPropertyOp23
 70
     1
102
RTVSPropertyOp24
 70
     1
102
RTVSPropertyOp25
 70
     1
102
RTVSPropertyOp26
 70
     1
102
RTVSPropertyOp27
 70
     1
102
RTVSPropertyOp28
 70
     1
102
RTVSPropertyOp29
 70
     1
102
RTVSPropertyOp30
 70
     1
102
RTVSPropertyOp31
 70
     1
102
RTVSPropertyOp32
 70
     1
  0
XRECORD
  5
321
102
{ACAD_REACTORS
330
320
102
}
330
320
100
AcDbXrecord
280
     1
102
RTVSPropertyOp0
 70
     1
102
RTVSPropertyOp1
 70
     1
102
RTVSPropertyOp2
 70
     1
102
RTVSPropertyOp3
 70
     1
102
RTVSPropertyOp4
 70
     1
102
RTVSPropertyOp5
 70
     1
102
RTVSPropertyOp6
 70
     1
102
RTVSPropertyOp7
 70
     1
102
RTVSPropertyOp8
 70
     1
102
RTVSPropertyOp9
 70
     1
102
RTVSPropertyOp10
 70
     1
102
RTVSPropertyOp11
 70
     1
102
RTVSPropertyOp12
 70
     1
102
RTVSPropertyOp13
 70
     1
102
RTVSPropertyOp14
 70
     1
102
RTVSPropertyOp15
 70
     1
102
RTVSPropertyOp16
 70
     1
102
RTVSPropertyOp17
 70
     1
102
RTVSPropertyOp18
 70
     1
102
RTVSPropertyOp19
 70
     1
102
RTVSPropertyOp20
 70
     1
102
RTVSPropertyOp21
 70
     1
102
RTVSPropertyOp22
 70
     1
102
RTVSPropertyOp23
 70
     1
102
RTVSPropertyOp24
 70
     1
102
RTVSPropertyOp25
 70
     1
102
RTVSPropertyOp26
 70
     1
102
RTVSPropertyOp27
 70
     1
102
RTVSPropertyOp28
 70
     1
102
RTVSPropertyOp29
 70
     1
102
RTVSPropertyOp30
 70
     1
102
RTVSPropertyOp31
 70
     1
102
RTVSPropertyOp32
 70
     1
  0
XRECORD
  5
323
102
{ACAD_REACTORS
330
322
102
}
330
322
100
AcDbXrecord
280
     1
102
RTVSPropertyOp0
 70
     1
102
RTVSPropertyOp1
 70
     1
102
RTVSPropertyOp2
 70
     1
102
RTVSPropertyOp3
 70
     1
102
RTVSPropertyOp4
 70
     1
102
RTVSPropertyOp5
 70
     1
102
RTVSPropertyOp6
 70
     1
102
RTVSPropertyOp7
 70
     1
102
RTVSPropertyOp8
 70
     1
102
RTVSPropertyOp9
 70
     1
102
RTVSPropertyOp10
 70
     1
102
RTVSPropertyOp11
 70
     1
102
RTVSPropertyOp12
 70
     1
102
RTVSPropertyOp13
 70
     1
102
RTVSPropertyOp14
 70
     1
102
RTVSPropertyOp15
 70
     1
102
RTVSPropertyOp16
 70
     1
102
RTVSPropertyOp17
 70
     1
102
RTVSPropertyOp18
 70
     1
102
RTVSPropertyOp19
 70
     1
102
RTVSPropertyOp20
 70
     1
102
RTVSPropertyOp21
 70
     1
102
RTVSPropertyOp22
 70
     1
102
RTVSPropertyOp23
 70
     1
102
RTVSPropertyOp24
 70
     1
102
RTVSPropertyOp25
 70
     1
102
RTVSPropertyOp26
 70
     1
102
RTVSPropertyOp27
 70
     1
102
RTVSPropertyOp28
 70
     1
102
RTVSPropertyOp29
 70
     1
102
RTVSPropertyOp30
 70
     1
102
RTVSPropertyOp31
 70
     1
102
RTVSPropertyOp32
 70
     1
  0
XRECORD
  5
319
102
{ACAD_REACTORS
330
318
102
}
330
318
100
AcDbXrecord
280
     1
102
RTVSPropertyOp0
 70
     1
102
RTVSPropertyOp1
 70
     1
102
RTVSPropertyOp2
 70
     1
102
RTVSPropertyOp3
 70
     1
102
RTVSPropertyOp4
 70
     1
102
RTVSPropertyOp5
 70
     1
102
RTVSPropertyOp6
 70
     1
102
RTVSPropertyOp7
 70
     1
102
RTVSPropertyOp8
 70
     1
102
RTVSPropertyOp9
 70
     1
102
RTVSPropertyOp10
 70
     1
102
RTVSPropertyOp11
 70
     1
102
RTVSPropertyOp12
 70
     1
102
RTVSPropertyOp13
 70
     1
102
RTVSPropertyOp14
 70
     1
102
RTVSPropertyOp15
 70
     1
102
RTVSPropertyOp16
 70
     1
102
RTVSPropertyOp17
 70
     1
102
RTVSPropertyOp18
 70
     1
102
RTVSPropertyOp19
 70
     1
102
RTVSPropertyOp20
 70
     1
102
RTVSPropertyOp21
 70
     1
102
RTVSPropertyOp22
 70
     1
102
RTVSPropertyOp23
 70
     1
102
RTVSPropertyOp24
 70
     1
102
RTVSPropertyOp25
 70
     1
102
RTVSPropertyOp26
 70
     1
102
RTVSPropertyOp27
 70
     1
102
RTVSPropertyOp28
 70
     1
102
RTVSPropertyOp29
 70
     1
102
RTVSPropertyOp30
 70
     1
102
RTVSPropertyOp31
 70
     1
102
RTVSPropertyOp32
 70
     1
  0
XRECORD
  5
30D
102
{ACAD_REACTORS
330
30C
102
}
330
30C
100
AcDbXrecord
280
     1
102
RTVSPropertyOp0
 70
     1
102
RTVSPropertyOp1
 70
     1
102
RTVSPropertyOp2
 70
     1
102
RTVSPropertyOp3
 70
     1
102
RTVSPropertyOp4
 70
     1
102
RTVSPropertyOp5
 70
     1
102
RTVSPropertyOp6
 70
     1
102
RTVSPropertyOp7
 70
     1
102
RTVSPropertyOp8
 70
     1
102
RTVSPropertyOp9
 70
     1
102
RTVSPropertyOp10
 70
     1
102
RTVSPropertyOp11
 70
     1
102
RTVSPropertyOp12
 70
     1
102
RTVSPropertyOp13
 70
     1
102
RTVSPropertyOp14
 70
     1
102
RTVSPropertyOp15
 70
     1
102
RTVSPropertyOp16
 70
     1
102
RTVSPropertyOp17
 70
     1
102
RTVSPropertyOp18
 70
     1
102
RTVSPropertyOp19
 70
     1
102
RTVSPropertyOp20
 70
     1
102
RTVSPropertyOp21
 70
     1
102
RTVSPropertyOp22
 70
     1
102
RTVSPropertyOp23
 70
     1
102
RTVSPropertyOp24
 70
     1
102
RTVSPropertyOp25
 70
     1
102
RTVSPropertyOp26
 70
     1
102
RTVSPropertyOp27
 70
     1
102
RTVSPropertyOp28
 70
     1
102
RTVSPropertyOp29
 70
     1
102
RTVSPropertyOp30
 70
     1
102
RTVSPropertyOp31
 70
     1
102
RTVSPropertyOp32
 70
     1
  0
XRECORD
  5
325
102
{ACAD_REACTORS
330
324
102
}
330
324
100
AcDbXrecord
280
     1
102
RTVSPropertyOp0
 70
     1
102
RTVSPropertyOp1
 70
     1
102
RTVSPropertyOp2
 70
     1
102
RTVSPropertyOp3
 70
     1
102
RTVSPropertyOp4
 70
     1
102
RTVSPropertyOp5
 70
     1
102
RTVSPropertyOp6
 70
     1
102
RTVSPropertyOp7
 70
     1
102
RTVSPropertyOp8
 70
     1
102
RTVSPropertyOp9
 70
     1
102
RTVSPropertyOp10
 70
     1
102
RTVSPropertyOp11
 70
     1
102
RTVSPropertyOp12
 70
     1
102
RTVSPropertyOp13
 70
     1
102
RTVSPropertyOp14
 70
     1
102
RTVSPropertyOp15
 70
     1
102
RTVSPropertyOp16
 70
     1
102
RTVSPropertyOp17
 70
     1
102
RTVSPropertyOp18
 70
     1
102
RTVSPropertyOp19
 70
     1
102
RTVSPropertyOp20
 70
     1
102
RTVSPropertyOp21
 70
     1
102
RTVSPropertyOp22
 70
     1
102
RTVSPropertyOp23
 70
     1
102
RTVSPropertyOp24
 70
     1
102
RTVSPropertyOp25
 70
     1
102
RTVSPropertyOp26
 70
     1
102
RTVSPropertyOp27
 70
     1
102
RTVSPropertyOp28
 70
     1
102
RTVSPropertyOp29
 70
     1
102
RTVSPropertyOp30
 70
     1
102
RTVSPropertyOp31
 70
     1
102
RTVSPropertyOp32
 70
     1
  0
ENDSEC
  0
EOF
