  0
SECTION
  2
HEADER
  9
$ACADVER
  1
AC1009
  9
$DWGCODEPAGE
  3
dos932
  9
$INSBASE
 10
0.0
 20
0.0
 30
0.0
  9
$EXTMIN
 10
0.0
 20
0.0
 30
0.0
  9
$EXTMAX
 10
431.8
 20
279.4
 30
0.0
  9
$LIMMIN
 10
0.0
 20
0.0
  9
$LIMMAX
 10
431.8
 20
279.4
  9
$ORTHOMODE
 70
     0
  9
$REGENMODE
 70
     1
  9
$FILLMODE
 70
     1
  9
$QTEXTMODE
 70
     0
  9
$MIRRTEXT
 70
     1
  9
$DRAGMODE
 70
     2
  9
$LTSCALE
 40
1.0
  9
$OSMODE
 70
    37
  9
$ATTMODE
 70
     1
  9
$TEXTSIZE
 40
3.5
  9
$TRACEWID
 40
1.0
  9
$TEXTSTYLE
  7
STANDARD
  9
$CLAYER
  8
0
  9
$CELTYPE
  6
BYLAYER
  9
$CECOLOR
 62
   256
  9
$DIMSCALE
 40
1.0
  9
$DIMASZ
 40
3.0
  9
$DIMEXO
 40
0.01
  9
$DIMDLI
 40
3.75
  9
$DIMRND
 40
0.0
  9
$DIMDLE
 40
0.0
  9
$DIMEXE
 40
1.0
  9
$DIMTP
 40
0.0
  9
$DIMTM
 40
0.0
  9
$DIMTXT
 40
3.5
  9
$DIMCEN
 40
2.5
  9
$DIMTSZ
 40
0.0
  9
$DIMTOL
 70
     0
  9
$DIMLIM
 70
     0
  9
$DIMTIH
 70
     1
  9
$DIMTOH
 70
     1
  9
$DIMSE1
 70
     0
  9
$DIMSE2
 70
     0
  9
$DIMTAD
 70
     1
  9
$DIMZIN
 70
     0
  9
$DIMBLK
  1

  9
$DIMASO
 70
     1
  9
$DIMSHO
 70
     1
  9
$DIMPOST
  1

  9
$DIMAPOST
  1

  9
$DIMALT
 70
     0
  9
$DIMALTD
 70
     3
  9
$DIMALTF
 40
0.0393700787
  9
$DIMLFAC
 40
1.0
  9
$DIMTOFL
 70
     1
  9
$DIMTVP
 40
0.0
  9
$DIMTIX
 70
     0
  9
$DIMSOXD
 70
     0
  9
$DIMSAH
 70
     0
  9
$DIMBLK1
  1

  9
$DIMBLK2
  1

  9
$DIMSTYLE
  2
ISO-25
  9
$DIMCLRD
 70
     0
  9
$DIMCLRE
 70
     0
  9
$DIMCLRT
 70
     0
  9
$DIMTFAC
 40
1.0
  9
$DIMGAP
 40
1.524
  9
$LUNITS
 70
     2
  9
$LUPREC
 70
     2
  9
$SKETCHINC
 40
1.0
  9
$FILLETRAD
 40
10.0
  9
$AUNITS
 70
     0
  9
$AUPREC
 70
     2
  9
$MENU
  1
.
  9
$ELEVATION
 40
0.0
  9
$PELEVATION
 40
0.0
  9
$THICKNESS
 40
0.0
  9
$LIMCHECK
 70
     0
  9
$CHAMFERA
 40
0.0
  9
$CHAMFERB
 40
0.0
  9
$SKPOLY
 70
     0
  9
$TDCREATE
 40
2457515.573178981
  9
$TDUPDATE
 40
2457515.573180243
  9
$TDINDWG
 40
0.0000000116
  9
$TDUSRTIMER
 40
0.0000000116
  9
$USRTIMER
 70
     1
  9
$ANGBASE
 50
0.0
  9
$ANGDIR
 70
     0
  9
$PDMODE
 70
     0
  9
$PDSIZE
 40
-1.0
  9
$PLINEWID
 40
0.0
  9
$COORDS
 70
     1
  9
$SPLFRAME
 70
     0
  9
$SPLINETYPE
 70
     6
  9
$SPLINESEGS
 70
     8
  9
$ATTDIA
 70
     0
  9
$ATTREQ
 70
     1
  9
$HANDLING
 70
     1
  9
$HANDSEED
  5
8B9
  9
$SURFTAB1
 70
     6
  9
$SURFTAB2
 70
     6
  9
$SURFTYPE
 70
     6
  9
$SURFU
 70
     6
  9
$SURFV
 70
     6
  9
$UCSNAME
  2

  9
$UCSORG
 10
0.0
 20
0.0
 30
0.0
  9
$UCSXDIR
 10
1.0
 20
0.0
 30
0.0
  9
$UCSYDIR
 10
0.0
 20
1.0
 30
0.0
  9
$PUCSNAME
  2

  9
$PUCSORG
 10
0.0
 20
0.0
 30
0.0
  9
$PUCSXDIR
 10
1.0
 20
0.0
 30
0.0
  9
$PUCSYDIR
 10
0.0
 20
1.0
 30
0.0
  9
$USERI1
 70
     0
  9
$USERI2
 70
     0
  9
$USERI3
 70
     0
  9
$USERI4
 70
     0
  9
$USERI5
 70
     0
  9
$USERR1
 40
0.0
  9
$USERR2
 40
0.0
  9
$USERR3
 40
0.0
  9
$USERR4
 40
0.0
  9
$USERR5
 40
0.0
  9
$WORLDVIEW
 70
     1
  9
$SHADEDGE
 70
     3
  9
$SHADEDIF
 70
    70
  9
$TILEMODE
 70
     1
  9
$MAXACTVP
 70
    64
  9
$PLIMCHECK
 70
     0
  9
$PEXTMIN
 10
1.0000000000E+20
 20
1.0000000000E+20
 30
1.0000000000E+20
  9
$PEXTMAX
 10
-1.0000000000E+20
 20
-1.0000000000E+20
 30
-1.0000000000E+20
  9
$PLIMMIN
 10
0.0
 20
0.0
  9
$PLIMMAX
 10
420.0
 20
297.0
  9
$UNITMODE
 70
     0
  9
$VISRETAIN
 70
     1
  9
$PLINEGEN
 70
     0
  9
$PSLTSCALE
 70
     1
  0
ENDSEC
  0
SECTION
  2
TABLES
  0
TABLE
  2
VPORT
 70
     1
  0
VPORT
  2
*ACTIVE
 70
     0
 10
0.0
 20
0.0
 11
1.0
 21
1.0
 12
215.9
 22
139.7
 13
0.0
 23
0.0
 14
10.0
 24
10.0
 15
10.0
 25
10.0
 16
0.0
 26
0.0
 36
1.0
 17
0.0
 27
0.0
 37
0.0
 40
279.4
 41
1.5454545455
 42
50.0
 43
0.0
 44
0.0
 50
0.0
 51
0.0
 71
     0
 72
  2000
 73
     1
 74
     3
 75
     0
 76
     0
 77
     0
 78
     0
  0
ENDTAB
  0
TABLE
  2
LTYPE
 70
     6
  0
LTYPE
  2
CONTINUOUS
 70
     0
  3
Solid line
 72
    65
 73
     0
 40
0.0
  0
LTYPE
  2
HIDDEN
 70
     0
  3
Hidden __ __ __ __ __ __ __ __ __ __ __ __ __ __
 72
    65
 73
     2
 40
1.905
 49
1.27
 49
-0.635
  0
LTYPE
  2
PHANTOM
 70
     0
  3
Phantom ______  __  __  ______  __  __  ______
 72
    65
 73
     6
 40
12.7
 49
6.35
 49
-1.27
 49
1.27
 49
-1.27
 49
1.27
 49
-1.27
  0
LTYPE
  2
CENTER
 70
     0
  3
Center ____ _ ____ _ ____ _ ____ _ ____ _ ____
 72
    65
 73
     4
 40
10.16
 49
6.35
 49
-1.27
 49
1.27
 49
-1.27
  0
LTYPE
  2
CENTERX2
 70
     0
  3
Center (2x) ________  __  ________  __  _____
 72
    65
 73
     4
 40
20.32
 49
12.7
 49
-2.54
 49
2.54
 49
-2.54
  0
LTYPE
  2
DOT2
 70
     0
  3
Dot (.5x) ........................................
 72
    65
 73
     2
 40
0.635
 49
0.0
 49
-0.635
  0
ENDTAB
  0
TABLE
  2
LAYER
 70
     3
  0
LAYER
  2
0
 70
     0
 62
     7
  6
CONTINUOUS
  0
LAYER
  2
DIM
 70
     0
 62
     7
  6
CONTINUOUS
  0
LAYER
  2
TXT
 70
     0
 62
     7
  6
CONTINUOUS
  0
ENDTAB
  0
TABLE
  2
STYLE
 70
     1
  0
STYLE
  2
STANDARD
 70
     0
 40
0.0
 41
1.0
 50
0.0
 71
     0
 42
3.5
  3
txt
  4
bigfont
  0
ENDTAB
  0
TABLE
  2
VIEW
 70
     0
  0
ENDTAB
  0
TABLE
  2
UCS
 70
     0
  0
ENDTAB
  0
TABLE
  2
APPID
 70
     1
  0
APPID
  2
ACAD
 70
     0
  0
ENDTAB
  0
TABLE
  2
DIMSTYLE
 70
     1
  0
DIMSTYLE
  2
ISO-25
 70
     0
  3

  4

  5

  6

  7

 40
1.0
 41
2.5
 42
0.625
 43
3.75
 44
1.25
 45
0.0
 46
0.0
 47
0.0
 48
0.0
140
2.5
141
2.5
142
0.0
143
0.0393700787
144
1.0
145
0.0
146
1.0
147
0.625
 71
     0
 72
     0
 73
     0
 74
     0
 75
     0
 76
     0
 77
     1
 78
     8
170
     0
171
     3
172
     1
173
     0
174
     0
175
     0
176
     0
177
     0
178
     0
  0
ENDTAB
  0
ENDSEC
  0
SECTION
  2
BLOCKS
  0
BLOCK
  8
0
  2
$MODEL_SPACE
 70
     0
 10
0.0
 20
0.0
 30
0.0
  3
$MODEL_SPACE
  1

  0
ENDBLK
  5
21
  8
0
  0
BLOCK
 67
     1
  8
0
  2
$PAPER_SPACE
 70
     0
 10
0.0
 20
0.0
 30
0.0
  3
$PAPER_SPACE
  1

  0
ENDBLK
  5
1D
 67
     1
  8
0
  0
ENDSEC
  0
SECTION
  2
ENTITIES
  0
LINE
  5
71
  8
0
  6
CONTINUOUS
 62
     7
 10
300.4122093791
 20
77.6323475714
 30
0.0
 11
298.4122092841
 21
77.6323475714
 31
0.0
  0
LINE
  5
72
  8
0
  6
CONTINUOUS
 62
     7
 10
298.4122092841
 20
41.6323491211
 30
0.0
 11
300.4122093791
 21
41.6323491211
 31
0.0
  0
LINE
  5
73
  8
0
  6
CONTINUOUS
 62
     7
 10
322.4122094927
 20
64.6323482345
 30
0.0
 11
300.4122093791
 21
64.6323482345
 31
0.0
  0
LINE
  5
74
  8
0
  6
CONTINUOUS
 62
     7
 10
300.4122093791
 20
54.632348458
 30
0.0
 11
322.4122094927
 21
54.632348458
 31
0.0
  0
LINE
  5
75
  8
0
  6
CONTINUOUS
 62
     7
 10
221.1122120736
 20
16.6323468859
 30
0.0
 11
221.1122120736
 21
-190.7676584248
 31
0.0
  0
LINE
  5
76
  8
0
  6
CONTINUOUS
 62
     7
 10
229.1122059343
 20
-190.7676584248
 30
0.0
 11
229.1122059343
 21
16.6323468859
 31
0.0
  0
ARC
  5
77
  8
0
  6
CONTINUOUS
 62
     7
 10
205.4122092841
 20
-215.2676516538
 30
0.0
 40
0.500000000000001
 50
289.4712206345
 51
0.0
  0
ARC
  5
78
  8
0
  6
CONTINUOUS
 62
     7
 10
198.4122092841
 20
-215.2676516538
 30
0.0
 40
0.5
 50
180.0
 51
250.5287793655
  0
LINE
  5
79
  8
0
  6
CONTINUOUS
 62
     7
 10
197.9122067807
 20
-190.7676584248
 30
0.0
 11
197.9122067807
 21
-215.2676410203
 31
0.0
  0
LINE
  5
7A
  8
0
  6
CONTINUOUS
 62
     7
 10
205.912208092
 20
-215.2676410203
 30
0.0
 11
205.912208092
 21
-190.7676584248
 31
0.0
  0
ARC
  5
7B
  8
0
  6
CONTINUOUS
 62
     7
 10
205.9122092841
 20
-216.6818652161
 30
0.0
 40
1.000000000000029
 50
109.4712206345
 51
180.0
  0
ARC
  5
7C
  8
0
  6
CONTINUOUS
 62
     7
 10
197.9122092841
 20
-216.6818652161
 30
0.0
 40
1.000000000000019
 50
0.0
 51
70.5287793655
  0
LINE
  5
7D
  8
0
  6
CONTINUOUS
 62
     7
 10
198.9122088072
 20
16.6323468859
 30
0.0
 11
198.9122088072
 21
-190.7676584248
 31
0.0
  0
LINE
  5
7E
  8
0
  6
CONTINUOUS
 62
     7
 10
204.9122060654
 20
-190.7676584248
 30
0.0
 11
204.9122060654
 21
16.6323468859
 31
0.0
  0
LINE
  5
7F
  8
0
  6
CONTINUOUS
 62
     7
 10
198.9122088072
 20
-216.6818506245
 30
0.0
 11
198.9122088072
 21
-230.7676500802
 31
0.0
  0
LINE
  5
80
  8
0
  6
CONTINUOUS
 62
     7
 10
204.9122060654
 20
-230.7676500802
 30
0.0
 11
204.9122060654
 21
-216.6818506245
 31
0.0
  0
POLYLINE
  5
81
  8
0
  6
CONTINUOUS
 62
     7
 66
     1
 10
0.0
 20
0.0
 30
0.0
 70
   128
  0
VERTEX
  5
778
  8
0
  6
CONTINUOUS
 62
     7
 10
200.5178312776
 20
-250.767660809
 30
0.0
  0
VERTEX
  5
779
  8
0
  6
CONTINUOUS
 62
     7
 10
200.7887939928
 20
-242.0137650494
 30
0.0
  0
VERTEX
  5
77A
  8
0
  6
CONTINUOUS
 62
     7
 10
201.1622021911
 20
-230.7676500802
 30
0.0
  0
SEQEND
  5
880
  8
0
  6
CONTINUOUS
 62
     7
  0
POLYLINE
  5
82
  8
0
  6
CONTINUOUS
 62
     7
 66
     1
 10
0.0
 20
0.0
 30
0.0
 70
   128
  0
VERTEX
  5
77B
  8
0
  6
CONTINUOUS
 62
     7
 10
199.6622140525
 20
-230.7676500802
 30
0.0
  0
VERTEX
  5
77C
  8
0
  6
CONTINUOUS
 62
     7
 10
199.312647712
 20
-242.0141524796
 30
0.0
  0
VERTEX
  5
77D
  8
0
  6
CONTINUOUS
 62
     7
 10
199.0208755253
 20
-250.767660809
 30
0.0
  0
SEQEND
  5
881
  8
0
  6
CONTINUOUS
 62
     7
  0
POLYLINE
  5
83
  8
0
  6
CONTINUOUS
 62
     7
 66
     1
 10
0.0
 20
0.0
 30
0.0
 70
   128
  0
VERTEX
  5
77E
  8
0
  6
CONTINUOUS
 62
     7
 10
204.6619783161
 20
-250.767660809
 30
0.0
  0
VERTEX
  5
77F
  8
0
  6
CONTINUOUS
 62
     7
 10
204.448429775
 20
-242.2655946736
 30
0.0
  0
VERTEX
  5
780
  8
0
  6
CONTINUOUS
 62
     7
 10
204.1622082708
 20
-230.7676500802
 30
0.0
  0
SEQEND
  5
882
  8
0
  6
CONTINUOUS
 62
     7
  0
POLYLINE
  5
84
  8
0
  6
CONTINUOUS
 62
     7
 66
     1
 10
0.0
 20
0.0
 30
0.0
 70
   128
  0
VERTEX
  5
781
  8
0
  6
CONTINUOUS
 62
     7
 10
202.6622126815
 20
-230.7676500802
 30
0.0
  0
VERTEX
  5
782
  8
0
  6
CONTINUOUS
 62
     7
 10
202.9009888885
 20
-240.269703341
 30
0.0
  0
VERTEX
  5
783
  8
0
  6
CONTINUOUS
 62
     7
 10
203.1624148605
 20
-250.767660809
 30
0.0
  0
SEQEND
  5
883
  8
0
  6
CONTINUOUS
 62
     7
  0
LINE
  5
85
  8
0
  6
CONTINUOUS
 62
     7
 10
206.9622109649
 20
-261.4676482205
 30
0.0
 11
206.9622109649
 21
-251.7676479344
 31
0.0
  0
ARC
  5
86
  8
0
  6
CONTINUOUS
 62
     7
 10
303.7091426368
 20
59.6323483462
 30
0.0
 40
150.0
 50
168.4630409672
 51
169.1063172186
  0
LINE
  5
87
  8
0
  6
CONTINUOUS
 62
     7
 10
156.4122046349
 20
87.9804254348
 30
0.0
 11
154.9122090457
 21
85.3823483761
 31
0.0
  0
LINE
  5
88
  8
0
  6
CONTINUOUS
 62
     7
 10
158.412208688
 20
16.6323468859
 30
0.0
 11
158.412208688
 21
-226.8676585679
 31
0.0
  0
LINE
  5
89
  8
0
  6
CONTINUOUS
 62
     7
 10
164.4122059462
 20
-226.8676585679
 30
0.0
 11
164.4122059462
 21
16.6323468859
 31
0.0
  0
LINE
  5
8A
  8
0
  6
CONTINUOUS
 62
     7
 10
230.2971239207
 20
18.6323472138
 30
0.0
 11
232.3122079489
 21
18.6323472138
 31
0.0
  0
LINE
  5
8B
  8
0
  6
CONTINUOUS
 62
     7
 10
216.1122093914
 20
18.6323472138
 30
0.0
 11
219.8622058151
 21
18.6323472138
 31
0.0
  0
LINE
  5
8C
  8
0
  6
CONTINUOUS
 62
     7
 10
232.3596457956
 20
18.6554887171
 30
0.0
 11
244.6250374434
 21
24.6386066849
 31
0.0
  0
LINE
  5
8D
  8
0
  6
CONTINUOUS
 62
     7
 10
219.8622058151
 20
18.6323472138
 30
0.0
 11
219.8622058151
 21
16.6323468859
 31
0.0
  0
LINE
  5
8E
  8
0
  6
CONTINUOUS
 62
     7
 10
230.3622121928
 20
16.6323468859
 30
0.0
 11
230.3622121928
 21
18.6379686768
 31
0.0
  0
ARC
  5
8F
  8
0
  6
CONTINUOUS
 62
     7
 10
221.1122092841
 20
-215.2676516538
 30
0.0
 40
0.5
 50
180.0
 51
270.0
  0
ARC
  5
90
  8
0
  6
CONTINUOUS
 62
     7
 10
229.1122092841
 20
-215.2676516538
 30
0.0
 40
0.5
 50
270.0
 51
0.0
  0
LINE
  5
91
  8
0
  6
CONTINUOUS
 62
     7
 10
220.6122110603
 20
-190.7676584248
 30
0.0
 11
220.6122110603
 21
-215.2676410203
 31
0.0
  0
LINE
  5
92
  8
0
  6
CONTINUOUS
 62
     7
 10
229.6122069476
 20
-215.2676410203
 30
0.0
 11
229.6122069476
 21
-190.7676584248
 31
0.0
  0
ARC
  5
93
  8
0
  6
CONTINUOUS
 62
     7
 10
221.1122092841
 20
-216.2676516538
 30
0.0
 40
0.5
 50
0.0
 51
90.0
  0
ARC
  5
94
  8
0
  6
CONTINUOUS
 62
     7
 10
229.1122092841
 20
-216.2676516538
 30
0.0
 40
0.5
 50
90.0
 51
180.0
  0
LINE
  5
95
  8
0
  6
CONTINUOUS
 62
     7
 10
221.6122056363
 20
-216.267657948
 30
0.0
 11
221.6122056363
 21
-230.7676500802
 31
0.0
  0
LINE
  5
96
  8
0
  6
CONTINUOUS
 62
     7
 10
228.6122123716
 20
-230.7676500802
 30
0.0
 11
228.6122123716
 21
-216.267657948
 31
0.0
  0
POLYLINE
  5
97
  8
0
  6
CONTINUOUS
 62
     7
 66
     1
 10
0.0
 20
0.0
 30
0.0
 70
   128
  0
VERTEX
  5
784
  8
0
  6
CONTINUOUS
 62
     7
 10
229.9526388762
 20
-250.767660809
 30
0.0
  0
VERTEX
  5
785
  8
0
  6
CONTINUOUS
 62
     7
 10
229.0216739295
 20
-242.2655946736
 30
0.0
  0
VERTEX
  5
786
  8
0
  6
CONTINUOUS
 62
     7
 10
227.7643213985
 20
-230.7676500802
 30
0.0
  0
SEQEND
  5
884
  8
0
  6
CONTINUOUS
 62
     7
  0
POLYLINE
  5
98
  8
0
  6
CONTINUOUS
 62
     7
 66
     1
 10
0.0
 20
0.0
 30
0.0
 70
   128
  0
VERTEX
  5
787
  8
0
  6
CONTINUOUS
 62
     7
 10
226.2643258093
 20
-230.7676500802
 30
0.0
  0
VERTEX
  5
788
  8
0
  6
CONTINUOUS
 62
     7
 10
227.3048515437
 20
-240.269703341
 30
0.0
  0
VERTEX
  5
789
  8
0
  6
CONTINUOUS
 62
     7
 10
228.4529189584
 20
-250.767660809
 30
0.0
  0
SEQEND
  5
885
  8
0
  6
CONTINUOUS
 62
     7
  0
POLYLINE
  5
99
  8
0
  6
CONTINUOUS
 62
     7
 66
     1
 10
0.0
 20
0.0
 30
0.0
 70
   128
  0
VERTEX
  5
78A
  8
0
  6
CONTINUOUS
 62
     7
 10
221.7685411689
 20
-250.767660809
 30
0.0
  0
VERTEX
  5
78B
  8
0
  6
CONTINUOUS
 62
     7
 10
222.834085953
 20
-240.7526797776
 30
0.0
  0
VERTEX
  5
78C
  8
0
  6
CONTINUOUS
 62
     7
 10
223.1494913814
 20
-237.8997630601
 30
0.0
  0
VERTEX
  5
78D
  8
0
  6
CONTINUOUS
 62
     7
 10
223.9599580882
 20
-230.7676500802
 30
0.0
  0
SEQEND
  5
886
  8
0
  6
CONTINUOUS
 62
     7
  0
POLYLINE
  5
9A
  8
0
  6
CONTINUOUS
 62
     7
 66
     1
 10
0.0
 20
0.0
 30
0.0
 70
   128
  0
VERTEX
  5
78E
  8
0
  6
CONTINUOUS
 62
     7
 10
222.4602307198
 20
-230.7676500802
 30
0.0
  0
VERTEX
  5
78F
  8
0
  6
CONTINUOUS
 62
     7
 10
221.710538399
 20
-237.8934747701
 30
0.0
  0
VERTEX
  5
790
  8
0
  6
CONTINUOUS
 62
     7
 10
221.4021663187
 20
-240.7412654881
 30
0.0
  0
VERTEX
  5
791
  8
0
  6
CONTINUOUS
 62
     7
 10
220.274722111
 20
-250.767660809
 30
0.0
  0
SEQEND
  5
887
  8
0
  6
CONTINUOUS
 62
     7
  0
POLYLINE
  5
9B
  8
0
  6
CONTINUOUS
 62
     7
 66
     1
 10
0.0
 20
0.0
 30
0.0
 70
   128
  0
VERTEX
  5
792
  8
0
  6
CONTINUOUS
 62
     7
 10
224.3626843212
 20
-230.7676500802
 30
0.0
  0
VERTEX
  5
793
  8
0
  6
CONTINUOUS
 62
     7
 10
224.3695761082
 20
-240.269703341
 30
0.0
  0
VERTEX
  5
794
  8
0
  6
CONTINUOUS
 62
     7
 10
224.362848234
 20
-250.767660809
 30
0.0
  0
SEQEND
  5
888
  8
0
  6
CONTINUOUS
 62
     7
  0
POLYLINE
  5
9C
  8
0
  6
CONTINUOUS
 62
     7
 66
     1
 10
0.0
 20
0.0
 30
0.0
 70
   128
  0
VERTEX
  5
795
  8
0
  6
CONTINUOUS
 62
     7
 10
225.8614356635
 20
-250.767660809
 30
0.0
  0
VERTEX
  5
796
  8
0
  6
CONTINUOUS
 62
     7
 10
225.8548344491
 20
-242.2655946736
 30
0.0
  0
VERTEX
  5
797
  8
0
  6
CONTINUOUS
 62
     7
 10
225.8617336867
 20
-230.7676500802
 30
0.0
  0
SEQEND
  5
889
  8
0
  6
CONTINUOUS
 62
     7
  0
POLYLINE
  5
9D
  8
0
  6
CONTINUOUS
 62
     7
 66
     1
 10
0.0
 20
0.0
 30
0.0
 70
   128
  0
VERTEX
  5
798
  8
0
  6
CONTINUOUS
 62
     7
 10
221.8058685777
 20
-250.767660809
 30
0.0
  0
VERTEX
  5
799
  8
0
  6
CONTINUOUS
 62
     7
 10
223.0281065223
 20
-242.2655946736
 30
0.0
  0
VERTEX
  5
79A
  8
0
  6
CONTINUOUS
 62
     7
 10
224.3643085478
 20
-233.0020493989
 30
0.0
  0
SEQEND
  5
88A
  8
0
  6
CONTINUOUS
 62
     7
  0
POLYLINE
  5
9E
  8
0
  6
CONTINUOUS
 62
     7
 66
     1
 10
0.0
 20
0.0
 30
0.0
 70
   128
  0
VERTEX
  5
79B
  8
0
  6
CONTINUOUS
 62
     7
 10
225.8603925822
 20
-233.0052084451
 30
0.0
  0
VERTEX
  5
79C
  8
0
  6
CONTINUOUS
 62
     7
 10
226.9077803013
 20
-240.269703341
 30
0.0
  0
VERTEX
  5
79D
  8
0
  6
CONTINUOUS
 62
     7
 10
228.418445122
 20
-250.767660809
 30
0.0
  0
SEQEND
  5
88B
  8
0
  6
CONTINUOUS
 62
     7
  0
LINE
  5
9F
  8
0
  6
CONTINUOUS
 62
     7
 10
206.8503106949
 20
18.6323472138
 30
0.0
 11
207.9122121451
 21
18.6323472138
 31
0.0
  0
LINE
  5
A0
  8
0
  6
CONTINUOUS
 62
     7
 10
195.9122101782
 20
18.6323472138
 30
0.0
 11
196.9122122047
 21
18.6323472138
 31
0.0
  0
LINE
  5
A1
  8
0
  6
CONTINUOUS
 62
     7
 10
196.9122122047
 20
18.6323472138
 30
0.0
 11
196.9122122047
 21
16.6323468859
 31
0.0
  0
LINE
  5
A2
  8
0
  6
CONTINUOUS
 62
     7
 10
206.9122101185
 20
16.6323468859
 30
0.0
 11
206.9122101185
 21
18.6374396856
 31
0.0
  0
LINE
  5
A3
  8
0
  6
CONTINUOUS
 62
     7
 10
166.3503105757
 20
18.6323472138
 30
0.0
 11
167.4122120259
 21
18.6323472138
 31
0.0
  0
LINE
  5
A4
  8
0
  6
CONTINUOUS
 62
     7
 10
155.4122026084
 20
18.6323472138
 30
0.0
 11
156.4122046349
 21
18.6323472138
 31
0.0
  0
LINE
  5
A5
  8
0
  6
CONTINUOUS
 62
     7
 10
156.4122046349
 20
18.6323472138
 30
0.0
 11
156.4122046349
 21
16.6323468859
 31
0.0
  0
LINE
  5
A6
  8
0
  6
CONTINUOUS
 62
     7
 10
166.4122099993
 20
16.6323468859
 30
0.0
 11
166.4122099993
 21
18.6374396856
 31
0.0
  0
LINE
  5
A7
  8
0
  6
CONTINUOUS
 62
     7
 10
291.412209068
 20
45.6323479141
 30
0.0
 11
287.9122094256
 21
45.6323479141
 31
0.0
  0
LINE
  5
A8
  8
0
  6
CONTINUOUS
 62
     7
 10
291.412209068
 20
39.432349133
 30
0.0
 11
287.9122094256
 21
39.432349133
 31
0.0
  0
LINE
  5
A9
  8
0
  6
CONTINUOUS
 62
     7
 10
287.9122094256
 20
45.6323479141
 30
0.0
 11
287.9122094256
 21
39.432349133
 31
0.0
  0
LINE
  5
AA
  8
0
  6
CONTINUOUS
 62
     7
 10
291.412209068
 20
73.6323487784
 30
0.0
 11
287.9122094256
 21
73.6323487784
 31
0.0
  0
LINE
  5
AB
  8
0
  6
CONTINUOUS
 62
     7
 10
298.4122092841
 20
84.3323492284
 30
0.0
 11
291.412209068
 21
84.3323492284
 31
0.0
  0
LINE
  5
AC
  8
0
  6
CONTINUOUS
 62
     7
 10
298.4122092841
 20
34.9323474641
 30
0.0
 11
298.4122092841
 21
84.3323492284
 31
0.0
  0
LINE
  5
AD
  8
0
  6
CONTINUOUS
 62
     7
 10
291.412209068
 20
34.9323474641
 30
0.0
 11
298.4122092841
 21
34.9323474641
 31
0.0
  0
LINE
  5
AE
  8
0
  6
CONTINUOUS
 62
     7
 10
291.412209068
 20
34.9323474641
 30
0.0
 11
291.412209068
 21
45.6323479141
 31
0.0
  0
LINE
  5
AF
  8
0
  6
CONTINUOUS
 62
     7
 10
287.9122094256
 20
73.6323487784
 30
0.0
 11
287.9122094256
 21
45.6323479141
 31
0.0
  0
LINE
  5
B0
  8
0
  6
CONTINUOUS
 62
     7
 10
291.412209068
 20
84.3323492284
 30
0.0
 11
291.412209068
 21
73.6323487784
 31
0.0
  0
LINE
  5
B1
  8
0
  6
CONTINUOUS
 62
     7
 10
291.412209068
 20
79.8323475595
 30
0.0
 11
287.9122094256
 21
79.8323475595
 31
0.0
  0
LINE
  5
B2
  8
0
  6
CONTINUOUS
 62
     7
 10
287.9122094256
 20
73.6323487784
 30
0.0
 11
287.9122094256
 21
79.8323475595
 31
0.0
  0
LINE
  5
B3
  8
0
  6
CONTINUOUS
 62
     7
 10
291.412209068
 20
89.6323476757
 30
0.0
 11
298.4122092841
 21
89.6323476757
 31
0.0
  0
LINE
  5
B4
  8
0
  6
CONTINUOUS
 62
     7
 10
298.4122092841
 20
89.6323476757
 30
0.0
 11
298.4122092841
 21
84.3323492284
 31
0.0
  0
LINE
  5
B5
  8
0
  6
CONTINUOUS
 62
     7
 10
291.412209068
 20
84.3323492284
 30
0.0
 11
291.412209068
 21
89.6323476757
 31
0.0
  0
LINE
  5
B6
  8
0
  6
CONTINUOUS
 62
     7
 10
298.4122092841
 20
29.6323490168
 30
0.0
 11
291.412209068
 21
29.6323490168
 31
0.0
  0
LINE
  5
B7
  8
0
  6
CONTINUOUS
 62
     7
 10
298.4122092841
 20
34.9323474641
 30
0.0
 11
298.4122092841
 21
29.6323490168
 31
0.0
  0
LINE
  5
B8
  8
0
  6
CONTINUOUS
 62
     7
 10
291.412209068
 20
29.6323490168
 30
0.0
 11
291.412209068
 21
34.9323474641
 31
0.0
  0
LINE
  5
B9
  8
0
  6
CONTINUOUS
 62
     7
 10
291.412209068
 20
84.6323487188
 30
0.0
 11
287.9122094256
 21
84.6323487188
 31
0.0
  0
LINE
  5
BA
  8
0
  6
CONTINUOUS
 62
     7
 10
287.9122094256
 20
79.8323475595
 30
0.0
 11
287.9122094256
 21
84.6323487188
 31
0.0
  0
LINE
  5
BB
  8
0
  6
CONTINUOUS
 62
     7
 10
291.412209068
 20
34.6323479737
 30
0.0
 11
287.9122094256
 21
34.6323479737
 31
0.0
  0
LINE
  5
BC
  8
0
  6
CONTINUOUS
 62
     7
 10
287.9122094256
 20
39.432349133
 30
0.0
 11
287.9122094256
 21
34.6323479737
 31
0.0
  0
LINE
  5
BD
  8
0
  6
CONTINUOUS
 62
     7
 10
291.412209068
 20
30.6143318142
 30
0.0
 11
287.9122094256
 21
30.6143318142
 31
0.0
  0
LINE
  5
BE
  8
0
  6
CONTINUOUS
 62
     7
 10
287.9122094256
 20
34.6323479737
 30
0.0
 11
287.9122094256
 21
30.6143318142
 31
0.0
  0
LINE
  5
BF
  8
0
  6
CONTINUOUS
 62
     7
 10
291.412209068
 20
88.6503648783
 30
0.0
 11
287.9122094256
 21
88.6503648783
 31
0.0
  0
LINE
  5
C0
  8
0
  6
CONTINUOUS
 62
     7
 10
287.9122094256
 20
84.6323487188
 30
0.0
 11
287.9122094256
 21
88.6503648783
 31
0.0
  0
LINE
  5
C1
  8
0
  6
CONTINUOUS
 62
     7
 10
291.412209068
 20
29.6323490168
 30
0.0
 11
287.9122094256
 21
29.6323490168
 31
0.0
  0
LINE
  5
C2
  8
0
  6
CONTINUOUS
 62
     7
 10
287.9122094256
 20
30.6143318142
 30
0.0
 11
287.9122094256
 21
29.6323490168
 31
0.0
  0
LINE
  5
C3
  8
0
  6
CONTINUOUS
 62
     7
 10
291.412209068
 20
89.6323476757
 30
0.0
 11
287.9122094256
 21
89.6323476757
 31
0.0
  0
LINE
  5
C4
  8
0
  6
CONTINUOUS
 62
     7
 10
287.9122094256
 20
88.6503648783
 30
0.0
 11
287.9122094256
 21
89.6323476757
 31
0.0
  0
LINE
  5
C5
  8
0
  6
CONTINUOUS
 62
     7
 10
300.4122093791
 20
77.6323475714
 30
0.0
 11
300.4122093791
 21
41.6323491211
 31
0.0
  0
LINE
  5
C6
  8
0
  6
CONTINUOUS
 62
     7
 10
322.4122094927
 20
64.6323482345
 30
0.0
 11
322.4122094927
 21
54.632348458
 31
0.0
  0
LINE
  5
C7
  8
0
  6
CONTINUOUS
 62
     7
 10
234.2122103093
 20
45.6323479141
 30
0.0
 11
287.9122094256
 21
45.6323479141
 31
0.0
  0
LINE
  5
C8
  8
0
  6
CONTINUOUS
 62
     7
 10
234.2122103093
 20
73.6323487784
 30
0.0
 11
234.2122103093
 21
45.6323479141
 31
0.0
  0
LINE
  5
C9
  8
0
  6
CONTINUOUS
 62
     7
 10
234.2122103093
 20
73.6323487784
 30
0.0
 11
287.9122094256
 21
73.6323487784
 31
0.0
  0
LINE
  5
CA
  8
0
  6
CONTINUOUS
 62
     7
 10
287.9122094256
 20
79.8323475595
 30
0.0
 11
234.2122103093
 21
79.8323475595
 31
0.0
  0
LINE
  5
CB
  8
0
  6
CONTINUOUS
 62
     7
 10
234.2122103093
 20
79.8323475595
 30
0.0
 11
234.2122103093
 21
73.6323487784
 31
0.0
  0
LINE
  5
CC
  8
0
  6
CONTINUOUS
 62
     7
 10
287.9122094256
 20
39.432349133
 30
0.0
 11
234.2122103093
 21
39.432349133
 31
0.0
  0
LINE
  5
CD
  8
0
  6
CONTINUOUS
 62
     7
 10
234.2122103093
 20
39.432349133
 30
0.0
 11
234.2122103093
 21
45.6323479141
 31
0.0
  0
LINE
  5
CE
  8
0
  6
CONTINUOUS
 62
     7
 10
287.9122094256
 20
34.6323479737
 30
0.0
 11
234.2122103093
 21
34.6323479737
 31
0.0
  0
LINE
  5
CF
  8
0
  6
CONTINUOUS
 62
     7
 10
234.2122103093
 20
34.6323479737
 30
0.0
 11
234.2122103093
 21
39.432349133
 31
0.0
  0
LINE
  5
D0
  8
0
  6
CONTINUOUS
 62
     7
 10
287.9122094256
 20
84.6323487188
 30
0.0
 11
234.2122103093
 21
84.6323487188
 31
0.0
  0
LINE
  5
D1
  8
0
  6
CONTINUOUS
 62
     7
 10
234.2122103093
 20
84.6323487188
 30
0.0
 11
234.2122103093
 21
79.8323475595
 31
0.0
  0
LINE
  5
D2
  8
0
  6
CONTINUOUS
 62
     7
 10
287.9122094256
 20
30.6143318142
 30
0.0
 11
234.2122103093
 21
30.6143318142
 31
0.0
  0
LINE
  5
D3
  8
0
  6
CONTINUOUS
 62
     7
 10
234.2122103093
 20
30.6143318142
 30
0.0
 11
234.2122103093
 21
34.6323479737
 31
0.0
  0
LINE
  5
D4
  8
0
  6
CONTINUOUS
 62
     7
 10
287.9122094256
 20
29.6323490168
 30
0.0
 11
234.2122103093
 21
29.6323490168
 31
0.0
  0
LINE
  5
D5
  8
0
  6
CONTINUOUS
 62
     7
 10
234.2122103093
 20
29.6323490168
 30
0.0
 11
234.2122103093
 21
30.6143318142
 31
0.0
  0
LINE
  5
D6
  8
0
  6
CONTINUOUS
 62
     7
 10
287.9122094256
 20
88.6503648783
 30
0.0
 11
234.2122103093
 21
88.6503648783
 31
0.0
  0
LINE
  5
D7
  8
0
  6
CONTINUOUS
 62
     7
 10
234.2122103093
 20
88.6503648783
 30
0.0
 11
234.2122103093
 21
84.6323487188
 31
0.0
  0
LINE
  5
D8
  8
0
  6
CONTINUOUS
 62
     7
 10
287.9122094256
 20
89.6323476757
 30
0.0
 11
234.2122103093
 21
89.6323476757
 31
0.0
  0
LINE
  5
D9
  8
0
  6
CONTINUOUS
 62
     7
 10
234.2122103093
 20
89.6323476757
 30
0.0
 11
234.2122103093
 21
88.6503648783
 31
0.0
  0
LINE
  5
DA
  8
0
  6
CONTINUOUS
 62
     7
 10
218.2122076867
 20
79.8323475595
 30
0.0
 11
234.2122103093
 21
73.6323487784
 31
0.0
  0
LINE
  5
DB
  8
0
  6
CONTINUOUS
 62
     7
 10
234.2122103093
 20
79.8323475595
 30
0.0
 11
218.2122076867
 21
79.8323475595
 31
0.0
  0
LINE
  5
DC
  8
0
  6
CONTINUOUS
 62
     7
 10
218.2122076867
 20
39.432349133
 30
0.0
 11
234.2122103093
 21
45.6323479141
 31
0.0
  0
LINE
  5
DD
  8
0
  6
CONTINUOUS
 62
     7
 10
218.2122076867
 20
39.432349133
 30
0.0
 11
214.7122080443
 21
39.432349133
 31
0.0
  0
LINE
  5
DE
  8
0
  6
CONTINUOUS
 62
     7
 10
214.7122080443
 20
79.8323475595
 30
0.0
 11
214.7122080443
 21
39.432349133
 31
0.0
  0
LINE
  5
DF
  8
0
  6
CONTINUOUS
 62
     7
 10
218.2122076867
 20
79.8323475595
 30
0.0
 11
214.7122080443
 21
79.8323475595
 31
0.0
  0
LINE
  5
E0
  8
0
  6
CONTINUOUS
 62
     7
 10
234.2122103093
 20
39.432349133
 30
0.0
 11
218.2122076867
 21
39.432349133
 31
0.0
  0
LINE
  5
E1
  8
0
  6
CONTINUOUS
 62
     7
 10
214.7122080443
 20
84.6323487188
 30
0.0
 11
234.2122103093
 21
84.6323487188
 31
0.0
  0
LINE
  5
E2
  8
0
  6
CONTINUOUS
 62
     7
 10
214.7122080443
 20
84.6323487188
 30
0.0
 11
214.7122080443
 21
79.8323475595
 31
0.0
  0
LINE
  5
E3
  8
0
  6
CONTINUOUS
 62
     7
 10
214.7122080443
 20
34.6323479737
 30
0.0
 11
234.2122103093
 21
34.6323479737
 31
0.0
  0
LINE
  5
E4
  8
0
  6
CONTINUOUS
 62
     7
 10
214.7122080443
 20
34.6323479737
 30
0.0
 11
214.7122080443
 21
39.432349133
 31
0.0
  0
LINE
  5
E5
  8
0
  6
CONTINUOUS
 62
     7
 10
218.2122076867
 20
89.6323476757
 30
0.0
 11
234.2122103093
 21
88.6503648783
 31
0.0
  0
LINE
  5
E6
  8
0
  6
CONTINUOUS
 62
     7
 10
214.7122080443
 20
89.6323476757
 30
0.0
 11
218.2122076867
 21
89.6323476757
 31
0.0
  0
LINE
  5
E7
  8
0
  6
CONTINUOUS
 62
     7
 10
214.7122080443
 20
89.6323476757
 30
0.0
 11
214.7122080443
 21
84.6323487188
 31
0.0
  0
LINE
  5
E8
  8
0
  6
CONTINUOUS
 62
     7
 10
218.2122076867
 20
89.6323476757
 30
0.0
 11
234.2122103093
 21
89.6323476757
 31
0.0
  0
LINE
  5
E9
  8
0
  6
CONTINUOUS
 62
     7
 10
218.2122076867
 20
29.6323490168
 30
0.0
 11
234.2122103093
 21
30.6143318142
 31
0.0
  0
LINE
  5
EA
  8
0
  6
CONTINUOUS
 62
     7
 10
214.7122080443
 20
29.6323490168
 30
0.0
 11
218.2122076867
 21
29.6323490168
 31
0.0
  0
LINE
  5
EB
  8
0
  6
CONTINUOUS
 62
     7
 10
214.7122080443
 20
29.6323490168
 30
0.0
 11
214.7122080443
 21
34.6323479737
 31
0.0
  0
LINE
  5
EC
  8
0
  6
CONTINUOUS
 62
     7
 10
218.2122076867
 20
29.6323490168
 30
0.0
 11
234.2122103093
 21
29.6323490168
 31
0.0
  0
LINE
  5
ED
  8
0
  6
CONTINUOUS
 62
     7
 10
168.7122042296
 20
39.432349133
 30
0.0
 11
214.7122080443
 21
39.432349133
 31
0.0
  0
LINE
  5
EE
  8
0
  6
CONTINUOUS
 62
     7
 10
168.7122042296
 20
79.8323475595
 30
0.0
 11
168.7122042296
 21
39.432349133
 31
0.0
  0
LINE
  5
EF
  8
0
  6
CONTINUOUS
 62
     7
 10
168.7122042296
 20
79.8323475595
 30
0.0
 11
214.7122080443
 21
79.8323475595
 31
0.0
  0
LINE
  5
F0
  8
0
  6
CONTINUOUS
 62
     7
 10
168.7122042296
 20
84.6323487188
 30
0.0
 11
214.7122080443
 21
84.6323487188
 31
0.0
  0
LINE
  5
F1
  8
0
  6
CONTINUOUS
 62
     7
 10
168.7122042296
 20
84.6323487188
 30
0.0
 11
168.7122042296
 21
79.8323475595
 31
0.0
  0
LINE
  5
F2
  8
0
  6
CONTINUOUS
 62
     7
 10
168.7122042296
 20
34.6323479737
 30
0.0
 11
214.7122080443
 21
34.6323479737
 31
0.0
  0
LINE
  5
F3
  8
0
  6
CONTINUOUS
 62
     7
 10
168.7122042296
 20
34.6323479737
 30
0.0
 11
168.7122042296
 21
39.432349133
 31
0.0
  0
LINE
  5
F4
  8
0
  6
CONTINUOUS
 62
     7
 10
168.7122042296
 20
89.6323476757
 30
0.0
 11
214.7122080443
 21
89.6323476757
 31
0.0
  0
LINE
  5
F5
  8
0
  6
CONTINUOUS
 62
     7
 10
168.7122042296
 20
89.6323476757
 30
0.0
 11
168.7122042296
 21
84.6323487188
 31
0.0
  0
LINE
  5
F6
  8
0
  6
CONTINUOUS
 62
     7
 10
168.7122042296
 20
29.6323490168
 30
0.0
 11
214.7122080443
 21
29.6323490168
 31
0.0
  0
LINE
  5
F7
  8
0
  6
CONTINUOUS
 62
     7
 10
168.7122042296
 20
29.6323490168
 30
0.0
 11
168.7122042296
 21
34.6323479737
 31
0.0
  0
LINE
  5
F8
  8
0
  6
CONTINUOUS
 62
     7
 10
205.912208092
 20
-190.7676584248
 30
0.0
 11
197.9122067807
 21
-190.7676584248
 31
0.0
  0
LINE
  5
F9
  8
0
  6
CONTINUOUS
 62
     7
 10
204.9122060654
 20
-230.7676500802
 30
0.0
 11
198.9122088072
 21
-230.7676500802
 31
0.0
  0
LINE
  5
FA
  8
0
  6
CONTINUOUS
 62
     7
 10
194.3122128961
 20
-260.2176494126
 30
0.0
 11
194.3122128961
 21
-254.9676424985
 31
0.0
  0
LINE
  5
FB
  8
0
  6
CONTINUOUS
 62
     7
 10
195.7129667518
 20
-258.5350698953
 30
0.0
 11
195.2258850453
 21
-252.9676384454
 31
0.0
  0
LINE
  5
FC
  8
0
  6
CONTINUOUS
 62
     7
 10
207.7122087596
 20
-250.767660809
 30
0.0
 11
197.1122081397
 21
-250.767660809
 31
0.0
  0
LINE
  5
FD
  8
0
  6
CONTINUOUS
 62
     7
 10
207.7122087596
 20
-251.7676479344
 30
0.0
 11
206.712206733
 21
-251.7676479344
 31
0.0
  0
ARC
  5
FE
  8
0
  6
CONTINUOUS
 62
     7
 10
195.9122092841
 20
-258.5176516538
 30
0.0
 40
0.1999999999999886
 50
185.0
 51
270.0
  0
LINE
  5
FF
  8
0
  6
CONTINUOUS
 62
     7
 10
196.8122105119
 20
-260.2176494126
 30
0.0
 11
194.3122128961
 21
-260.2176494126
 31
0.0
  0
LINE
  5
100
  8
0
  6
CONTINUOUS
 62
     7
 10
195.9122101782
 20
-258.7176389222
 30
0.0
 11
196.8122105119
 21
-258.7176389222
 31
0.0
  0
LINE
  5
101
  8
0
  6
CONTINUOUS
 62
     7
 10
194.3122128961
 20
-254.9676424985
 30
0.0
 11
193.6122084973
 21
-254.4676489358
 31
0.0
  0
LINE
  5
102
  8
0
  6
CONTINUOUS
 62
     7
 10
197.1122081397
 20
-250.767660809
 30
0.0
 11
197.1122081397
 21
-258.417648745
 31
0.0
  0
LINE
  5
103
  8
0
  6
CONTINUOUS
 62
     7
 10
197.1122081397
 20
-260.5176395898
 30
0.0
 11
197.1122081397
 21
-261.4676482205
 31
0.0
  0
LINE
  5
104
  8
0
  6
CONTINUOUS
 62
     7
 10
193.3122108696
 20
-254.4676489358
 30
0.0
 11
193.3122108696
 21
-252.9676384454
 31
0.0
  0
ARC
  5
105
  8
0
  6
CONTINUOUS
 62
     7
 10
196.8122092841
 20
-260.5176516538
 30
0.0
 40
0.3000000000000682
 50
0.0
 51
90.0
  0
LINE
  5
106
  8
0
  6
CONTINUOUS
 62
     7
 10
193.3122108696
 20
-254.4676489358
 30
0.0
 11
193.6122084973
 21
-254.4676489358
 31
0.0
  0
LINE
  5
107
  8
0
  6
CONTINUOUS
 62
     7
 10
195.2258850453
 20
-252.9676384454
 30
0.0
 11
193.3122108696
 21
-252.9676384454
 31
0.0
  0
LINE
  5
108
  8
0
  6
CONTINUOUS
 62
     7
 10
206.712206733
 20
-251.7676479344
 30
0.0
 11
206.712206733
 21
-261.4676482205
 31
0.0
  0
ARC
  5
109
  8
0
  6
CONTINUOUS
 62
     7
 10
196.8122092841
 20
-258.4176516538
 30
0.0
 40
0.2999999999999829
 50
270.0
 51
0.0
  0
LINE
  5
10A
  8
0
  6
CONTINUOUS
 62
     7
 10
207.7122087596
 20
-250.767660809
 30
0.0
 11
207.7122087596
 21
-251.7676479344
 31
0.0
  0
LINE
  5
10B
  8
0
  6
CONTINUOUS
 62
     7
 10
197.1122081397
 20
-261.4676482205
 30
0.0
 11
206.712206733
 21
-261.4676482205
 31
0.0
  0
LINE
  5
10C
  8
0
  6
CONTINUOUS
 62
     7
 10
202.4122084496
 20
-261.4676482205
 30
0.0
 11
202.4122084496
 21
-270.3676647668
 31
0.0
  0
LINE
  5
10D
  8
0
  6
CONTINUOUS
 62
     7
 10
205.8122063992
 20
-261.4676482205
 30
0.0
 11
205.8122063992
 21
-270.3676647668
 31
0.0
  0
LINE
  5
10E
  8
0
  6
CONTINUOUS
 62
     7
 10
205.8122063992
 20
-270.3676647668
 30
0.0
 11
202.4122084496
 21
-270.3676647668
 31
0.0
  0
LINE
  5
10F
  8
0
  6
CONTINUOUS
 62
     7
 10
200.862212014
 20
-261.4676482205
 30
0.0
 11
200.862212014
 21
-270.3676647668
 31
0.0
  0
LINE
  5
110
  8
0
  6
CONTINUOUS
 62
     7
 10
198.212211859
 20
-261.4676482205
 30
0.0
 11
198.212211859
 21
-270.3676647668
 31
0.0
  0
LINE
  5
111
  8
0
  6
CONTINUOUS
 62
     7
 10
200.862212014
 20
-270.3676647668
 30
0.0
 11
198.212211859
 21
-270.3676647668
 31
0.0
  0
LINE
  5
112
  8
0
  6
CONTINUOUS
 62
     7
 10
201.6122098086
 20
-270.3676647668
 30
0.0
 11
201.6122098086
 21
-261.4676482205
 31
0.0
  0
LINE
  5
113
  8
0
  6
CONTINUOUS
 62
     7
 10
200.862212014
 20
-270.3676647668
 30
0.0
 11
201.6122098086
 21
-270.3676647668
 31
0.0
  0
LINE
  5
114
  8
0
  6
CONTINUOUS
 62
     7
 10
197.1122081397
 20
-264.7676593785
 30
0.0
 11
195.6122125504
 21
-264.898879004
 31
0.0
  0
LINE
  5
115
  8
0
  6
CONTINUOUS
 62
     7
 10
195.6122125504
 20
-267.767650557
 30
0.0
 11
197.1122081397
 21
-266.2676400666
 31
0.0
  0
LINE
  5
116
  8
0
  6
CONTINUOUS
 62
     7
 10
195.6122125504
 20
-267.767650557
 30
0.0
 11
194.3122128961
 21
-267.767650557
 31
0.0
  0
LINE
  5
117
  8
0
  6
CONTINUOUS
 62
     7
 10
194.3122128961
 20
-267.767650557
 30
0.0
 11
193.6122084973
 21
-267.0676536088
 31
0.0
  0
LINE
  5
118
  8
0
  6
CONTINUOUS
 62
     7
 10
197.1122081397
 20
-264.7676593785
 30
0.0
 11
197.1122081397
 21
-266.2676400666
 31
0.0
  0
LINE
  5
119
  8
0
  6
CONTINUOUS
 62
     7
 10
195.6122125504
 20
-264.898879004
 30
0.0
 11
195.6122125504
 21
-260.2176494126
 31
0.0
  0
LINE
  5
11A
  8
0
  6
CONTINUOUS
 62
     7
 10
193.6122084973
 20
-254.4676489358
 30
0.0
 11
193.6122084973
 21
-267.0676536088
 31
0.0
  0
LINE
  5
11B
  8
0
  6
CONTINUOUS
 62
     7
 10
206.712206733
 20
-261.4676482205
 30
0.0
 11
206.9622109649
 21
-261.4676482205
 31
0.0
  0
LINE
  5
11C
  8
0
  6
CONTINUOUS
 62
     7
 10
158.1345553515
 20
39.432349133
 30
0.0
 11
168.7122042296
 21
39.432349133
 31
0.0
  0
ARC
  5
11D
  8
0
  6
CONTINUOUS
 62
     7
 10
303.7091426368
 20
59.6323483462
 30
0.0
 40
146.9693845669906
 50
172.1000552368
 51
187.8999447632
  0
LINE
  5
11E
  8
0
  6
CONTINUOUS
 62
     7
 10
158.1345553515
 20
79.8323475595
 30
0.0
 11
168.7122042296
 21
79.8323475595
 31
0.0
  0
LINE
  5
11F
  8
0
  6
CONTINUOUS
 62
     7
 10
156.4122046349
 20
87.9804254348
 30
0.0
 11
156.4122046349
 21
34.5714040871
 31
0.0
  0
LINE
  5
120
  8
0
  6
CONTINUOUS
 62
     7
 10
158.1345553515
 20
89.6323476757
 30
0.0
 11
156.7397619603
 21
89.6323476757
 31
0.0
  0
ARC
  5
121
  8
0
  6
CONTINUOUS
 62
     7
 10
303.7091426368
 20
59.6323483462
 30
0.0
 40
148.6336435669932
 50
168.3555065844
 51
170.316890223
  0
POLYLINE
  5
122
  8
0
  6
CONTINUOUS
 62
     7
 66
     1
 10
0.0
 20
0.0
 30
0.0
 70
   128
  0
VERTEX
  5
79E
  8
0
  6
CONTINUOUS
 62
     7
 10
157.193070185
 20
79.8323475595
 30
0.0
  0
VERTEX
  5
79F
  8
0
  6
CONTINUOUS
 62
     7
 10
156.9709236739
 20
80.0947476949
 30
0.0
  0
VERTEX
  5
7A0
  8
0
  6
CONTINUOUS
 62
     7
 10
156.8622793076
 20
80.8614739056
 30
0.0
  0
VERTEX
  5
7A1
  8
0
  6
CONTINUOUS
 62
     7
 10
156.8801308987
 20
82.0292648698
 30
0.0
  0
VERTEX
  5
7A2
  8
0
  6
CONTINUOUS
 62
     7
 10
157.0181901572
 20
83.4619258369
 30
0.0
  0
VERTEX
  5
7A3
  8
0
  6
CONTINUOUS
 62
     7
 10
157.193070185
 20
84.6323487188
 30
0.0
  0
SEQEND
  5
88C
  8
0
  6
CONTINUOUS
 62
     7
  0
LINE
  5
123
  8
0
  6
CONTINUOUS
 62
     7
 10
158.1345553515
 20
79.8323475595
 30
0.0
 11
157.193070185
 21
79.8323475595
 31
0.0
  0
LINE
  5
124
  8
0
  6
CONTINUOUS
 62
     7
 10
157.193070185
 20
39.432349133
 30
0.0
 11
158.1345553515
 21
39.432349133
 31
0.0
  0
POLYLINE
  5
125
  8
0
  6
CONTINUOUS
 62
     7
 66
     1
 10
0.0
 20
0.0
 30
0.0
 70
   128
  0
VERTEX
  5
7A4
  8
0
  6
CONTINUOUS
 62
     7
 10
157.193070185
 20
34.6323479737
 30
0.0
  0
VERTEX
  5
7A5
  8
0
  6
CONTINUOUS
 62
     7
 10
156.9709236739
 20
36.1976553525
 30
0.0
  0
VERTEX
  5
7A6
  8
0
  6
CONTINUOUS
 62
     7
 10
156.8622793076
 20
37.6022816475
 30
0.0
  0
VERTEX
  5
7A7
  8
0
  6
CONTINUOUS
 62
     7
 10
156.8801308987
 20
38.6652075524
 30
0.0
  0
VERTEX
  5
7A8
  8
0
  6
CONTINUOUS
 62
     7
 10
157.0181901572
 20
39.2874651427
 30
0.0
  0
VERTEX
  5
7A9
  8
0
  6
CONTINUOUS
 62
     7
 10
157.193070185
 20
39.432349133
 30
0.0
  0
SEQEND
  5
88D
  8
0
  6
CONTINUOUS
 62
     7
  0
ARC
  5
126
  8
0
  6
CONTINUOUS
 62
     7
 10
303.7091426368
 20
59.6323483462
 30
0.0
 40
148.6336435669932
 50
189.683109777
 51
191.6444934156
  0
LINE
  5
127
  8
0
  6
CONTINUOUS
 62
     7
 10
157.3382521985
 20
29.6323490168
 30
0.0
 11
158.1345553515
 21
29.6323490168
 31
0.0
  0
ARC
  5
128
  8
0
  6
CONTINUOUS
 62
     7
 10
303.7091426368
 20
59.6323483462
 30
0.0
 40
149.4136456285034
 50
189.6557822534
 51
191.5828600674
  0
LINE
  5
129
  8
0
  6
CONTINUOUS
 62
     7
 10
154.9122090457
 20
85.3823483761
 30
0.0
 11
154.9122090457
 21
37.5529457654
 31
0.0
  0
POLYLINE
  5
12A
  8
0
  6
CONTINUOUS
 62
     7
 66
     1
 10
0.0
 20
0.0
 30
0.0
 70
   128
  0
VERTEX
  5
7AA
  8
0
  6
CONTINUOUS
 62
     7
 10
154.9122090457
 20
37.5529457654
 30
0.0
  0
VERTEX
  5
7AB
  8
0
  6
CONTINUOUS
 62
     7
 10
156.0033614752
 20
35.3753310467
 30
0.0
  0
VERTEX
  5
7AC
  8
0
  6
CONTINUOUS
 62
     7
 10
156.4122046349
 20
34.5714040871
 30
0.0
  0
SEQEND
  5
88E
  8
0
  6
CONTINUOUS
 62
     7
  0
LINE
  5
12B
  8
0
  6
CONTINUOUS
 62
     7
 10
157.193070185
 20
34.6323479737
 30
0.0
 11
168.7122042296
 21
34.6323479737
 31
0.0
  0
LINE
  5
12C
  8
0
  6
CONTINUOUS
 62
     7
 10
157.193070185
 20
84.6323487188
 30
0.0
 11
168.7122042296
 21
84.6323487188
 31
0.0
  0
LINE
  5
12D
  8
0
  6
CONTINUOUS
 62
     7
 10
158.1345553515
 20
89.6323476757
 30
0.0
 11
168.7122042296
 21
89.6323476757
 31
0.0
  0
LINE
  5
12E
  8
0
  6
CONTINUOUS
 62
     7
 10
158.1345553515
 20
29.6323490168
 30
0.0
 11
168.7122042296
 21
29.6323490168
 31
0.0
  0
LINE
  5
12F
  8
0
  6
CONTINUOUS
 62
     7
 10
157.3382521985
 20
29.6323490168
 30
0.0
 11
154.9122090457
 21
29.6323490168
 31
0.0
  0
LINE
  5
130
  8
0
  6
CONTINUOUS
 62
     7
 10
154.9122090457
 20
29.6323490168
 30
0.0
 11
154.9122090457
 21
37.5529457654
 31
0.0
  0
LINE
  5
131
  8
0
  6
CONTINUOUS
 62
     7
 10
231.2622125266
 20
27.7323485191
 30
0.0
 11
231.2622125266
 21
25.1323492105
 31
0.0
  0
LINE
  5
132
  8
0
  6
CONTINUOUS
 62
     7
 10
231.2622125266
 20
25.1323492105
 30
0.0
 11
233.1622074363
 21
25.1323492105
 31
0.0
  0
LINE
  5
133
  8
0
  6
CONTINUOUS
 62
     7
 10
233.1622074363
 20
25.1323492105
 30
0.0
 11
233.1622074363
 21
24.8323478575
 31
0.0
  0
LINE
  5
134
  8
0
  6
CONTINUOUS
 62
     7
 10
229.0622125385
 20
24.8323478575
 30
0.0
 11
233.1622074363
 21
24.8323478575
 31
0.0
  0
LINE
  5
135
  8
0
  6
CONTINUOUS
 62
     7
 10
229.0622125385
 20
25.1323492105
 30
0.0
 11
229.0622125385
 21
24.8323478575
 31
0.0
  0
LINE
  5
136
  8
0
  6
CONTINUOUS
 62
     7
 10
229.0622125385
 20
25.1323492105
 30
0.0
 11
230.9622074483
 21
25.1323492105
 31
0.0
  0
LINE
  5
137
  8
0
  6
CONTINUOUS
 62
     7
 10
230.9622074483
 20
27.7323485191
 30
0.0
 11
230.9622074483
 21
25.1323492105
 31
0.0
  0
LINE
  5
138
  8
0
  6
CONTINUOUS
 62
     7
 10
230.9622074483
 20
27.7323485191
 30
0.0
 11
231.2622125266
 21
27.7323485191
 31
0.0
  0
LINE
  5
139
  8
0
  6
CONTINUOUS
 62
     7
 10
230.2622105
 20
23.8323495562
 30
0.0
 11
231.9622094748
 21
23.8323495562
 31
0.0
  0
LINE
  5
13A
  8
0
  6
CONTINUOUS
 62
     7
 10
231.9622094748
 20
23.8323495562
 30
0.0
 11
231.9622094748
 21
23.5323482032
 31
0.0
  0
LINE
  5
13B
  8
0
  6
CONTINUOUS
 62
     7
 10
230.2622105
 20
23.5323482032
 30
0.0
 11
231.9622094748
 21
23.5323482032
 31
0.0
  0
LINE
  5
13C
  8
0
  6
CONTINUOUS
 62
     7
 10
230.2622105
 20
23.8323495562
 30
0.0
 11
230.2622105
 21
23.5323482032
 31
0.0
  0
LINE
  5
13D
  8
0
  6
CONTINUOUS
 62
     7
 10
232.5622121809
 20
24.4823493834
 30
0.0
 11
232.5622121809
 21
24.1823480303
 31
0.0
  0
LINE
  5
13E
  8
0
  6
CONTINUOUS
 62
     7
 10
229.662207794
 20
24.4823493834
 30
0.0
 11
232.5622121809
 21
24.4823493834
 31
0.0
  0
LINE
  5
13F
  8
0
  6
CONTINUOUS
 62
     7
 10
229.662207794
 20
24.4823493834
 30
0.0
 11
229.662207794
 21
24.1823480303
 31
0.0
  0
LINE
  5
140
  8
0
  6
CONTINUOUS
 62
     7
 10
229.662207794
 20
24.1823480303
 30
0.0
 11
232.5622121809
 21
24.1823480303
 31
0.0
  0
CIRCLE
  5
141
  8
0
  6
CONTINUOUS
 62
     7
 10
231.1122092841
 20
25.6323483462
 30
0.0
 40
2.600000000000023
  0
CIRCLE
  5
142
  8
0
  6
CONTINUOUS
 62
     7
 10
231.1122092841
 20
25.6323483462
 30
0.0
 40
2.900000000000006
  0
LINE
  5
143
  8
0
  6
CONTINUOUS
 62
     7
 10
216.1122093914
 20
18.6323472138
 30
0.0
 11
216.1122093914
 21
20.1708213265
 31
0.0
  0
LINE
  5
144
  8
0
  6
CONTINUOUS
 62
     7
 10
216.1122093914
 20
20.1708213265
 30
0.0
 11
232.3122079489
 21
20.1708213265
 31
0.0
  0
LINE
  5
145
  8
0
  6
CONTINUOUS
 62
     7
 10
232.3122079489
 20
20.1708213265
 30
0.0
 11
232.3122079489
 21
18.6323472138
 31
0.0
  0
ARC
  5
146
  8
0
  6
CONTINUOUS
 62
     7
 10
225.1120266555
 20
-41.2384575498
 30
0.0
 40
60.10053146102166
 50
85.0507264571
 51
95.0112104533
  0
LINE
  5
147
  8
0
  6
CONTINUOUS
 62
     7
 10
240.6122106133
 20
24.2196046586
 30
0.0
 11
232.3122079489
 21
20.1708213265
 31
0.0
  0
POLYLINE
  5
148
  8
0
  6
CONTINUOUS
 62
     7
 66
     1
 10
0.0
 20
0.0
 30
0.0
 70
   128
  0
VERTEX
  5
7AD
  8
0
  6
CONTINUOUS
 62
     7
 10
244.6122075436
 20
25.3892042513
 30
0.0
  0
VERTEX
  5
7AE
  8
0
  6
CONTINUOUS
 62
     7
 10
244.423547667
 20
25.5046435471
 30
0.0
  0
VERTEX
  5
7AF
  8
0
  6
CONTINUOUS
 62
     7
 10
243.8724580226
 20
25.4467823382
 30
0.0
  0
VERTEX
  5
7B0
  8
0
  6
CONTINUOUS
 62
     7
 10
243.0375496862
 20
25.2195582564
 30
0.0
  0
VERTEX
  5
7B1
  8
0
  6
CONTINUOUS
 62
     7
 10
241.9786806224
 20
24.8311259623
 30
0.0
  0
VERTEX
  5
7B2
  8
0
  6
CONTINUOUS
 62
     7
 10
240.6122106133
 20
24.2196046586
 30
0.0
  0
SEQEND
  5
88F
  8
0
  6
CONTINUOUS
 62
     7
  0
LINE
  5
149
  8
0
  6
CONTINUOUS
 62
     7
 10
244.6122075436
 20
25.3892042513
 30
0.0
 11
244.6122075436
 21
24.6518798943
 31
0.0
  0
LINE
  5
14A
  8
0
  6
CONTINUOUS
 62
     7
 10
240.6122106133
 20
24.2196046586
 30
0.0
 11
240.6122106133
 21
29.6323490168
 31
0.0
  0
LINE
  5
14B
  8
0
  6
CONTINUOUS
 62
     7
 10
244.6122075436
 20
29.6323490168
 30
0.0
 11
244.6122075436
 21
25.3892042513
 31
0.0
  0
LINE
  5
14C
  8
0
  6
CONTINUOUS
 62
     7
 10
216.1122093914
 20
20.1708213265
 30
0.0
 11
216.1122093914
 21
29.6323490168
 31
0.0
  0
LINE
  5
14D
  8
0
  6
CONTINUOUS
 62
     7
 10
219.8622058151
 20
16.6323468859
 30
0.0
 11
230.3622121928
 21
16.6323468859
 31
0.0
  0
ARC
  5
14E
  8
0
  6
CONTINUOUS
 62
     7
 10
221.1122092841
 20
24.8323483462
 30
0.0
 40
2.200000000000006
 50
321.5249788441
 51
128.4750211559
  0
ARC
  5
14F
  8
0
  6
CONTINUOUS
 62
     7
 10
221.1122092841
 20
24.8323483462
 30
0.0
 40
3.500000000000008
 50
319.0960437582
 51
130.9039562418
  0
POLYLINE
  5
150
  8
0
  6
CONTINUOUS
 62
     7
 66
     1
 10
0.0
 20
0.0
 30
0.0
 70
   128
  0
VERTEX
  5
7B3
  8
0
  6
CONTINUOUS
 62
     7
 10
223.7575407145
 20
22.5405716176
 30
0.0
  0
VERTEX
  5
7B4
  8
0
  6
CONTINUOUS
 62
     7
 10
223.7058113334
 20
22.5923009987
 30
0.0
  0
VERTEX
  5
7B5
  8
0
  6
CONTINUOUS
 62
     7
 10
223.55652405
 20
22.7415882821
 30
0.0
  0
VERTEX
  5
7B6
  8
0
  6
CONTINUOUS
 62
     7
 10
223.3263979671
 20
22.971714365
 30
0.0
  0
VERTEX
  5
7B7
  8
0
  6
CONTINUOUS
 62
     7
 10
223.0407948611
 20
23.2573211963
 30
0.0
  0
VERTEX
  5
7B8
  8
0
  6
CONTINUOUS
 62
     7
 10
222.8345404384
 20
23.4635681684
 30
0.0
  0
SEQEND
  5
890
  8
0
  6
CONTINUOUS
 62
     7
  0
POLYLINE
  5
151
  8
0
  6
CONTINUOUS
 62
     7
 66
     1
 10
0.0
 20
0.0
 30
0.0
 70
   128
  0
VERTEX
  5
7B9
  8
0
  6
CONTINUOUS
 62
     7
 10
219.7434286592
 20
26.5546836729
 30
0.0
  0
VERTEX
  5
7BA
  8
0
  6
CONTINUOUS
 62
     7
 10
219.4365168927
 20
26.8615917142
 30
0.0
  0
VERTEX
  5
7BB
  8
0
  6
CONTINUOUS
 62
     7
 10
219.1642428754
 20
27.1338657315
 30
0.0
  0
VERTEX
  5
7BC
  8
0
  6
CONTINUOUS
 62
     7
 10
218.9586590049
 20
27.3394496019
 30
0.0
  0
VERTEX
  5
7BD
  8
0
  6
CONTINUOUS
 62
     7
 10
218.8421319244
 20
27.4559804077
 30
0.0
  0
VERTEX
  5
7BE
  8
0
  6
CONTINUOUS
 62
     7
 10
218.8204358337
 20
27.4776764984
 30
0.0
  0
SEQEND
  5
891
  8
0
  6
CONTINUOUS
 62
     7
  0
ARC
  5
152
  8
0
  6
CONTINUOUS
 62
     7
 10
221.1122092841
 20
24.8323483462
 30
0.0
 40
2.20000000000002
 50
141.5249788441
 51
308.4750211559
  0
ARC
  5
153
  8
0
  6
CONTINUOUS
 62
     7
 10
221.1122092841
 20
24.8323483462
 30
0.0
 40
3.500000000000001
 50
139.0960437582
 51
310.9039562418
  0
POLYLINE
  5
154
  8
0
  6
CONTINUOUS
 62
     7
 66
     1
 10
0.0
 20
0.0
 30
0.0
 70
   128
  0
VERTEX
  5
7BF
  8
0
  6
CONTINUOUS
 62
     7
 10
218.4668834326
 20
27.1241240974
 30
0.0
  0
VERTEX
  5
7C0
  8
0
  6
CONTINUOUS
 62
     7
 10
218.5186053631
 20
27.0723947163
 30
0.0
  0
VERTEX
  5
7C1
  8
0
  6
CONTINUOUS
 62
     7
 10
218.6679000971
 20
26.9231074329
 30
0.0
  0
VERTEX
  5
7C2
  8
0
  6
CONTINUOUS
 62
     7
 10
218.89802618
 20
26.69298135
 30
0.0
  0
VERTEX
  5
7C3
  8
0
  6
CONTINUOUS
 62
     7
 10
219.1836292861
 20
26.4073782439
 30
0.0
  0
VERTEX
  5
7C4
  8
0
  6
CONTINUOUS
 62
     7
 10
219.3898762582
 20
26.2011312719
 30
0.0
  0
SEQEND
  5
892
  8
0
  6
CONTINUOUS
 62
     7
  0
POLYLINE
  5
155
  8
0
  6
CONTINUOUS
 62
     7
 66
     1
 10
0.0
 20
0.0
 30
0.0
 70
   128
  0
VERTEX
  5
7C5
  8
0
  6
CONTINUOUS
 62
     7
 10
222.4809880374
 20
23.1100120421
 30
0.0
  0
VERTEX
  5
7C6
  8
0
  6
CONTINUOUS
 62
     7
 10
222.7878998039
 20
22.8031040008
 30
0.0
  0
VERTEX
  5
7C7
  8
0
  6
CONTINUOUS
 62
     7
 10
223.0601738212
 20
22.5308299835
 30
0.0
  0
VERTEX
  5
7C8
  8
0
  6
CONTINUOUS
 62
     7
 10
223.2657576916
 20
22.3252498384
 30
0.0
  0
VERTEX
  5
7C9
  8
0
  6
CONTINUOUS
 62
     7
 10
223.3822922228
 20
22.2087153073
 30
0.0
  0
VERTEX
  5
7CA
  8
0
  6
CONTINUOUS
 62
     7
 10
223.4039883135
 20
22.1870192166
 30
0.0
  0
SEQEND
  5
893
  8
0
  6
CONTINUOUS
 62
     7
  0
ARC
  5
156
  8
0
  6
CONTINUOUS
 62
     7
 10
219.3444423311
 20
24.8323483462
 30
0.0
 40
0.9999999999999829
 50
315.0
 51
45.0
  0
LINE
  5
157
  8
0
  6
CONTINUOUS
 62
     7
 10
219.450509083
 20
23.5242009933
 30
0.0
 11
220.0515474198
 21
24.1252430554
 31
0.0
  0
LINE
  5
158
  8
0
  6
CONTINUOUS
 62
     7
 10
219.450509083
 20
23.5242009933
 30
0.0
 11
219.8040614841
 21
23.1706485922
 31
0.0
  0
ARC
  5
159
  8
0
  6
CONTINUOUS
 62
     7
 10
221.1122092841
 20
23.0645813933
 30
0.0
 40
1.000000000000003
 50
45.0
 51
135.0
  0
LINE
  5
15A
  8
0
  6
CONTINUOUS
 62
     7
 10
219.8040614841
 20
23.1706485922
 30
0.0
 11
220.4050998209
 21
23.771686929
 31
0.0
  0
LINE
  5
15B
  8
0
  6
CONTINUOUS
 62
     7
 10
219.3898762582
 20
26.2011312719
 30
0.0
 11
220.0515474198
 21
25.5394563849
 31
0.0
  0
LINE
  5
15C
  8
0
  6
CONTINUOUS
 62
     7
 10
221.8193168757
 20
23.771686929
 30
0.0
 11
222.4809880374
 21
23.1100120421
 31
0.0
  0
ARC
  5
15D
  8
0
  6
CONTINUOUS
 62
     7
 10
221.1122092841
 20
26.6001152992
 30
0.0
 40
1.0
 50
225.0
 51
315.0
  0
LINE
  5
15E
  8
0
  6
CONTINUOUS
 62
     7
 10
222.4203552125
 20
26.494050848
 30
0.0
 11
222.7739076135
 21
26.1404947217
 31
0.0
  0
LINE
  5
15F
  8
0
  6
CONTINUOUS
 62
     7
 10
222.1728692768
 20
25.5394563849
 30
0.0
 11
222.7739076135
 21
26.1404947217
 31
0.0
  0
ARC
  5
160
  8
0
  6
CONTINUOUS
 62
     7
 10
222.879976237
 20
24.8323483462
 30
0.0
 40
0.9999999999999729
 50
135.0
 51
225.0
  0
LINE
  5
161
  8
0
  6
CONTINUOUS
 62
     7
 10
221.8193168757
 20
25.893008786
 30
0.0
 11
222.4203552125
 21
26.494050848
 31
0.0
  0
LINE
  5
162
  8
0
  6
CONTINUOUS
 62
     7
 10
222.1728692768
 20
24.1252430554
 30
0.0
 11
222.8345404384
 21
23.4635681684
 31
0.0
  0
LINE
  5
163
  8
0
  6
CONTINUOUS
 62
     7
 10
219.7434286592
 20
26.5546836729
 30
0.0
 11
220.4050998209
 21
25.893008786
 31
0.0
  0
ARC
  5
164
  8
0
  6
CONTINUOUS
 62
     7
 10
221.1122092841
 20
24.8323483462
 30
0.0
 40
3.500000000000008
 50
130.9039562418
 51
139.0960437582
  0
ARC
  5
165
  8
0
  6
CONTINUOUS
 62
     7
 10
221.1122092841
 20
24.8323483462
 30
0.0
 40
3.499999999999998
 50
310.9039562418
 51
319.0960437582
  0
LINE
  5
166
  8
0
  6
CONTINUOUS
 62
     7
 10
227.81220628
 20
-254.4676489358
 30
0.0
 11
222.4122117279
 21
-254.4676489358
 31
0.0
  0
LINE
  5
167
  8
0
  6
CONTINUOUS
 62
     7
 10
222.4122117279
 20
-254.4676489358
 30
0.0
 11
222.4122117279
 21
-252.9676384454
 31
0.0
  0
LINE
  5
168
  8
0
  6
CONTINUOUS
 62
     7
 10
227.81220628
 20
-252.9676384454
 30
0.0
 11
222.4122117279
 21
-252.9676384454
 31
0.0
  0
LINE
  5
169
  8
0
  6
CONTINUOUS
 62
     7
 10
227.81220628
 20
-252.9676384454
 30
0.0
 11
227.81220628
 21
-254.4676489358
 31
0.0
  0
LINE
  5
16A
  8
0
  6
CONTINUOUS
 62
     7
 10
222.4122117279
 20
-254.9676424985
 30
0.0
 11
223.6122096894
 21
-254.9676424985
 31
0.0
  0
LINE
  5
16B
  8
0
  6
CONTINUOUS
 62
     7
 10
222.4122117279
 20
-254.4676489358
 30
0.0
 11
222.4122117279
 21
-254.9676424985
 31
0.0
  0
LINE
  5
16C
  8
0
  6
CONTINUOUS
 62
     7
 10
226.6122083185
 20
-267.767650557
 30
0.0
 11
223.6122096894
 21
-267.767650557
 31
0.0
  0
LINE
  5
16D
  8
0
  6
CONTINUOUS
 62
     7
 10
223.6122096894
 20
-267.767650557
 30
0.0
 11
223.6122096894
 21
-267.0676536088
 31
0.0
  0
LINE
  5
16E
  8
0
  6
CONTINUOUS
 62
     7
 10
226.6122083185
 20
-267.0676536088
 30
0.0
 11
223.6122096894
 21
-267.0676536088
 31
0.0
  0
LINE
  5
16F
  8
0
  6
CONTINUOUS
 62
     7
 10
226.6122083185
 20
-267.0676536088
 30
0.0
 11
226.6122083185
 21
-267.767650557
 31
0.0
  0
LINE
  5
170
  8
0
  6
CONTINUOUS
 62
     7
 10
227.81220628
 20
-254.9676424985
 30
0.0
 11
226.6122083185
 21
-254.9676424985
 31
0.0
  0
LINE
  5
171
  8
0
  6
CONTINUOUS
 62
     7
 10
227.81220628
 20
-254.9676424985
 30
0.0
 11
227.81220628
 21
-254.4676489358
 31
0.0
  0
LINE
  5
172
  8
0
  6
CONTINUOUS
 62
     7
 10
226.6122083185
 20
-267.0676536088
 30
0.0
 11
226.6122083185
 21
-254.4676489358
 31
0.0
  0
LINE
  5
173
  8
0
  6
CONTINUOUS
 62
     7
 10
223.6122096894
 20
-254.4676489358
 30
0.0
 11
223.6122096894
 21
-267.0676536088
 31
0.0
  0
LINE
  5
174
  8
0
  6
CONTINUOUS
 62
     7
 10
222.4122117279
 20
-260.2176494126
 30
0.0
 11
223.6122096894
 21
-260.2176494126
 31
0.0
  0
LINE
  5
175
  8
0
  6
CONTINUOUS
 62
     7
 10
222.4122117279
 20
-254.9676424985
 30
0.0
 11
222.4122117279
 21
-260.2176494126
 31
0.0
  0
LINE
  5
176
  8
0
  6
CONTINUOUS
 62
     7
 10
227.81220628
 20
-260.2176494126
 30
0.0
 11
226.6122083185
 21
-260.2176494126
 31
0.0
  0
LINE
  5
177
  8
0
  6
CONTINUOUS
 62
     7
 10
227.81220628
 20
-260.2176494126
 30
0.0
 11
227.81220628
 21
-254.9676424985
 31
0.0
  0
LINE
  5
178
  8
0
  6
CONTINUOUS
 62
     7
 10
228.6122123716
 20
-250.767660809
 30
0.0
 11
228.6122123716
 21
-251.7676479344
 31
0.0
  0
LINE
  5
179
  8
0
  6
CONTINUOUS
 62
     7
 10
232.0122103212
 20
-250.767660809
 30
0.0
 11
228.6122123716
 21
-250.767660809
 31
0.0
  0
LINE
  5
17A
  8
0
  6
CONTINUOUS
 62
     7
 10
232.0122103212
 20
-251.7676479344
 30
0.0
 11
232.0122103212
 21
-250.767660809
 31
0.0
  0
LINE
  5
17B
  8
0
  6
CONTINUOUS
 62
     7
 10
228.6122123716
 20
-251.7676479344
 30
0.0
 11
232.0122103212
 21
-251.7676479344
 31
0.0
  0
LINE
  5
17C
  8
0
  6
CONTINUOUS
 62
     7
 10
218.2122076867
 20
-251.7676479344
 30
0.0
 11
218.2122076867
 21
-250.767660809
 31
0.0
  0
LINE
  5
17D
  8
0
  6
CONTINUOUS
 62
     7
 10
221.6122056363
 20
-250.767660809
 30
0.0
 11
218.2122076867
 21
-250.767660809
 31
0.0
  0
LINE
  5
17E
  8
0
  6
CONTINUOUS
 62
     7
 10
221.6122056363
 20
-251.7676479344
 30
0.0
 11
221.6122056363
 21
-250.767660809
 31
0.0
  0
LINE
  5
17F
  8
0
  6
CONTINUOUS
 62
     7
 10
218.2122076867
 20
-251.7676479344
 30
0.0
 11
221.6122056363
 21
-251.7676479344
 31
0.0
  0
LINE
  5
180
  8
0
  6
CONTINUOUS
 62
     7
 10
222.4122117279
 20
-260.5176395898
 30
0.0
 11
223.6122096894
 21
-260.5176395898
 31
0.0
  0
LINE
  5
181
  8
0
  6
CONTINUOUS
 62
     7
 10
222.4122117279
 20
-260.2176494126
 30
0.0
 11
222.4122117279
 21
-260.5176395898
 31
0.0
  0
LINE
  5
182
  8
0
  6
CONTINUOUS
 62
     7
 10
226.6122083185
 20
-260.5176395898
 30
0.0
 11
227.81220628
 21
-260.5176395898
 31
0.0
  0
LINE
  5
183
  8
0
  6
CONTINUOUS
 62
     7
 10
227.81220628
 20
-260.5176395898
 30
0.0
 11
227.81220628
 21
-260.2176494126
 31
0.0
  0
LINE
  5
184
  8
0
  6
CONTINUOUS
 62
     7
 10
218.2122076867
 20
-261.4676482205
 30
0.0
 11
223.6122096894
 21
-261.4676482205
 31
0.0
  0
LINE
  5
185
  8
0
  6
CONTINUOUS
 62
     7
 10
226.6122083185
 20
-261.4676482205
 30
0.0
 11
232.0122103212
 21
-261.4676482205
 31
0.0
  0
LINE
  5
186
  8
0
  6
CONTINUOUS
 62
     7
 10
221.6122056363
 20
-250.767660809
 30
0.0
 11
228.6122123716
 21
-250.767660809
 31
0.0
  0
LINE
  5
187
  8
0
  6
CONTINUOUS
 62
     7
 10
218.2122076867
 20
-251.7676479344
 30
0.0
 11
218.2122076867
 21
-261.4676482205
 31
0.0
  0
LINE
  5
188
  8
0
  6
CONTINUOUS
 62
     7
 10
232.0122103212
 20
-251.7676479344
 30
0.0
 11
232.0122103212
 21
-261.4676482205
 31
0.0
  0
LINE
  5
189
  8
0
  6
CONTINUOUS
 62
     7
 10
221.1122120736
 20
-215.7676643853
 30
0.0
 11
229.1122059343
 21
-215.7676643853
 31
0.0
  0
LINE
  5
18A
  8
0
  6
CONTINUOUS
 62
     7
 10
220.6122110603
 20
-190.7676584248
 30
0.0
 11
229.6122069476
 21
-190.7676584248
 31
0.0
  0
LINE
  5
18B
  8
0
  6
CONTINUOUS
 62
     7
 10
222.6122076628
 20
-270.3676647668
 30
0.0
 11
219.2122097132
 21
-270.3676647668
 31
0.0
  0
LINE
  5
18C
  8
0
  6
CONTINUOUS
 62
     7
 10
219.2122097132
 20
-270.3676647668
 30
0.0
 11
219.2122097132
 21
-261.4676482205
 31
0.0
  0
LINE
  5
18D
  8
0
  6
CONTINUOUS
 62
     7
 10
222.6122076628
 20
-261.4676482205
 30
0.0
 11
222.6122076628
 21
-270.3676647668
 31
0.0
  0
LINE
  5
18E
  8
0
  6
CONTINUOUS
 62
     7
 10
226.812211704
 20
-270.3676647668
 30
0.0
 11
223.4122063039
 21
-270.3676647668
 31
0.0
  0
LINE
  5
18F
  8
0
  6
CONTINUOUS
 62
     7
 10
223.4122063039
 20
-261.4676482205
 30
0.0
 11
223.4122063039
 21
-270.3676647668
 31
0.0
  0
LINE
  5
190
  8
0
  6
CONTINUOUS
 62
     7
 10
226.812211704
 20
-261.4676482205
 30
0.0
 11
226.812211704
 21
-270.3676647668
 31
0.0
  0
LINE
  5
191
  8
0
  6
CONTINUOUS
 62
     7
 10
227.612210345
 20
-261.4676482205
 30
0.0
 11
227.612210345
 21
-270.3676647668
 31
0.0
  0
LINE
  5
192
  8
0
  6
CONTINUOUS
 62
     7
 10
231.0122082946
 20
-261.4676482205
 30
0.0
 11
231.0122082946
 21
-270.3676647668
 31
0.0
  0
LINE
  5
193
  8
0
  6
CONTINUOUS
 62
     7
 10
231.0122082946
 20
-270.3676647668
 30
0.0
 11
227.612210345
 21
-270.3676647668
 31
0.0
  0
LINE
  5
194
  8
0
  6
CONTINUOUS
 62
     7
 10
228.6122123716
 20
-230.7676500802
 30
0.0
 11
221.6122056363
 21
-230.7676500802
 31
0.0
  0
LINE
  5
195
  8
0
  6
CONTINUOUS
 62
     7
 10
207.9122121451
 20
20.0576097543
 30
0.0
 11
207.9122121451
 21
29.6323490168
 31
0.0
  0
LINE
  5
196
  8
0
  6
CONTINUOUS
 62
     7
 10
195.9122101782
 20
20.0576097543
 30
0.0
 11
207.9122121451
 21
20.0576097543
 31
0.0
  0
LINE
  5
197
  8
0
  6
CONTINUOUS
 62
     7
 10
195.9122101782
 20
20.0576097543
 30
0.0
 11
195.9122101782
 21
29.6323490168
 31
0.0
  0
LINE
  5
198
  8
0
  6
CONTINUOUS
 62
     7
 10
207.9122121451
 20
18.6323472138
 30
0.0
 11
207.9122121451
 21
20.0576097543
 31
0.0
  0
ARC
  5
199
  8
0
  6
CONTINUOUS
 62
     7
 10
201.9120591607
 20
-41.2486421293
 30
0.0
 40
60.0893614069272
 50
85.2860135913
 51
94.772920084
  0
LINE
  5
19A
  8
0
  6
CONTINUOUS
 62
     7
 10
195.9122101782
 20
18.6323472138
 30
0.0
 11
195.9122101782
 21
20.0576097543
 31
0.0
  0
LINE
  5
19B
  8
0
  6
CONTINUOUS
 62
     7
 10
196.9122122047
 20
16.6323468859
 30
0.0
 11
206.9122101185
 21
16.6323468859
 31
0.0
  0
LINE
  5
19C
  8
0
  6
CONTINUOUS
 62
     7
 10
155.4122026084
 20
18.6323472138
 30
0.0
 11
155.4122026084
 21
20.0576097543
 31
0.0
  0
LINE
  5
19D
  8
0
  6
CONTINUOUS
 62
     7
 10
155.4122026084
 20
20.0576097543
 30
0.0
 11
167.4122120259
 21
20.0576097543
 31
0.0
  0
LINE
  5
19E
  8
0
  6
CONTINUOUS
 62
     7
 10
167.4122120259
 20
18.6323472138
 30
0.0
 11
167.4122120259
 21
20.0576097543
 31
0.0
  0
ARC
  5
19F
  8
0
  6
CONTINUOUS
 62
     7
 10
161.4120566648
 20
-41.2513092569
 30
0.0
 40
60.09201970820143
 50
85.2862203227
 51
94.7727133084
  0
LINE
  5
1A0
  8
0
  6
CONTINUOUS
 62
     7
 10
167.4122120259
 20
20.0576097543
 30
0.0
 11
167.4122120259
 21
29.6323490168
 31
0.0
  0
LINE
  5
1A1
  8
0
  6
CONTINUOUS
 62
     7
 10
155.4122026084
 20
20.0576097543
 30
0.0
 11
155.4122026084
 21
29.6323490168
 31
0.0
  0
LINE
  5
1A2
  8
0
  6
CONTINUOUS
 62
     7
 10
156.4122046349
 20
16.6323468859
 30
0.0
 11
166.4122099993
 21
16.6323468859
 31
0.0
  0
LINE
  5
1A3
  8
0
  6
CONTINUOUS
 62
     7
 10
170.1122130273
 20
-226.8676585679
 30
0.0
 11
152.7122165082
 21
-226.8676585679
 31
0.0
  0
ARC
  5
1A4
  8
0
  6
CONTINUOUS
 62
     7
 10
170.1122092841
 20
-227.3676516538
 30
0.0
 40
0.5000000000000568
 50
360.0
 51
90.0
  0
LINE
  5
1A5
  8
0
  6
CONTINUOUS
 62
     7
 10
170.61220659
 20
-231.6025621419
 30
0.0
 11
170.61220659
 21
-227.3676521306
 31
0.0
  0
ARC
  5
1A6
  8
0
  6
CONTINUOUS
 62
     7
 10
165.6122092841
 20
-231.6025498687
 30
0.0
 40
5.000000000001211
 50
311.2570117043
 51
0.0
  0
LINE
  5
1A7
  8
0
  6
CONTINUOUS
 62
     7
 10
167.9036374209
 20
-236.2435884003
 30
0.0
 11
168.9093912957
 21
-235.3613502507
 31
0.0
  0
LINE
  5
1A8
  8
0
  6
CONTINUOUS
 62
     7
 10
167.9036374209
 20
-241.3676507001
 30
0.0
 11
167.9036374209
 21
-236.2435884003
 31
0.0
  0
LINE
  5
1A9
  8
0
  6
CONTINUOUS
 62
     7
 10
169.9036265729
 20
-243.3676547532
 30
0.0
 11
167.9036374209
 21
-241.3676507001
 31
0.0
  0
LINE
  5
1AA
  8
0
  6
CONTINUOUS
 62
     7
 10
170.8122099755
 20
-243.3676547532
 30
0.0
 11
169.9036265729
 21
-243.3676547532
 31
0.0
  0
LINE
  5
1AB
  8
0
  6
CONTINUOUS
 62
     7
 10
170.8122099755
 20
-259.8676509385
 30
0.0
 11
170.8122099755
 21
-243.3676547532
 31
0.0
  0
LINE
  5
1AC
  8
0
  6
CONTINUOUS
 62
     7
 10
152.9207880614
 20
-243.3676547532
 30
0.0
 11
152.0122046588
 21
-243.3676547532
 31
0.0
  0
LINE
  5
1AD
  8
0
  6
CONTINUOUS
 62
     7
 10
154.9207921145
 20
-241.3676507001
 30
0.0
 11
152.9207880614
 21
-243.3676547532
 31
0.0
  0
LINE
  5
1AE
  8
0
  6
CONTINUOUS
 62
     7
 10
154.9207921145
 20
-236.2435884003
 30
0.0
 11
154.9207921145
 21
-241.3676507001
 31
0.0
  0
LINE
  5
1AF
  8
0
  6
CONTINUOUS
 62
     7
 10
153.9150233386
 20
-235.3613502507
 30
0.0
 11
154.9207921145
 21
-236.2435884003
 31
0.0
  0
ARC
  5
1B0
  8
0
  6
CONTINUOUS
 62
     7
 10
157.2122092841
 20
-231.6025498687
 30
0.0
 40
5.000000000000726
 50
180.0
 51
228.7429882957
  0
LINE
  5
1B1
  8
0
  6
CONTINUOUS
 62
     7
 10
152.2122080443
 20
-227.3676521306
 30
0.0
 11
152.2122080443
 21
-231.6025621419
 31
0.0
  0
ARC
  5
1B2
  8
0
  6
CONTINUOUS
 62
     7
 10
152.7122092841
 20
-227.3676516538
 30
0.0
 40
0.5000000000000568
 50
90.0
 51
180.0
  0
LINE
  5
1B3
  8
0
  6
CONTINUOUS
 62
     7
 10
152.0122046588
 20
-259.8676509385
 30
0.0
 11
170.8122099755
 21
-259.8676509385
 31
0.0
  0
LINE
  5
1B4
  8
0
  6
CONTINUOUS
 62
     7
 10
152.0122046588
 20
-243.3676547532
 30
0.0
 11
152.0122046588
 21
-259.8676509385
 31
0.0
  0
LINE
  5
1B5
  8
0
  6
CONTINUOUS
 62
     7
 10
168.4036309836
 20
-241.017652226
 30
0.0
 11
170.7536335108
 21
-243.3676547532
 31
0.0
  0
LINE
  5
1B6
  8
0
  6
CONTINUOUS
 62
     7
 10
168.3036292908
 20
-236.3676554684
 30
0.0
 11
167.9036374209
 21
-236.7676622395
 31
0.0
  0
LINE
  5
1B7
  8
0
  6
CONTINUOUS
 62
     7
 10
168.3036292908
 20
-236.3676554684
 30
0.0
 11
169.3536247132
 21
-236.3676554684
 31
0.0
  0
ARC
  5
1B8
  8
0
  6
CONTINUOUS
 62
     7
 10
169.3536306403
 20
-236.6676516538
 30
0.0
 40
0.3000000000000398
 50
0.0
 51
90.0
  0
LINE
  5
1B9
  8
0
  6
CONTINUOUS
 62
     7
 10
169.6536297915
 20
-237.2176475053
 30
0.0
 11
169.6536297915
 21
-236.6676456456
 31
0.0
  0
LINE
  5
1BA
  8
0
  6
CONTINUOUS
 62
     7
 10
168.4036309836
 20
-240.5176586633
 30
0.0
 11
169.6536297915
 21
-237.2176475053
 31
0.0
  0
LINE
  5
1BB
  8
0
  6
CONTINUOUS
 62
     7
 10
168.4036309836
 20
-241.017652226
 30
0.0
 11
168.4036309836
 21
-240.5176586633
 31
0.0
  0
LINE
  5
1BC
  8
0
  6
CONTINUOUS
 62
     7
 10
154.4207836507
 20
-241.017652226
 30
0.0
 11
154.4207836507
 21
-240.5176586633
 31
0.0
  0
LINE
  5
1BD
  8
0
  6
CONTINUOUS
 62
     7
 10
153.1707848427
 20
-237.2176475053
 30
0.0
 11
154.4207836507
 21
-240.5176586633
 31
0.0
  0
LINE
  5
1BE
  8
0
  6
CONTINUOUS
 62
     7
 10
153.1707848427
 20
-236.6676456456
 30
0.0
 11
153.1707848427
 21
-237.2176475053
 31
0.0
  0
ARC
  5
1BF
  8
0
  6
CONTINUOUS
 62
     7
 10
153.4707879278
 20
-236.6676516538
 30
0.0
 40
0.3000000000000114
 50
90.0
 51
180.0
  0
LINE
  5
1C0
  8
0
  6
CONTINUOUS
 62
     7
 10
153.4707899211
 20
-236.3676554684
 30
0.0
 11
154.5207853434
 21
-236.3676554684
 31
0.0
  0
LINE
  5
1C1
  8
0
  6
CONTINUOUS
 62
     7
 10
154.5207853434
 20
-236.3676554684
 30
0.0
 11
154.9207921145
 21
-236.7676622395
 31
0.0
  0
LINE
  5
1C2
  8
0
  6
CONTINUOUS
 62
     7
 10
152.0707811234
 20
-243.3676547532
 30
0.0
 11
154.4207836507
 21
-241.017652226
 31
0.0
  0
LINE
  5
1C3
  8
0
  6
CONTINUOUS
 62
     7
 10
156.1622078536
 20
-270.3676647668
 30
0.0
 11
156.1622078536
 21
-259.8676509385
 31
0.0
  0
LINE
  5
1C4
  8
0
  6
CONTINUOUS
 62
     7
 10
155.7622159836
 20
-270.3676647668
 30
0.0
 11
155.7622159836
 21
-259.8676509385
 31
0.0
  0
LINE
  5
1C5
  8
0
  6
CONTINUOUS
 62
     7
 10
156.1622078536
 20
-270.3676647668
 30
0.0
 11
155.7622159836
 21
-270.3676647668
 31
0.0
  0
LINE
  5
1C6
  8
0
  6
CONTINUOUS
 62
     7
 10
165.7658423302
 20
-270.3676647668
 30
0.0
 11
165.7658423302
 21
-259.8676509385
 31
0.0
  0
LINE
  5
1C7
  8
0
  6
CONTINUOUS
 62
     7
 10
165.0622094987
 20
-270.3676647668
 30
0.0
 11
165.0622094987
 21
-259.8676509385
 31
0.0
  0
LINE
  5
1C8
  8
0
  6
CONTINUOUS
 62
     7
 10
165.7658423302
 20
-270.3676647668
 30
0.0
 11
165.0622094987
 21
-270.3676647668
 31
0.0
  0
LINE
  5
1C9
  8
0
  6
CONTINUOUS
 62
     7
 10
165.0622094987
 20
-270.3676647668
 30
0.0
 11
156.1622078536
 21
-270.3676647668
 31
0.0
  0
LINE
  5
1CA
  8
0
  6
CONTINUOUS
 62
     7
 10
154.4207836507
 20
-240.5176586633
 30
0.0
 11
154.1366930125
 21
-240.5176586633
 31
0.0
  0
LINE
  5
1CB
  8
0
  6
CONTINUOUS
 62
     7
 10
154.1366930125
 20
-240.5176586633
 30
0.0
 11
154.1366930125
 21
-239.767653418
 31
0.0
  0
LINE
  5
1CC
  8
0
  6
CONTINUOUS
 62
     7
 10
168.6877216218
 20
-239.767653418
 30
0.0
 11
168.6877216218
 21
-240.5176586633
 31
0.0
  0
LINE
  5
1CD
  8
0
  6
CONTINUOUS
 62
     7
 10
168.6877216218
 20
-240.5176586633
 30
0.0
 11
168.4036309836
 21
-240.5176586633
 31
0.0
  0
LINE
  5
1CE
  8
0
  6
CONTINUOUS
 62
     7
 10
154.1366930125
 20
-239.767653418
 30
0.0
 11
153.8147236226
 21
-239.767653418
 31
0.0
  0
LINE
  5
1CF
  8
0
  6
CONTINUOUS
 62
     7
 10
153.8147236226
 20
-239.767653418
 30
0.0
 11
153.8147236226
 21
-238.9176613812
 31
0.0
  0
LINE
  5
1D0
  8
0
  6
CONTINUOUS
 62
     7
 10
169.0096910117
 20
-238.9176613812
 30
0.0
 11
169.0096910117
 21
-239.767653418
 31
0.0
  0
LINE
  5
1D1
  8
0
  6
CONTINUOUS
 62
     7
 10
169.0096910117
 20
-239.767653418
 30
0.0
 11
168.6877216218
 21
-239.767653418
 31
0.0
  0
LINE
  5
1D2
  8
0
  6
CONTINUOUS
 62
     7
 10
169.3316604016
 20
-238.0676395421
 30
0.0
 11
169.3316604016
 21
-238.9176613812
 31
0.0
  0
LINE
  5
1D3
  8
0
  6
CONTINUOUS
 62
     7
 10
169.3316604016
 20
-238.9176613812
 30
0.0
 11
169.0096910117
 21
-238.9176613812
 31
0.0
  0
LINE
  5
1D4
  8
0
  6
CONTINUOUS
 62
     7
 10
153.4927542327
 20
-238.9176613812
 30
0.0
 11
153.4927542327
 21
-238.0676395421
 31
0.0
  0
LINE
  5
1D5
  8
0
  6
CONTINUOUS
 62
     7
 10
153.8147236226
 20
-238.9176613812
 30
0.0
 11
153.4927542327
 21
-238.9176613812
 31
0.0
  0
LINE
  5
1D6
  8
0
  6
CONTINUOUS
 62
     7
 10
153.4927542327
 20
-238.0676395421
 30
0.0
 11
153.1707848427
 21
-238.0676395421
 31
0.0
  0
LINE
  5
1D7
  8
0
  6
CONTINUOUS
 62
     7
 10
153.1707848427
 20
-238.0676395421
 30
0.0
 11
153.1707848427
 21
-237.2176475053
 31
0.0
  0
LINE
  5
1D8
  8
0
  6
CONTINUOUS
 62
     7
 10
169.6536297915
 20
-237.2176475053
 30
0.0
 11
169.6536297915
 21
-238.0676395421
 31
0.0
  0
LINE
  5
1D9
  8
0
  6
CONTINUOUS
 62
     7
 10
169.6536297915
 20
-238.0676395421
 30
0.0
 11
169.3316604016
 21
-238.0676395421
 31
0.0
  0
LINE
  5
1DA
  8
0
  6
CONTINUOUS
 62
     7
 10
169.9755991814
 20
-236.6676456456
 30
0.0
 11
169.9755991814
 21
-237.2176475053
 31
0.0
  0
LINE
  5
1DB
  8
0
  6
CONTINUOUS
 62
     7
 10
169.9755991814
 20
-237.2176475053
 30
0.0
 11
169.6536297915
 21
-237.2176475053
 31
0.0
  0
ARC
  5
1DC
  8
0
  6
CONTINUOUS
 62
     7
 10
169.6756003373
 20
-236.6676516538
 30
0.0
 40
0.3000000000000114
 50
0.0
 51
90.0
  0
LINE
  5
1DD
  8
0
  6
CONTINUOUS
 62
     7
 10
169.3536247132
 20
-236.3676554684
 30
0.0
 11
169.6755941031
 21
-236.3676554684
 31
0.0
  0
ARC
  5
1DE
  8
0
  6
CONTINUOUS
 62
     7
 10
153.1488182309
 20
-236.6676516538
 30
0.0
 40
0.3000000000000398
 50
90.0
 51
180.0
  0
LINE
  5
1DF
  8
0
  6
CONTINUOUS
 62
     7
 10
153.1707848427
 20
-237.2176475053
 30
0.0
 11
152.8488154528
 21
-237.2176475053
 31
0.0
  0
LINE
  5
1E0
  8
0
  6
CONTINUOUS
 62
     7
 10
152.8488154528
 20
-237.2176475053
 30
0.0
 11
152.8488154528
 21
-236.6676456456
 31
0.0
  0
LINE
  5
1E1
  8
0
  6
CONTINUOUS
 62
     7
 10
153.1488205311
 20
-236.3676554684
 30
0.0
 11
153.4707899211
 21
-236.3676554684
 31
0.0
  0
LINE
  5
1E2
  8
0
  6
CONTINUOUS
 62
     7
 10
166.9436599133
 20
-270.3676647668
 30
0.0
 11
166.9436599133
 21
-259.8676509385
 31
0.0
  0
LINE
  5
1E3
  8
0
  6
CONTINUOUS
 62
     7
 10
166.9436599133
 20
-270.3676647668
 30
0.0
 11
165.7658423302
 21
-270.3676647668
 31
0.0
  0
LINE
  5
1E4
  8
0
  6
CONTINUOUS
 62
     7
 10
170.8122099755
 20
-264.2676658158
 30
0.0
 11
168.3122123597
 21
-264.2676658158
 31
0.0
  0
LINE
  5
1E5
  8
0
  6
CONTINUOUS
 62
     7
 10
168.3122123597
 20
-264.2676658158
 30
0.0
 11
168.3122123597
 21
-259.8676509385
 31
0.0
  0
LINE
  5
1E6
  8
0
  6
CONTINUOUS
 62
     7
 10
170.8122099755
 20
-259.8676509385
 30
0.0
 11
170.8122099755
 21
-264.2676658158
 31
0.0
  0
LINE
  5
1E7
  8
0
  6
CONTINUOUS
 62
     7
 10
154.5122022746
 20
-259.8676509385
 30
0.0
 11
154.5122022746
 21
-264.2676658158
 31
0.0
  0
LINE
  5
1E8
  8
0
  6
CONTINUOUS
 62
     7
 10
154.5122022746
 20
-264.2676658158
 30
0.0
 11
152.0122046588
 21
-264.2676658158
 31
0.0
  0
LINE
  5
1E9
  8
0
  6
CONTINUOUS
 62
     7
 10
152.0122046588
 20
-264.2676658158
 30
0.0
 11
152.0122046588
 21
-259.8676509385
 31
0.0
  0
LINE
  5
1EA
  8
0
  6
CONTINUOUS
 62
     7
 10
167.0622135518
 20
-270.3676647668
 30
0.0
 11
167.0622135518
 21
-259.8676509385
 31
0.0
  0
LINE
  5
1EB
  8
0
  6
CONTINUOUS
 62
     7
 10
167.0622135518
 20
-270.3676647668
 30
0.0
 11
166.9436599133
 21
-270.3676647668
 31
0.0
  0
LINE
  5
1EC
  8
0
  6
CONTINUOUS
 62
     8
 10
197.9122067807
 20
-215.2676410203
 30
0.0
 11
205.912208092
 21
-215.2676410203
 31
0.0
  0
LINE
  5
1ED
  8
0
  6
CONTINUOUS
 62
     8
 10
198.2455457566
 20
-215.7390541558
 30
0.0
 11
205.5788765667
 21
-215.7390541558
 31
0.0
  0
LINE
  5
1EE
  8
0
  6
CONTINUOUS
 62
     8
 10
204.9122060654
 20
-216.6818506245
 30
0.0
 11
198.9122088072
 21
-216.6818506245
 31
0.0
  0
LINE
  5
1EF
  8
0
  6
CONTINUOUS
 62
     8
 10
220.6122110603
 20
-215.2676410203
 30
0.0
 11
229.6122069476
 21
-215.2676410203
 31
0.0
  0
LINE
  5
1F0
  8
0
  6
CONTINUOUS
 62
     8
 10
228.6122123716
 20
-216.267657948
 30
0.0
 11
221.6122056363
 21
-216.267657948
 31
0.0
  0
LINE
  5
1F1
  8
0
  6
CONTINUOUS
 62
     7
 10
79.2245614492
 20
-190.7676584248
 30
0.0
 11
79.2245614492
 21
16.6323468859
 31
0.0
  0
ARC
  5
1F2
  8
0
  6
CONTINUOUS
 62
     7
 10
69.2245612593
 20
-215.2676516538
 30
0.0
 40
0.5
 50
180.0
 51
250.5287793655
  0
LINE
  5
1F3
  8
0
  6
CONTINUOUS
 62
     7
 10
68.7245611251
 20
-190.7676584248
 30
0.0
 11
68.7245611251
 21
-215.2676410203
 31
0.0
  0
ARC
  5
1F4
  8
0
  6
CONTINUOUS
 62
     7
 10
68.7245612593
 20
-216.6818652161
 30
0.0
 40
1.000000000000019
 50
0.0
 51
70.5287793655
  0
LINE
  5
1F5
  8
0
  6
CONTINUOUS
 62
     7
 10
69.7245612891
 20
16.6323468859
 30
0.0
 11
69.7245612891
 21
-190.7676584248
 31
0.0
  0
LINE
  5
1F6
  8
0
  6
CONTINUOUS
 62
     7
 10
69.7245612891
 20
-216.6818506245
 30
0.0
 11
69.7245612891
 21
-226.8676585679
 31
0.0
  0
LINE
  5
1F7
  8
0
  6
CONTINUOUS
 62
     7
 10
72.2245612332
 20
16.6323468859
 30
0.0
 11
72.2245612332
 21
-226.8676585679
 31
0.0
  0
LINE
  5
1F8
  8
0
  6
CONTINUOUS
 62
     7
 10
78.2245612853
 20
-226.8676585679
 30
0.0
 11
78.2245612853
 21
16.6323468859
 31
0.0
  0
LINE
  5
1F9
  8
0
  6
CONTINUOUS
 62
     7
 10
88.7245616094
 20
21.3323482151
 30
0.0
 11
91.3245618493
 21
21.3323482151
 31
0.0
  0
LINE
  5
1FA
  8
0
  6
CONTINUOUS
 62
     7
 10
91.3245618493
 20
28.3323474999
 30
0.0
 11
88.7245616094
 21
28.3323474999
 31
0.0
  0
LINE
  5
1FB
  8
0
  6
CONTINUOUS
 62
     7
 10
80.4745611885
 20
16.6323468859
 30
0.0
 11
80.4745611885
 21
18.86213057
 31
0.0
  0
LINE
  5
1FC
  8
0
  6
CONTINUOUS
 62
     7
 10
89.0245610998
 20
28.5323490228
 30
0.0
 11
88.7245616094
 21
28.5323490228
 31
0.0
  0
LINE
  5
1FD
  8
0
  6
CONTINUOUS
 62
     7
 10
91.3245618493
 20
21.3323482151
 30
0.0
 11
92.4245618434
 21
21.3323482151
 31
0.0
  0
LINE
  5
1FE
  8
0
  6
CONTINUOUS
 62
     7
 10
92.4245618434
 20
28.3323474999
 30
0.0
 11
91.3245618493
 21
28.3323474999
 31
0.0
  0
ARC
  5
1FF
  8
0
  6
CONTINUOUS
 62
     7
 10
92.4245612593
 20
22.6323483462
 30
0.0
 40
1.299999999999997
 50
270.0
 51
0.0
  0
ARC
  5
200
  8
0
  6
CONTINUOUS
 62
     7
 10
92.4245612593
 20
27.0323483462
 30
0.0
 40
1.300000000000011
 50
0.0
 51
90.0
  0
LINE
  5
201
  8
0
  6
CONTINUOUS
 62
     7
 10
79.7245610655
 20
-215.2676410203
 30
0.0
 11
79.7245610655
 21
-190.7676584248
 31
0.0
  0
ARC
  5
202
  8
0
  6
CONTINUOUS
 62
     7
 10
79.2245612593
 20
-215.2676516538
 30
0.0
 40
0.5
 50
270.0
 51
0.0
  0
ARC
  5
203
  8
0
  6
CONTINUOUS
 62
     7
 10
79.2245612593
 20
-216.2676516538
 30
0.0
 40
0.5
 50
90.0
 51
180.0
  0
LINE
  5
204
  8
0
  6
CONTINUOUS
 62
     7
 10
78.7245613673
 20
-226.8676585679
 30
0.0
 11
78.7245613673
 21
-216.267657948
 31
0.0
  0
LINE
  5
205
  8
0
  6
CONTINUOUS
 62
     7
 10
67.7245614269
 20
18.8357890422
 30
0.0
 11
67.7245614269
 21
16.6323468859
 31
0.0
  0
LINE
  5
206
  8
0
  6
CONTINUOUS
 62
     7
 10
70.224561371
 20
18.8357890422
 30
0.0
 11
70.224561371
 21
16.6323468859
 31
0.0
  0
LINE
  5
207
  8
0
  6
CONTINUOUS
 62
     7
 10
80.2245611475
 20
16.6323468859
 30
0.0
 11
80.2245611475
 21
18.8406915243
 31
0.0
  0
ARC
  5
208
  8
0
  6
CONTINUOUS
 62
     7
 10
99.9245612593
 20
34.9323483462
 30
0.0
 40
5.300000000000011
 50
270.0
 51
0.0
  0
CIRCLE
  5
209
  8
0
  6
CONTINUOUS
 62
     7
 10
100.2245612593
 20
34.6323483462
 30
0.0
 40
2.25
  0
LINE
  5
20A
  8
0
  6
CONTINUOUS
 62
     7
 10
95.4245604725
 20
29.6323490168
 30
0.0
 11
99.9245621414
 21
29.6323490168
 31
0.0
  0
LINE
  5
20B
  8
0
  6
CONTINUOUS
 62
     7
 10
105.2245605887
 20
34.9323474641
 30
0.0
 11
105.2245605887
 21
39.432349133
 31
0.0
  0
ARC
  5
20C
  8
0
  6
CONTINUOUS
 62
     7
 10
50.5245612593
 20
84.3323483462
 30
0.0
 40
5.300000000000004
 50
90.0
 51
180.0
  0
CIRCLE
  5
20D
  8
0
  6
CONTINUOUS
 62
     7
 10
50.2245612593
 20
84.6323483462
 30
0.0
 40
2.249999999999993
  0
LINE
  5
20E
  8
0
  6
CONTINUOUS
 62
     7
 10
45.2245619298
 20
84.3323492284
 30
0.0
 11
45.2245619298
 21
79.8323475595
 31
0.0
  0
LINE
  5
20F
  8
0
  6
CONTINUOUS
 62
     7
 10
55.024562046
 20
89.6323476757
 30
0.0
 11
50.5245603771
 21
89.6323476757
 31
0.0
  0
ARC
  5
210
  8
0
  6
CONTINUOUS
 62
     7
 10
99.9245612593
 20
84.3323483462
 30
0.0
 40
5.300000000000011
 50
0.0
 51
90.0
  0
CIRCLE
  5
211
  8
0
  6
CONTINUOUS
 62
     7
 10
100.2245612593
 20
84.6323483462
 30
0.0
 40
2.25
  0
LINE
  5
212
  8
0
  6
CONTINUOUS
 62
     7
 10
95.4245604725
 20
89.6323476757
 30
0.0
 11
99.9245621414
 21
89.6323476757
 31
0.0
  0
LINE
  5
213
  8
0
  6
CONTINUOUS
 62
     7
 10
105.2245605887
 20
84.3323492284
 30
0.0
 11
105.2245605887
 21
79.8323475595
 31
0.0
  0
ARC
  5
214
  8
0
  6
CONTINUOUS
 62
     7
 10
50.5245612593
 20
34.9323483462
 30
0.0
 40
5.300000000000004
 50
180.0
 51
270.0
  0
CIRCLE
  5
215
  8
0
  6
CONTINUOUS
 62
     7
 10
50.2245612593
 20
34.6323483462
 30
0.0
 40
2.249999999999993
  0
LINE
  5
216
  8
0
  6
CONTINUOUS
 62
     7
 10
45.2245619298
 20
34.9323474641
 30
0.0
 11
45.2245619298
 21
39.432349133
 31
0.0
  0
LINE
  5
217
  8
0
  6
CONTINUOUS
 62
     7
 10
55.024562046
 20
29.6323490168
 30
0.0
 11
50.5245603771
 21
29.6323490168
 31
0.0
  0
LINE
  5
218
  8
0
  6
CONTINUOUS
 62
     7
 10
71.2245610693
 20
-259.8676509385
 30
0.0
 11
71.2245610693
 21
-267.0676536088
 31
0.0
  0
LINE
  5
219
  8
0
  6
CONTINUOUS
 62
     7
 10
72.1245611702
 20
-267.0676536088
 30
0.0
 11
71.2245610693
 21
-267.0676536088
 31
0.0
  0
LINE
  5
21A
  8
0
  6
CONTINUOUS
 62
     7
 10
71.2245610693
 20
-267.767650557
 30
0.0
 11
72.1245611702
 21
-267.767650557
 31
0.0
  0
LINE
  5
21B
  8
0
  6
CONTINUOUS
 62
     7
 10
71.2245610693
 20
-267.767650557
 30
0.0
 11
71.2245610693
 21
-267.0676536088
 31
0.0
  0
LINE
  5
21C
  8
0
  6
CONTINUOUS
 62
     7
 10
70.0245612451
 20
-260.2176494126
 30
0.0
 11
71.2245610693
 21
-260.2176494126
 31
0.0
  0
LINE
  5
21D
  8
0
  6
CONTINUOUS
 62
     7
 10
70.0245612451
 20
-259.8676509385
 30
0.0
 11
70.0245612451
 21
-260.2176494126
 31
0.0
  0
LINE
  5
21E
  8
0
  6
CONTINUOUS
 62
     7
 10
71.2245610693
 20
-260.5176395898
 30
0.0
 11
70.0245612451
 21
-260.5176395898
 31
0.0
  0
LINE
  5
21F
  8
0
  6
CONTINUOUS
 62
     7
 10
70.0245612451
 20
-260.2176494126
 30
0.0
 11
70.0245612451
 21
-260.5176395898
 31
0.0
  0
LINE
  5
220
  8
0
  6
CONTINUOUS
 62
     7
 10
70.0245612451
 20
-261.4676482205
 30
0.0
 11
71.2245610693
 21
-261.4676482205
 31
0.0
  0
LINE
  5
221
  8
0
  6
CONTINUOUS
 62
     7
 10
70.0245612451
 20
-261.4676482205
 30
0.0
 11
70.0245612451
 21
-260.5176395898
 31
0.0
  0
LINE
  5
222
  8
0
  6
CONTINUOUS
 62
     7
 10
72.2245612332
 20
-190.7676584248
 30
0.0
 11
68.7245611251
 21
-190.7676584248
 31
0.0
  0
LINE
  5
223
  8
0
  6
CONTINUOUS
 62
     7
 10
72.1245611702
 20
-270.3676647668
 30
0.0
 11
71.024561409
 21
-270.3676647668
 31
0.0
  0
LINE
  5
224
  8
0
  6
CONTINUOUS
 62
     7
 10
71.024561409
 20
-270.3676647668
 30
0.0
 11
71.024561409
 21
-261.4676482205
 31
0.0
  0
LINE
  5
225
  8
0
  6
CONTINUOUS
 62
     7
 10
61.9745614157
 20
29.6323490168
 30
0.0
 11
88.4745611028
 21
29.6323490168
 31
0.0
  0
LINE
  5
226
  8
0
  6
CONTINUOUS
 62
     7
 10
61.9745614157
 20
29.6323490168
 30
0.0
 11
61.9745614157
 21
37.5529457654
 31
0.0
  0
ARC
  5
227
  8
0
  6
CONTINUOUS
 62
     7
 10
75.2245612593
 20
59.6323483462
 30
0.0
 40
25.74999999999996
 50
300.9682569075
 51
239.0317430925
  0
LINE
  5
228
  8
0
  6
CONTINUOUS
 62
     7
 10
88.4745611028
 20
29.6323490168
 30
0.0
 11
88.4745611028
 21
37.5529457654
 31
0.0
  0
ARC
  5
229
  8
0
  6
CONTINUOUS
 62
     7
 10
75.2245612593
 20
59.6323483462
 30
0.0
 40
28.34807621135332
 50
297.8659064481
 51
242.1340935519
  0
LINE
  5
22A
  8
0
  6
CONTINUOUS
 62
     7
 10
55.024562046
 20
34.6323479737
 30
0.0
 11
55.024562046
 21
29.6323490168
 31
0.0
  0
ARC
  5
22B
  8
0
  6
CONTINUOUS
 62
     7
 10
50.2245590341
 20
34.6323461211
 30
0.0
 40
4.800003011970257
 50
0.0000221145
 51
89.9999778855
  0
LINE
  5
22C
  8
0
  6
CONTINUOUS
 62
     7
 10
45.2245619298
 20
39.432349133
 30
0.0
 11
50.2245608867
 21
39.432349133
 31
0.0
  0
LINE
  5
22D
  8
0
  6
CONTINUOUS
 62
     7
 10
45.2245619298
 20
79.8323475595
 30
0.0
 11
45.2245619298
 21
39.432349133
 31
0.0
  0
LINE
  5
22E
  8
0
  6
CONTINUOUS
 62
     7
 10
50.2245608867
 20
79.8323475595
 30
0.0
 11
45.2245619298
 21
79.8323475595
 31
0.0
  0
ARC
  5
22F
  8
0
  6
CONTINUOUS
 62
     7
 10
50.2245590341
 20
84.6323505714
 30
0.0
 40
4.80000301197025
 50
270.0000221145
 51
359.9999778855
  0
LINE
  5
230
  8
0
  6
CONTINUOUS
 62
     7
 10
55.024562046
 20
89.6323476757
 30
0.0
 11
55.024562046
 21
84.6323487188
 31
0.0
  0
LINE
  5
231
  8
0
  6
CONTINUOUS
 62
     7
 10
95.4245604725
 20
89.6323476757
 30
0.0
 11
55.024562046
 21
89.6323476757
 31
0.0
  0
LINE
  5
232
  8
0
  6
CONTINUOUS
 62
     7
 10
95.4245604725
 20
84.6323487188
 30
0.0
 11
95.4245604725
 21
89.6323476757
 31
0.0
  0
ARC
  5
233
  8
0
  6
CONTINUOUS
 62
     7
 10
100.2245634844
 20
84.6323505714
 30
0.0
 40
4.80000301197025
 50
180.0000221145
 51
269.9999778855
  0
LINE
  5
234
  8
0
  6
CONTINUOUS
 62
     7
 10
105.2245605887
 20
79.8323475595
 30
0.0
 11
100.2245616318
 21
79.8323475595
 31
0.0
  0
LINE
  5
235
  8
0
  6
CONTINUOUS
 62
     7
 10
105.2245605887
 20
79.8323475595
 30
0.0
 11
105.2245605887
 21
39.432349133
 31
0.0
  0
LINE
  5
236
  8
0
  6
CONTINUOUS
 62
     7
 10
100.2245616318
 20
39.432349133
 30
0.0
 11
105.2245605887
 21
39.432349133
 31
0.0
  0
ARC
  5
237
  8
0
  6
CONTINUOUS
 62
     7
 10
100.2245634844
 20
34.6323461211
 30
0.0
 40
4.800003011970257
 50
90.0000221145
 51
179.9999778855
  0
LINE
  5
238
  8
0
  6
CONTINUOUS
 62
     7
 10
95.4245604725
 20
29.6323490168
 30
0.0
 11
95.4245604725
 21
34.6323479737
 31
0.0
  0
LINE
  5
239
  8
0
  6
CONTINUOUS
 62
     7
 10
88.4745611028
 20
29.6323490168
 30
0.0
 11
95.4245604725
 21
29.6323490168
 31
0.0
  0
LINE
  5
23A
  8
0
  6
CONTINUOUS
 62
     7
 10
55.024562046
 20
29.6323490168
 30
0.0
 11
61.9745614157
 21
29.6323490168
 31
0.0
  0
LINE
  5
23B
  8
0
  6
CONTINUOUS
 62
     7
 10
88.7245616094
 20
20.1708213265
 30
0.0
 11
88.7245616094
 21
29.6323490168
 31
0.0
  0
LINE
  5
23C
  8
0
  6
CONTINUOUS
 62
     7
 10
88.2245615275
 20
20.0576097543
 30
0.0
 11
88.7245616094
 21
20.1708213265
 31
0.0
  0
LINE
  5
23D
  8
0
  6
CONTINUOUS
 62
     7
 10
91.3245618493
 20
28.3323474999
 30
0.0
 11
91.3245618493
 21
21.3323482151
 31
0.0
  0
LINE
  5
23E
  8
0
  6
CONTINUOUS
 62
     7
 10
80.2245611475
 20
16.6323468859
 30
0.0
 11
80.4745611885
 21
16.6323468859
 31
0.0
  0
LINE
  5
23F
  8
0
  6
CONTINUOUS
 62
     7
 10
89.0245610998
 20
28.5323490228
 30
0.0
 11
89.0245610998
 21
28.3323474999
 31
0.0
  0
LINE
  5
240
  8
0
  6
CONTINUOUS
 62
     7
 10
92.4245618434
 20
27.4776764984
 30
0.0
 11
92.4245618434
 21
27.1241240974
 31
0.0
  0
LINE
  5
241
  8
0
  6
CONTINUOUS
 62
     7
 10
93.7245614977
 20
26.2011312719
 30
0.0
 11
93.7245614977
 21
22.6323478694
 31
0.0
  0
POLYLINE
  5
242
  8
0
  6
CONTINUOUS
 62
     7
 66
     1
 10
0.0
 20
0.0
 30
0.0
 70
   128
  0
VERTEX
  5
7CB
  8
0
  6
CONTINUOUS
 62
     7
 10
92.4245618434
 20
27.1241240974
 30
0.0
  0
VERTEX
  5
7CC
  8
0
  6
CONTINUOUS
 62
     7
 10
92.853955567
 20
27.0723947163
 30
0.0
  0
VERTEX
  5
7CD
  8
0
  6
CONTINUOUS
 62
     7
 10
93.2349354179
 20
26.9231074329
 30
0.0
  0
VERTEX
  5
7CE
  8
0
  6
CONTINUOUS
 62
     7
 10
93.5249790699
 20
26.69298135
 30
0.0
  0
VERTEX
  5
7CF
  8
0
  6
CONTINUOUS
 62
     7
 10
93.6918012948
 20
26.4073782439
 30
0.0
  0
VERTEX
  5
7D0
  8
0
  6
CONTINUOUS
 62
     7
 10
93.7245614977
 20
26.2011312719
 30
0.0
  0
SEQEND
  5
894
  8
0
  6
CONTINUOUS
 62
     7
  0
LINE
  5
243
  8
0
  6
CONTINUOUS
 62
     7
 10
93.7245614977
 20
27.0323478456
 30
0.0
 11
93.7245614977
 21
26.5546836729
 31
0.0
  0
POLYLINE
  5
244
  8
0
  6
CONTINUOUS
 62
     7
 66
     1
 10
0.0
 20
0.0
 30
0.0
 70
   128
  0
VERTEX
  5
7D1
  8
0
  6
CONTINUOUS
 62
     7
 10
93.7245614977
 20
26.5546836729
 30
0.0
  0
VERTEX
  5
7D2
  8
0
  6
CONTINUOUS
 62
     7
 10
93.6507951618
 20
26.8615917142
 30
0.0
  0
VERTEX
  5
7D3
  8
0
  6
CONTINUOUS
 62
     7
 10
93.4371888788
 20
27.1338657315
 30
0.0
  0
VERTEX
  5
7D4
  8
0
  6
CONTINUOUS
 62
     7
 10
93.1093074531
 20
27.3394496019
 30
0.0
  0
VERTEX
  5
7D5
  8
0
  6
CONTINUOUS
 62
     7
 10
92.7049774827
 20
27.4559804077
 30
0.0
  0
VERTEX
  5
7D6
  8
0
  6
CONTINUOUS
 62
     7
 10
92.4245618434
 20
27.4776764984
 30
0.0
  0
SEQEND
  5
895
  8
0
  6
CONTINUOUS
 62
     7
  0
LINE
  5
245
  8
0
  6
CONTINUOUS
 62
     7
 10
93.7245614977
 20
26.5546836729
 30
0.0
 11
93.7245614977
 21
26.2011312719
 31
0.0
  0
LINE
  5
246
  8
0
  6
CONTINUOUS
 62
     7
 10
80.0245614872
 20
-259.8676509385
 30
0.0
 11
80.0245614872
 21
-261.4676482205
 31
0.0
  0
LINE
  5
247
  8
0
  6
CONTINUOUS
 62
     7
 10
80.0245614872
 20
-261.4676482205
 30
0.0
 11
78.3245613483
 21
-261.4676482205
 31
0.0
  0
LINE
  5
248
  8
0
  6
CONTINUOUS
 62
     7
 10
78.9245612604
 20
-270.3676647668
 30
0.0
 11
78.9245612604
 21
-261.4676482205
 31
0.0
  0
LINE
  5
249
  8
0
  6
CONTINUOUS
 62
     7
 10
78.9245612604
 20
-270.3676647668
 30
0.0
 11
78.3245613483
 21
-270.3676647668
 31
0.0
  0
LINE
  5
24A
  8
0
  6
CONTINUOUS
 62
     7
 10
78.2245612853
 20
-190.7676584248
 30
0.0
 11
79.7245610655
 21
-190.7676584248
 31
0.0
  0
LINE
  5
24B
  8
0
  6
CONTINUOUS
 62
     7
 10
78.2245612853
 20
-215.7676643853
 30
0.0
 11
79.2245614492
 21
-215.7676643853
 31
0.0
  0
ARC
  5
24C
  8
0
  6
CONTINUOUS
 62
     7
 10
80.3245612593
 20
-260.5176516538
 30
0.0
 40
0.2999999999999972
 50
90.0
 51
180.0
  0
ARC
  5
24D
  8
0
  6
CONTINUOUS
 62
     7
 10
81.2245612593
 20
-258.5176516538
 30
0.0
 40
0.2000000000000337
 50
300.0000000055
 51
354.9999999999
  0
LINE
  5
24E
  8
0
  6
CONTINUOUS
 62
     7
 10
81.4238000811
 20
-258.5350698953
 30
0.0
 11
81.9108873756
 21
-252.9676384454
 31
0.0
  0
LINE
  5
24F
  8
0
  6
CONTINUOUS
 62
     7
 10
81.9108873756
 20
-252.9676384454
 30
0.0
 11
83.8245615513
 21
-252.9676384454
 31
0.0
  0
LINE
  5
250
  8
0
  6
CONTINUOUS
 62
     7
 10
83.5245611296
 20
-254.4676489358
 30
0.0
 11
83.8245615513
 21
-254.4676489358
 31
0.0
  0
LINE
  5
251
  8
0
  6
CONTINUOUS
 62
     7
 10
83.5245611296
 20
-254.4676489358
 30
0.0
 11
82.8245613874
 21
-254.9676424985
 31
0.0
  0
LINE
  5
252
  8
0
  6
CONTINUOUS
 62
     7
 10
82.8245613874
 20
-254.9676424985
 30
0.0
 11
82.8245613874
 21
-260.2176494126
 31
0.0
  0
LINE
  5
253
  8
0
  6
CONTINUOUS
 62
     7
 10
82.8245613874
 20
-260.2176494126
 30
0.0
 11
80.3245614433
 21
-260.2176494126
 31
0.0
  0
LINE
  5
254
  8
0
  6
CONTINUOUS
 62
     7
 10
83.8245615513
 20
-254.4676489358
 30
0.0
 11
83.8245615513
 21
-252.9676384454
 31
0.0
  0
LINE
  5
255
  8
0
  6
CONTINUOUS
 62
     7
 10
81.5245612674
 20
-264.898879004
 30
0.0
 11
80.0245614872
 21
-264.7676593785
 31
0.0
  0
LINE
  5
256
  8
0
  6
CONTINUOUS
 62
     7
 10
81.5245612674
 20
-267.767650557
 30
0.0
 11
80.0245614872
 21
-266.2676400666
 31
0.0
  0
LINE
  5
257
  8
0
  6
CONTINUOUS
 62
     7
 10
83.5245611296
 20
-254.4676489358
 30
0.0
 11
83.5245611296
 21
-267.0676536088
 31
0.0
  0
LINE
  5
258
  8
0
  6
CONTINUOUS
 62
     7
 10
80.0245614872
 20
-266.2676400666
 30
0.0
 11
80.0245614872
 21
-264.7676593785
 31
0.0
  0
LINE
  5
259
  8
0
  6
CONTINUOUS
 62
     7
 10
81.5245612674
 20
-260.2176494126
 30
0.0
 11
81.5245612674
 21
-264.898879004
 31
0.0
  0
LINE
  5
25A
  8
0
  6
CONTINUOUS
 62
     7
 10
81.5245612674
 20
-267.767650557
 30
0.0
 11
82.8245613874
 21
-267.767650557
 31
0.0
  0
LINE
  5
25B
  8
0
  6
CONTINUOUS
 62
     7
 10
82.8245613874
 20
-267.767650557
 30
0.0
 11
83.5245611296
 21
-267.0676536088
 31
0.0
  0
ARC
  5
25C
  8
0
  6
CONTINUOUS
 62
     7
 10
72.7245612593
 20
78.6323483462
 30
0.0
 40
59.99999999999999
 50
257.4866746371
 51
267.6119845367
  0
LINE
  5
25D
  8
0
  6
CONTINUOUS
 62
     7
 10
59.7245615126
 20
20.0576097543
 30
0.0
 11
59.7245615126
 21
29.6323490168
 31
0.0
  0
LINE
  5
25E
  8
0
  6
CONTINUOUS
 62
     7
 10
67.7245614269
 20
16.6323468859
 30
0.0
 11
70.224561371
 21
16.6323468859
 31
0.0
  0
LINE
  5
25F
  8
0
  6
CONTINUOUS
 62
     7
 10
88.2245615275
 20
20.0576097543
 30
0.0
 11
88.2245615275
 21
29.6323490168
 31
0.0
  0
LINE
  5
260
  8
0
  6
CONTINUOUS
 62
     7
 10
62.224560991
 20
20.0576097543
 30
0.0
 11
62.224560991
 21
29.6323490168
 31
0.0
  0
ARC
  5
261
  8
0
  6
CONTINUOUS
 62
     7
 10
75.2245612593
 20
78.6323483462
 30
0.0
 40
59.99999999999999
 50
257.4866746371
 51
282.5133253629
  0
LINE
  5
262
  8
0
  6
CONTINUOUS
 62
     7
 10
75.2245612593
 20
16.6323468859
 30
0.0
 11
80.2245611475
 21
16.6323468859
 31
0.0
  0
LINE
  5
263
  8
0
  6
CONTINUOUS
 62
     7
 10
70.224561371
 20
16.6323468859
 30
0.0
 11
75.2245612593
 21
16.6323468859
 31
0.0
  0
LINE
  5
264
  8
0
  6
CONTINUOUS
 62
     7
 10
75.2495612586
 20
-264.2676658158
 30
0.0
 11
77.7245612034
 21
-264.2676658158
 31
0.0
  0
LINE
  5
265
  8
0
  6
CONTINUOUS
 62
     7
 10
75.2495612586
 20
-259.8676509385
 30
0.0
 11
75.2495612586
 21
-264.2676658158
 31
0.0
  0
LINE
  5
266
  8
0
  6
CONTINUOUS
 62
     7
 10
81.3245611415
 20
-243.3676547532
 30
0.0
 11
81.3245611415
 21
-259.8676509385
 31
0.0
  0
LINE
  5
267
  8
0
  6
CONTINUOUS
 62
     7
 10
75.1995612599
 20
-264.2676658158
 30
0.0
 11
75.1995612599
 21
-259.8676509385
 31
0.0
  0
LINE
  5
268
  8
0
  6
CONTINUOUS
 62
     7
 10
69.124561377
 20
-259.8676509385
 30
0.0
 11
72.7245613151
 21
-259.8676509385
 31
0.0
  0
LINE
  5
269
  8
0
  6
CONTINUOUS
 62
     7
 10
75.2495612586
 20
-259.8676509385
 30
0.0
 11
75.1995612599
 21
-259.8676509385
 31
0.0
  0
LINE
  5
26A
  8
0
  6
CONTINUOUS
 62
     7
 10
77.7245612034
 20
-259.8676509385
 30
0.0
 11
81.3245611415
 21
-259.8676509385
 31
0.0
  0
LINE
  5
26B
  8
0
  6
CONTINUOUS
 62
     7
 10
72.7245613151
 20
-259.8676509385
 30
0.0
 11
72.7245613151
 21
-264.2676658158
 31
0.0
  0
LINE
  5
26C
  8
0
  6
CONTINUOUS
 62
     7
 10
72.7245613151
 20
-264.2676658158
 30
0.0
 11
75.1995612599
 21
-264.2676658158
 31
0.0
  0
LINE
  5
26D
  8
0
  6
CONTINUOUS
 62
     7
 10
81.3245611415
 20
-243.3676547532
 30
0.0
 11
69.124561377
 21
-243.3676547532
 31
0.0
  0
LINE
  5
26E
  8
0
  6
CONTINUOUS
 62
     7
 10
69.124561377
 20
-243.3676547532
 30
0.0
 11
69.124561377
 21
-259.8676509385
 31
0.0
  0
LINE
  5
26F
  8
0
  6
CONTINUOUS
 62
     7
 10
77.7245612034
 20
-264.2676658158
 30
0.0
 11
77.7245612034
 21
-259.8676509385
 31
0.0
  0
LINE
  5
270
  8
0
  6
CONTINUOUS
 62
     7
 10
79.1995614917
 20
-241.017652226
 30
0.0
 11
73.1995612067
 21
-241.017652226
 31
0.0
  0
LINE
  5
271
  8
0
  6
CONTINUOUS
 62
     7
 10
79.1995614917
 20
-243.3676547532
 30
0.0
 11
79.1995614917
 21
-241.017652226
 31
0.0
  0
LINE
  5
272
  8
0
  6
CONTINUOUS
 62
     7
 10
73.1995612067
 20
-241.017652226
 30
0.0
 11
73.1995612067
 21
-243.3676547532
 31
0.0
  0
LINE
  5
273
  8
0
  6
CONTINUOUS
 62
     7
 10
69.124561377
 20
-235.3613502507
 30
0.0
 11
81.3245611415
 21
-235.3613502507
 31
0.0
  0
LINE
  5
274
  8
0
  6
CONTINUOUS
 62
     7
 10
69.124561377
 20
-231.6025621419
 30
0.0
 11
81.3245611415
 21
-231.6025621419
 31
0.0
  0
LINE
  5
275
  8
0
  6
CONTINUOUS
 62
     7
 10
81.3245611415
 20
-231.6025621419
 30
0.0
 11
81.3245611415
 21
-235.3613502507
 31
0.0
  0
LINE
  5
276
  8
0
  6
CONTINUOUS
 62
     7
 10
69.124561377
 20
-231.6025621419
 30
0.0
 11
69.124561377
 21
-235.3613502507
 31
0.0
  0
LINE
  5
277
  8
0
  6
CONTINUOUS
 62
     7
 10
81.3245611415
 20
-227.3676521306
 30
0.0
 11
69.124561377
 21
-227.3676521306
 31
0.0
  0
LINE
  5
278
  8
0
  6
CONTINUOUS
 62
     7
 10
81.3245611415
 20
-227.3676521306
 30
0.0
 11
81.3245611415
 21
-231.6025621419
 31
0.0
  0
LINE
  5
279
  8
0
  6
CONTINUOUS
 62
     7
 10
69.124561377
 20
-227.3676521306
 30
0.0
 11
69.124561377
 21
-231.6025621419
 31
0.0
  0
LINE
  5
27A
  8
0
  6
CONTINUOUS
 62
     7
 10
69.124561377
 20
-226.8676585679
 30
0.0
 11
81.3245611415
 21
-226.8676585679
 31
0.0
  0
LINE
  5
27B
  8
0
  6
CONTINUOUS
 62
     7
 10
81.3245611415
 20
-226.8676585679
 30
0.0
 11
81.3245611415
 21
-227.3676521306
 31
0.0
  0
LINE
  5
27C
  8
0
  6
CONTINUOUS
 62
     7
 10
69.124561377
 20
-226.8676585679
 30
0.0
 11
69.124561377
 21
-227.3676521306
 31
0.0
  0
LINE
  5
27D
  8
0
  6
CONTINUOUS
 62
     7
 10
74.2495612857
 20
-236.6676456456
 30
0.0
 11
78.2495612429
 21
-236.6676456456
 31
0.0
  0
LINE
  5
27E
  8
0
  6
CONTINUOUS
 62
     7
 10
78.2495612429
 20
-237.2176475053
 30
0.0
 11
78.2495612429
 21
-236.6676456456
 31
0.0
  0
LINE
  5
27F
  8
0
  6
CONTINUOUS
 62
     7
 10
74.2495612857
 20
-237.2176475053
 30
0.0
 11
78.2495612429
 21
-237.2176475053
 31
0.0
  0
LINE
  5
280
  8
0
  6
CONTINUOUS
 62
     7
 10
74.2495612857
 20
-236.6676456456
 30
0.0
 11
74.2495612857
 21
-237.2176475053
 31
0.0
  0
LINE
  5
281
  8
0
  6
CONTINUOUS
 62
     7
 10
78.2495612429
 20
-236.6676456456
 30
0.0
 11
78.2495612429
 21
-236.3676554684
 31
0.0
  0
LINE
  5
282
  8
0
  6
CONTINUOUS
 62
     7
 10
74.2495612857
 20
-236.3676554684
 30
0.0
 11
74.2495612857
 21
-236.6676456456
 31
0.0
  0
LINE
  5
283
  8
0
  6
CONTINUOUS
 62
     7
 10
74.2495612857
 20
-236.3676554684
 30
0.0
 11
78.2495612429
 21
-236.3676554684
 31
0.0
  0
LINE
  5
284
  8
0
  6
CONTINUOUS
 62
     7
 10
73.1995612067
 20
-241.3676507001
 30
0.0
 11
69.124561377
 21
-241.3676507001
 31
0.0
  0
LINE
  5
285
  8
0
  6
CONTINUOUS
 62
     7
 10
69.124561377
 20
-241.3676507001
 30
0.0
 11
69.124561377
 21
-243.3676547532
 31
0.0
  0
LINE
  5
286
  8
0
  6
CONTINUOUS
 62
     7
 10
81.3245611415
 20
-241.3676507001
 30
0.0
 11
79.1995614917
 21
-241.3676507001
 31
0.0
  0
LINE
  5
287
  8
0
  6
CONTINUOUS
 62
     7
 10
81.3245611415
 20
-241.3676507001
 30
0.0
 11
81.3245611415
 21
-243.3676547532
 31
0.0
  0
LINE
  5
288
  8
0
  6
CONTINUOUS
 62
     7
 10
74.2495612857
 20
-240.5176586633
 30
0.0
 11
73.1995612067
 21
-240.5176586633
 31
0.0
  0
LINE
  5
289
  8
0
  6
CONTINUOUS
 62
     7
 10
74.2495612857
 20
-237.2176475053
 30
0.0
 11
73.1995612067
 21
-237.2176475053
 31
0.0
  0
LINE
  5
28A
  8
0
  6
CONTINUOUS
 62
     7
 10
73.1995612067
 20
-237.2176475053
 30
0.0
 11
73.1995612067
 21
-240.5176586633
 31
0.0
  0
LINE
  5
28B
  8
0
  6
CONTINUOUS
 62
     7
 10
78.2495612429
 20
-238.0676395421
 30
0.0
 11
78.2495612429
 21
-237.2176475053
 31
0.0
  0
LINE
  5
28C
  8
0
  6
CONTINUOUS
 62
     7
 10
74.2495612857
 20
-237.2176475053
 30
0.0
 11
74.2495612857
 21
-238.0676395421
 31
0.0
  0
LINE
  5
28D
  8
0
  6
CONTINUOUS
 62
     7
 10
74.2495612857
 20
-238.0676395421
 30
0.0
 11
78.2495612429
 21
-238.0676395421
 31
0.0
  0
LINE
  5
28E
  8
0
  6
CONTINUOUS
 62
     7
 10
79.1995614917
 20
-236.6676456456
 30
0.0
 11
78.2495612429
 21
-236.6676456456
 31
0.0
  0
LINE
  5
28F
  8
0
  6
CONTINUOUS
 62
     7
 10
79.1995614917
 20
-237.2176475053
 30
0.0
 11
78.2495612429
 21
-237.2176475053
 31
0.0
  0
LINE
  5
290
  8
0
  6
CONTINUOUS
 62
     7
 10
79.1995614917
 20
-236.6676456456
 30
0.0
 11
79.1995614917
 21
-237.2176475053
 31
0.0
  0
LINE
  5
291
  8
0
  6
CONTINUOUS
 62
     7
 10
74.2495612857
 20
-236.6676456456
 30
0.0
 11
73.1995612067
 21
-236.6676456456
 31
0.0
  0
LINE
  5
292
  8
0
  6
CONTINUOUS
 62
     7
 10
73.1995612067
 20
-236.3676554684
 30
0.0
 11
74.2495612857
 21
-236.3676554684
 31
0.0
  0
LINE
  5
293
  8
0
  6
CONTINUOUS
 62
     7
 10
73.1995612067
 20
-236.3676554684
 30
0.0
 11
73.1995612067
 21
-236.6676456456
 31
0.0
  0
LINE
  5
294
  8
0
  6
CONTINUOUS
 62
     7
 10
78.2495612429
 20
-240.5176586633
 30
0.0
 11
79.1995614917
 21
-240.5176586633
 31
0.0
  0
LINE
  5
295
  8
0
  6
CONTINUOUS
 62
     7
 10
79.1995614917
 20
-237.2176475053
 30
0.0
 11
79.1995614917
 21
-240.5176586633
 31
0.0
  0
LINE
  5
296
  8
0
  6
CONTINUOUS
 62
     7
 10
78.2495612429
 20
-236.3676554684
 30
0.0
 11
79.1995614917
 21
-236.3676554684
 31
0.0
  0
LINE
  5
297
  8
0
  6
CONTINUOUS
 62
     7
 10
79.1995614917
 20
-236.3676554684
 30
0.0
 11
79.1995614917
 21
-236.6676456456
 31
0.0
  0
LINE
  5
298
  8
0
  6
CONTINUOUS
 62
     7
 10
73.1995612067
 20
-236.6676456456
 30
0.0
 11
73.1995612067
 21
-237.2176475053
 31
0.0
  0
LINE
  5
299
  8
0
  6
CONTINUOUS
 62
     7
 10
78.2495612429
 20
-238.9176613812
 30
0.0
 11
74.2495612857
 21
-238.9176613812
 31
0.0
  0
LINE
  5
29A
  8
0
  6
CONTINUOUS
 62
     7
 10
74.2495612857
 20
-238.0676395421
 30
0.0
 11
74.2495612857
 21
-238.9176613812
 31
0.0
  0
LINE
  5
29B
  8
0
  6
CONTINUOUS
 62
     7
 10
78.2495612429
 20
-238.9176613812
 30
0.0
 11
78.2495612429
 21
-238.0676395421
 31
0.0
  0
LINE
  5
29C
  8
0
  6
CONTINUOUS
 62
     7
 10
78.2495612429
 20
-239.767653418
 30
0.0
 11
78.2495612429
 21
-238.9176613812
 31
0.0
  0
LINE
  5
29D
  8
0
  6
CONTINUOUS
 62
     7
 10
78.2495612429
 20
-239.767653418
 30
0.0
 11
74.2495612857
 21
-239.767653418
 31
0.0
  0
LINE
  5
29E
  8
0
  6
CONTINUOUS
 62
     7
 10
74.2495612857
 20
-238.9176613812
 30
0.0
 11
74.2495612857
 21
-239.767653418
 31
0.0
  0
LINE
  5
29F
  8
0
  6
CONTINUOUS
 62
     7
 10
81.3245611415
 20
-236.2435884003
 30
0.0
 11
69.124561377
 21
-236.2435884003
 31
0.0
  0
LINE
  5
2A0
  8
0
  6
CONTINUOUS
 62
     7
 10
81.3245611415
 20
-235.3613502507
 30
0.0
 11
81.3245611415
 21
-236.2435884003
 31
0.0
  0
LINE
  5
2A1
  8
0
  6
CONTINUOUS
 62
     7
 10
69.124561377
 20
-235.3613502507
 30
0.0
 11
69.124561377
 21
-236.2435884003
 31
0.0
  0
LINE
  5
2A2
  8
0
  6
CONTINUOUS
 62
     7
 10
78.2495612429
 20
-240.5176586633
 30
0.0
 11
78.2495612429
 21
-239.767653418
 31
0.0
  0
LINE
  5
2A3
  8
0
  6
CONTINUOUS
 62
     7
 10
78.2495612429
 20
-240.5176586633
 30
0.0
 11
74.2495612857
 21
-240.5176586633
 31
0.0
  0
LINE
  5
2A4
  8
0
  6
CONTINUOUS
 62
     7
 10
74.2495612857
 20
-240.5176586633
 30
0.0
 11
74.2495612857
 21
-239.767653418
 31
0.0
  0
LINE
  5
2A5
  8
0
  6
CONTINUOUS
 62
     7
 10
73.1995612067
 20
-240.5176586633
 30
0.0
 11
73.1995612067
 21
-241.017652226
 31
0.0
  0
LINE
  5
2A6
  8
0
  6
CONTINUOUS
 62
     7
 10
79.1995614917
 20
-241.017652226
 30
0.0
 11
79.1995614917
 21
-240.5176586633
 31
0.0
  0
LINE
  5
2A7
  8
0
  6
CONTINUOUS
 62
     7
 10
81.3245611415
 20
-236.2435884003
 30
0.0
 11
81.3245611415
 21
-241.3676507001
 31
0.0
  0
LINE
  5
2A8
  8
0
  6
CONTINUOUS
 62
     7
 10
69.124561377
 20
-236.2435884003
 30
0.0
 11
69.124561377
 21
-241.3676507001
 31
0.0
  0
LINE
  5
2A9
  8
0
  6
CONTINUOUS
 62
     7
 10
78.3245613483
 20
-270.3676647668
 30
0.0
 11
78.3245613483
 21
-259.8676509385
 31
0.0
  0
LINE
  5
2AA
  8
0
  6
CONTINUOUS
 62
     7
 10
77.9245613293
 20
-270.3676647668
 30
0.0
 11
77.9245613293
 21
-259.8676509385
 31
0.0
  0
LINE
  5
2AB
  8
0
  6
CONTINUOUS
 62
     7
 10
78.3245613483
 20
-270.3676647668
 30
0.0
 11
77.9245613293
 21
-270.3676647668
 31
0.0
  0
LINE
  5
2AC
  8
0
  6
CONTINUOUS
 62
     7
 10
72.5245611892
 20
-270.3676647668
 30
0.0
 11
72.5245611892
 21
-259.8676509385
 31
0.0
  0
LINE
  5
2AD
  8
0
  6
CONTINUOUS
 62
     7
 10
77.9245613293
 20
-270.3676647668
 30
0.0
 11
72.5245611892
 21
-270.3676647668
 31
0.0
  0
LINE
  5
2AE
  8
0
  6
CONTINUOUS
 62
     7
 10
72.1245611702
 20
-270.3676647668
 30
0.0
 11
72.1245611702
 21
-259.8676509385
 31
0.0
  0
LINE
  5
2AF
  8
0
  6
CONTINUOUS
 62
     7
 10
72.5245611892
 20
-270.3676647668
 30
0.0
 11
72.1245611702
 21
-270.3676647668
 31
0.0
  0
LINE
  5
2B0
  8
0
  6
CONTINUOUS
 62
     8
 10
68.7245611251
 20
-215.2676410203
 30
0.0
 11
72.2245612332
 21
-215.2676410203
 31
0.0
  0
LINE
  5
2B1
  8
0
  6
CONTINUOUS
 62
     8
 10
69.0578945131
 20
-215.7390541558
 30
0.0
 11
72.2245612332
 21
-215.7390541558
 31
0.0
  0
LINE
  5
2B2
  8
0
  6
CONTINUOUS
 62
     8
 10
72.2245612332
 20
-216.6818506245
 30
0.0
 11
69.7245612891
 21
-216.6818506245
 31
0.0
  0
LINE
  5
2B3
  8
0
  6
CONTINUOUS
 62
     8
 10
92.4245618434
 20
27.4776764984
 30
0.0
 11
92.4245618434
 21
28.3323474999
 31
0.0
  0
LINE
  5
2B4
  8
0
  6
CONTINUOUS
 62
     8
 10
92.4245618434
 20
21.3323482151
 30
0.0
 11
92.4245618434
 21
27.1241240974
 31
0.0
  0
LINE
  5
2B5
  8
0
  6
CONTINUOUS
 62
     8
 10
78.2245612853
 20
-215.2676410203
 30
0.0
 11
79.7245610655
 21
-215.2676410203
 31
0.0
  0
LINE
  5
2B6
  8
0
  6
CONTINUOUS
 62
     8
 10
78.7245613673
 20
-216.267657948
 30
0.0
 11
78.2245612853
 21
-216.267657948
 31
0.0
  0
LINE
  5
2B7
  8
0
  6
CONTINUOUS
 62
     7
 10
369.40564565
 20
16.6323468859
 30
0.0
 11
369.40564565
 21
-190.7676584248
 31
0.0
  0
LINE
  5
2B8
  8
0
  6
CONTINUOUS
 62
     7
 10
377.40564603
 20
-190.7676584248
 30
0.0
 11
377.40564603
 21
16.6323468859
 31
0.0
  0
ARC
  5
2B9
  8
0
  6
CONTINUOUS
 62
     7
 10
379.40564584
 20
-215.2676516538
 30
0.0
 40
0.500000000000001
 50
289.4712206345
 51
0.0
  0
LINE
  5
2BA
  8
0
  6
CONTINUOUS
 62
     7
 10
379.9056459741
 20
-215.2676410203
 30
0.0
 11
379.9056459741
 21
-190.7676584248
 31
0.0
  0
ARC
  5
2BB
  8
0
  6
CONTINUOUS
 62
     7
 10
379.90564584
 20
-216.6818652161
 30
0.0
 40
1.000000000000029
 50
109.4712206345
 51
180.0
  0
LINE
  5
2BC
  8
0
  6
CONTINUOUS
 62
     7
 10
378.9056458102
 20
-230.7676500802
 30
0.0
 11
378.9056458102
 21
-216.6818506245
 31
0.0
  0
LINE
  5
2BD
  8
0
  6
CONTINUOUS
 62
     7
 10
378.9056458102
 20
-190.7676584248
 30
0.0
 11
378.9056458102
 21
16.6323468859
 31
0.0
  0
POLYLINE
  5
2BE
  8
0
  6
CONTINUOUS
 62
     7
 66
     1
 10
0.0
 20
0.0
 30
0.0
 70
   128
  0
VERTEX
  5
7D7
  8
0
  6
CONTINUOUS
 62
     7
 10
376.6552803629
 20
-250.767660809
 30
0.0
  0
VERTEX
  5
7D8
  8
0
  6
CONTINUOUS
 62
     7
 10
376.6542589349
 20
-242.2655946736
 30
0.0
  0
VERTEX
  5
7D9
  8
0
  6
CONTINUOUS
 62
     7
 10
376.655645907
 20
-230.7676500802
 30
0.0
  0
SEQEND
  5
896
  8
0
  6
CONTINUOUS
 62
     7
  0
LINE
  5
2BF
  8
0
  6
CONTINUOUS
 62
     7
 10
359.9056454898
 20
28.5323490228
 30
0.0
 11
359.6056459994
 21
28.5323490228
 31
0.0
  0
LINE
  5
2C0
  8
0
  6
CONTINUOUS
 62
     7
 10
359.6056459994
 20
22.7323495622
 30
0.0
 11
359.9056454898
 21
22.7323495622
 31
0.0
  0
LINE
  5
2C1
  8
0
  6
CONTINUOUS
 62
     7
 10
368.1556459108
 20
18.86213057
 30
0.0
 11
368.1556459108
 21
16.6323468859
 31
0.0
  0
LINE
  5
2C2
  8
0
  6
CONTINUOUS
 62
     7
 10
378.6556457692
 20
16.6323468859
 30
0.0
 11
378.6556457692
 21
18.8566879208
 31
0.0
  0
LINE
  5
2C3
  8
0
  6
CONTINUOUS
 62
     7
 10
359.6056459994
 20
28.3323474999
 30
0.0
 11
357.3056452499
 21
28.3323474999
 31
0.0
  0
LINE
  5
2C4
  8
0
  6
CONTINUOUS
 62
     7
 10
357.3056452499
 20
21.3323482151
 30
0.0
 11
359.9056454898
 21
21.3323482151
 31
0.0
  0
ARC
  5
2C5
  8
0
  6
CONTINUOUS
 62
     7
 10
356.20564584
 20
27.0323483462
 30
0.0
 40
1.300000000000011
 50
90.0
 51
180.0
  0
LINE
  5
2C6
  8
0
  6
CONTINUOUS
 62
     7
 10
357.3056452499
 20
28.3323474999
 30
0.0
 11
356.2056452559
 21
28.3323474999
 31
0.0
  0
LINE
  5
2C7
  8
0
  6
CONTINUOUS
 62
     7
 10
356.2056452559
 20
21.3323482151
 30
0.0
 11
357.3056452499
 21
21.3323482151
 31
0.0
  0
ARC
  5
2C8
  8
0
  6
CONTINUOUS
 62
     7
 10
356.20564584
 20
22.6323483462
 30
0.0
 40
1.300000000000011
 50
180.0
 51
270.0
  0
LINE
  5
2C9
  8
0
  6
CONTINUOUS
 62
     7
 10
378.4556456433
 20
-261.4676482205
 30
0.0
 11
378.4556456433
 21
-251.7676479344
 31
0.0
  0
POLYLINE
  5
2CA
  8
0
  6
CONTINUOUS
 62
     7
 66
     1
 10
0.0
 20
0.0
 30
0.0
 70
   128
  0
VERTEX
  5
7DA
  8
0
  6
CONTINUOUS
 62
     7
 10
372.0545466115
 20
-250.767660809
 30
0.0
  0
VERTEX
  5
7DB
  8
0
  6
CONTINUOUS
 62
     7
 10
372.6843120587
 20
-242.2655946736
 30
0.0
  0
VERTEX
  5
7DC
  8
0
  6
CONTINUOUS
 62
     7
 10
373.5376118477
 20
-230.7676500802
 30
0.0
  0
SEQEND
  5
897
  8
0
  6
CONTINUOUS
 62
     7
  0
POLYLINE
  5
2CB
  8
0
  6
CONTINUOUS
 62
     7
 66
     1
 10
0.0
 20
0.0
 30
0.0
 70
   128
  0
VERTEX
  5
7DD
  8
0
  6
CONTINUOUS
 62
     7
 10
372.0376119075
 20
-230.7676500802
 30
0.0
  0
VERTEX
  5
7DE
  8
0
  6
CONTINUOUS
 62
     7
 10
371.3339278532
 20
-240.269703341
 30
0.0
  0
VERTEX
  5
7DF
  8
0
  6
CONTINUOUS
 62
     7
 10
370.5550138896
 20
-250.767660809
 30
0.0
  0
SEQEND
  5
898
  8
0
  6
CONTINUOUS
 62
     7
  0
POLYLINE
  5
2CC
  8
0
  6
CONTINUOUS
 62
     7
 66
     1
 10
0.0
 20
0.0
 30
0.0
 70
   128
  0
VERTEX
  5
7E0
  8
0
  6
CONTINUOUS
 62
     7
 10
374.273679807
 20
-230.7676500802
 30
0.0
  0
VERTEX
  5
7E1
  8
0
  6
CONTINUOUS
 62
     7
 10
374.4593809882
 20
-240.269703341
 30
0.0
  0
VERTEX
  5
7E2
  8
0
  6
CONTINUOUS
 62
     7
 10
374.6616659976
 20
-250.767660809
 30
0.0
  0
SEQEND
  5
899
  8
0
  6
CONTINUOUS
 62
     7
  0
POLYLINE
  5
2CD
  8
0
  6
CONTINUOUS
 62
     7
 66
     1
 10
0.0
 20
0.0
 30
0.0
 70
   128
  0
VERTEX
  5
7E3
  8
0
  6
CONTINUOUS
 62
     7
 10
376.1608405096
 20
-250.767660809
 30
0.0
  0
VERTEX
  5
7E4
  8
0
  6
CONTINUOUS
 62
     7
 10
375.9949130529
 20
-242.2655946736
 30
0.0
  0
VERTEX
  5
7E5
  8
0
  6
CONTINUOUS
 62
     7
 10
375.7736799364
 20
-230.7676500802
 30
0.0
  0
SEQEND
  5
89A
  8
0
  6
CONTINUOUS
 62
     7
  0
ARC
  5
2CE
  8
0
  6
CONTINUOUS
 62
     7
 10
369.40564584
 20
-215.2676516538
 30
0.0
 40
0.5
 50
180.0
 51
270.0
  0
ARC
  5
2CF
  8
0
  6
CONTINUOUS
 62
     7
 10
377.40564584
 20
-215.2676516538
 30
0.0
 40
0.5
 50
270.0
 51
0.0
  0
LINE
  5
2D0
  8
0
  6
CONTINUOUS
 62
     7
 10
368.9056460337
 20
-190.7676584248
 30
0.0
 11
368.9056460337
 21
-215.2676410203
 31
0.0
  0
LINE
  5
2D1
  8
0
  6
CONTINUOUS
 62
     7
 10
377.9056456463
 20
-215.2676410203
 30
0.0
 11
377.9056456463
 21
-190.7676584248
 31
0.0
  0
ARC
  5
2D2
  8
0
  6
CONTINUOUS
 62
     7
 10
369.40564584
 20
-216.2676516538
 30
0.0
 40
0.5
 50
0.0
 51
90.0
  0
ARC
  5
2D3
  8
0
  6
CONTINUOUS
 62
     7
 10
377.40564584
 20
-216.2676516538
 30
0.0
 40
0.5
 50
90.0
 51
180.0
  0
LINE
  5
2D4
  8
0
  6
CONTINUOUS
 62
     7
 10
369.905645732
 20
-216.267657948
 30
0.0
 11
369.905645732
 21
-230.7676500802
 31
0.0
  0
LINE
  5
2D5
  8
0
  6
CONTINUOUS
 62
     7
 10
376.905645948
 20
-230.7676500802
 30
0.0
 11
376.905645948
 21
-216.267657948
 31
0.0
  0
POLYLINE
  5
2D6
  8
0
  6
CONTINUOUS
 62
     7
 66
     1
 10
0.0
 20
0.0
 30
0.0
 70
   128
  0
VERTEX
  5
7E6
  8
0
  6
CONTINUOUS
 62
     7
 10
370.6561864876
 20
-230.7676500802
 30
0.0
  0
VERTEX
  5
7E7
  8
0
  6
CONTINUOUS
 62
     7
 10
370.5843475239
 20
-240.269703341
 30
0.0
  0
VERTEX
  5
7E8
  8
0
  6
CONTINUOUS
 62
     7
 10
370.48966508
 20
-250.767660809
 30
0.0
  0
SEQEND
  5
89B
  8
0
  6
CONTINUOUS
 62
     7
  0
LINE
  5
2D7
  8
0
  6
CONTINUOUS
 62
     7
 10
380.9056456724
 20
16.6323468859
 30
0.0
 11
380.9056456724
 21
18.8357890422
 31
0.0
  0
CIRCLE
  5
2D8
  8
0
  6
CONTINUOUS
 62
     7
 10
373.40564584
 20
59.6323483462
 30
0.0
 40
5.0
  0
CIRCLE
  5
2D9
  8
0
  6
CONTINUOUS
 62
     7
 10
373.40564584
 20
59.6323483462
 30
0.0
 40
18.0
  0
CIRCLE
  5
2DA
  8
0
  6
CONTINUOUS
 62
     7
 10
398.40564584
 20
34.6323483462
 30
0.0
 40
2.249999999999943
  0
CIRCLE
  5
2DB
  8
0
  6
CONTINUOUS
 62
     7
 10
398.40564584
 20
84.6323483462
 30
0.0
 40
2.249999999999943
  0
ARC
  5
2DC
  8
0
  6
CONTINUOUS
 62
     7
 10
348.70564584
 20
84.3323483462
 30
0.0
 40
5.299999999999997
 50
90.0
 51
180.0
  0
LINE
  5
2DD
  8
0
  6
CONTINUOUS
 62
     7
 10
348.7056449578
 20
89.6323476757
 30
0.0
 11
398.1056467221
 21
89.6323476757
 31
0.0
  0
ARC
  5
2DE
  8
0
  6
CONTINUOUS
 62
     7
 10
398.10564584
 20
84.3323483462
 30
0.0
 40
5.300000000000011
 50
0.0
 51
90.0
  0
LINE
  5
2DF
  8
0
  6
CONTINUOUS
 62
     7
 10
403.4056451694
 20
34.9323474641
 30
0.0
 11
403.4056451694
 21
84.3323492284
 31
0.0
  0
LINE
  5
2E0
  8
0
  6
CONTINUOUS
 62
     7
 10
348.7056449578
 20
29.6323490168
 30
0.0
 11
398.1056467221
 21
29.6323490168
 31
0.0
  0
ARC
  5
2E1
  8
0
  6
CONTINUOUS
 62
     7
 10
348.70564584
 20
34.9323483462
 30
0.0
 40
5.300000000000001
 50
180.0
 51
270.0
  0
LINE
  5
2E2
  8
0
  6
CONTINUOUS
 62
     7
 10
343.4056465105
 20
34.9323474641
 30
0.0
 11
343.4056465105
 21
84.3323492284
 31
0.0
  0
CIRCLE
  5
2E3
  8
0
  6
CONTINUOUS
 62
     7
 10
348.40564584
 20
84.6323483462
 30
0.0
 40
2.249999999999943
  0
CIRCLE
  5
2E4
  8
0
  6
CONTINUOUS
 62
     7
 10
348.40564584
 20
34.6323483462
 30
0.0
 40
2.249999999999943
  0
ARC
  5
2E5
  8
0
  6
CONTINUOUS
 62
     7
 10
398.10564584
 20
34.9323483462
 30
0.0
 40
5.300000000000011
 50
270.0
 51
0.0
  0
LINE
  5
2E6
  8
0
  6
CONTINUOUS
 62
     7
 10
378.6056458541
 20
-261.4676482205
 30
0.0
 11
378.4556456433
 21
-261.4676482205
 31
0.0
  0
LINE
  5
2E7
  8
0
  6
CONTINUOUS
 62
     7
 10
378.6056458541
 20
-261.4676482205
 30
0.0
 11
378.6056458541
 21
-251.7676479344
 31
0.0
  0
LINE
  5
2E8
  8
0
  6
CONTINUOUS
 62
     7
 10
379.9056459741
 20
-190.7676584248
 30
0.0
 11
377.9056456463
 21
-190.7676584248
 31
0.0
  0
LINE
  5
2E9
  8
0
  6
CONTINUOUS
 62
     7
 10
377.6056456902
 20
-270.3676647668
 30
0.0
 11
377.3056457342
 21
-270.3676647668
 31
0.0
  0
LINE
  5
2EA
  8
0
  6
CONTINUOUS
 62
     7
 10
377.6056456902
 20
-270.3676647668
 30
0.0
 11
377.6056456902
 21
-261.4676482205
 31
0.0
  0
LINE
  5
2EB
  8
0
  6
CONTINUOUS
 62
     7
 10
378.9056458102
 20
-230.7676500802
 30
0.0
 11
376.905645948
 21
-230.7676500802
 31
0.0
  0
LINE
  5
2EC
  8
0
  6
CONTINUOUS
 62
     7
 10
382.9056455345
 20
25.3892042513
 30
0.0
 11
382.9056455345
 21
29.6323490168
 31
0.0
  0
LINE
  5
2ED
  8
0
  6
CONTINUOUS
 62
     7
 10
386.9056461902
 20
29.6323490168
 30
0.0
 11
386.9056461902
 21
24.2196046586
 31
0.0
  0
POLYLINE
  5
2EE
  8
0
  6
CONTINUOUS
 62
     7
 66
     1
 10
0.0
 20
0.0
 30
0.0
 70
   128
  0
VERTEX
  5
7E9
  8
0
  6
CONTINUOUS
 62
     7
 10
386.9056461902
 20
24.2196046586
 30
0.0
  0
VERTEX
  5
7EA
  8
0
  6
CONTINUOUS
 62
     7
 10
386.6676504315
 20
24.8281606312
 30
0.0
  0
VERTEX
  5
7EB
  8
0
  6
CONTINUOUS
 62
     7
 10
385.9387964533
 20
25.2767675395
 30
0.0
  0
VERTEX
  5
7EC
  8
0
  6
CONTINUOUS
 62
     7
 10
384.892231092
 20
25.4844711001
 30
0.0
  0
VERTEX
  5
7ED
  8
0
  6
CONTINUOUS
 62
     7
 10
383.7198701279
 20
25.4846722658
 30
0.0
  0
VERTEX
  5
7EE
  8
0
  6
CONTINUOUS
 62
     7
 10
382.9056455345
 20
25.3892042513
 30
0.0
  0
SEQEND
  5
89C
  8
0
  6
CONTINUOUS
 62
     7
  0
ARC
  5
2EF
  8
0
  6
CONTINUOUS
 62
     7
 10
373.40564584
 20
78.6323483462
 30
0.0
 40
60.0
 50
256.9971218371
 51
283.0028781629
  0
LINE
  5
2F0
  8
0
  6
CONTINUOUS
 62
     7
 10
359.9056454898
 20
24.2196046586
 30
0.0
 11
359.9056454898
 21
20.1708213265
 31
0.0
  0
POLYLINE
  5
2F1
  8
0
  6
CONTINUOUS
 62
     7
 66
     1
 10
0.0
 20
0.0
 30
0.0
 70
   128
  0
VERTEX
  5
7EF
  8
0
  6
CONTINUOUS
 62
     7
 10
363.9056461455
 20
25.3892042513
 30
0.0
  0
VERTEX
  5
7F0
  8
0
  6
CONTINUOUS
 62
     7
 10
362.6916876586
 20
25.5046435471
 30
0.0
  0
VERTEX
  5
7F1
  8
0
  6
CONTINUOUS
 62
     7
 10
361.5881514327
 20
25.4467823382
 30
0.0
  0
VERTEX
  5
7F2
  8
0
  6
CONTINUOUS
 62
     7
 10
360.7248098181
 20
25.2195582564
 30
0.0
  0
VERTEX
  5
7F3
  8
0
  6
CONTINUOUS
 62
     7
 10
360.1462899299
 20
24.8311259623
 30
0.0
  0
VERTEX
  5
7F4
  8
0
  6
CONTINUOUS
 62
     7
 10
359.9056454898
 20
24.2196046586
 30
0.0
  0
SEQEND
  5
89D
  8
0
  6
CONTINUOUS
 62
     7
  0
ARC
  5
2F2
  8
0
  6
CONTINUOUS
 62
     7
 10
373.40564584
 20
84.6371233843
 30
0.0
 40
60.00471577952898
 50
260.8905522067
 51
279.1094477933
  0
LINE
  5
2F3
  8
0
  6
CONTINUOUS
 62
     7
 10
386.9056461902
 20
24.2196046586
 30
0.0
 11
386.9056461902
 21
20.1708213265
 31
0.0
  0
LINE
  5
2F4
  8
0
  6
CONTINUOUS
 62
     7
 10
363.9056461455
 20
29.6323490168
 30
0.0
 11
363.9056461455
 21
25.3892042513
 31
0.0
  0
LINE
  5
2F5
  8
0
  6
CONTINUOUS
 62
     7
 10
359.9056454898
 20
24.2196046586
 30
0.0
 11
359.9056454898
 21
29.6323490168
 31
0.0
  0
LINE
  5
2F6
  8
0
  6
CONTINUOUS
 62
     7
 10
359.6056459994
 20
25.6323464985
 30
0.0
 11
359.6056459994
 21
28.5323490228
 31
0.0
  0
LINE
  5
2F7
  8
0
  6
CONTINUOUS
 62
     7
 10
359.6056459994
 20
22.7323495622
 30
0.0
 11
359.6056459994
 21
25.6323464985
 31
0.0
  0
LINE
  5
2F8
  8
0
  6
CONTINUOUS
 62
     7
 10
368.1556459108
 20
16.6323468859
 30
0.0
 11
378.6556457692
 21
16.6323468859
 31
0.0
  0
LINE
  5
2F9
  8
0
  6
CONTINUOUS
 62
     7
 10
357.3056452499
 20
24.8323478575
 30
0.0
 11
357.3056452499
 21
28.3323474999
 31
0.0
  0
LINE
  5
2FA
  8
0
  6
CONTINUOUS
 62
     7
 10
357.3056452499
 20
21.3323482151
 30
0.0
 11
357.3056452499
 21
24.8323478575
 31
0.0
  0
LINE
  5
2FB
  8
0
  6
CONTINUOUS
 62
     7
 10
354.9056456016
 20
23.4635681684
 30
0.0
 11
354.9056456016
 21
27.0323478456
 31
0.0
  0
POLYLINE
  5
2FC
  8
0
  6
CONTINUOUS
 62
     7
 66
     1
 10
0.0
 20
0.0
 30
0.0
 70
   128
  0
VERTEX
  5
7F5
  8
0
  6
CONTINUOUS
 62
     7
 10
356.2056452559
 20
22.5405716176
 30
0.0
  0
VERTEX
  5
7F6
  8
0
  6
CONTINUOUS
 62
     7
 10
355.7762515323
 20
22.5923009987
 30
0.0
  0
VERTEX
  5
7F7
  8
0
  6
CONTINUOUS
 62
     7
 10
355.3952716814
 20
22.7415882821
 30
0.0
  0
VERTEX
  5
7F8
  8
0
  6
CONTINUOUS
 62
     7
 10
355.1052280293
 20
22.971714365
 30
0.0
  0
VERTEX
  5
7F9
  8
0
  6
CONTINUOUS
 62
     7
 10
354.9384058045
 20
23.2573211963
 30
0.0
  0
VERTEX
  5
7FA
  8
0
  6
CONTINUOUS
 62
     7
 10
354.9056456016
 20
23.4635681684
 30
0.0
  0
SEQEND
  5
89E
  8
0
  6
CONTINUOUS
 62
     7
  0
LINE
  5
2FD
  8
0
  6
CONTINUOUS
 62
     7
 10
356.2056452559
 20
22.1870192166
 30
0.0
 11
356.2056452559
 21
22.5405716176
 31
0.0
  0
LINE
  5
2FE
  8
0
  6
CONTINUOUS
 62
     7
 10
354.9056456016
 20
22.6323478694
 30
0.0
 11
354.9056456016
 21
23.1100120421
 31
0.0
  0
POLYLINE
  5
2FF
  8
0
  6
CONTINUOUS
 62
     7
 66
     1
 10
0.0
 20
0.0
 30
0.0
 70
   128
  0
VERTEX
  5
7FB
  8
0
  6
CONTINUOUS
 62
     7
 10
354.9056456016
 20
23.1100120421
 30
0.0
  0
VERTEX
  5
7FC
  8
0
  6
CONTINUOUS
 62
     7
 10
354.9794119374
 20
22.8031040008
 30
0.0
  0
VERTEX
  5
7FD
  8
0
  6
CONTINUOUS
 62
     7
 10
355.1930182205
 20
22.5308299835
 30
0.0
  0
VERTEX
  5
7FE
  8
0
  6
CONTINUOUS
 62
     7
 10
355.5208996461
 20
22.3252498384
 30
0.0
  0
VERTEX
  5
7FF
  8
0
  6
CONTINUOUS
 62
     7
 10
355.9252296166
 20
22.2087153073
 30
0.0
  0
VERTEX
  5
800
  8
0
  6
CONTINUOUS
 62
     7
 10
356.2056452559
 20
22.1870192166
 30
0.0
  0
SEQEND
  5
89F
  8
0
  6
CONTINUOUS
 62
     7
  0
LINE
  5
300
  8
0
  6
CONTINUOUS
 62
     7
 10
354.9056456016
 20
23.4635681684
 30
0.0
 11
354.9056456016
 21
23.1100120421
 31
0.0
  0
LINE
  5
301
  8
0
  6
CONTINUOUS
 62
     7
 10
368.605645612
 20
-251.7676479344
 30
0.0
 11
368.605645612
 21
-261.4676482205
 31
0.0
  0
LINE
  5
302
  8
0
  6
CONTINUOUS
 62
     7
 10
368.605645612
 20
-251.7676479344
 30
0.0
 11
367.6056459138
 21
-251.7676479344
 31
0.0
  0
LINE
  5
303
  8
0
  6
CONTINUOUS
 62
     7
 10
367.6056459138
 20
-251.7676479344
 30
0.0
 11
367.6056459138
 21
-250.767660809
 31
0.0
  0
LINE
  5
304
  8
0
  6
CONTINUOUS
 62
     7
 10
368.605645612
 20
-261.4676482205
 30
0.0
 11
378.205646068
 21
-261.4676482205
 31
0.0
  0
LINE
  5
305
  8
0
  6
CONTINUOUS
 62
     7
 10
378.205646068
 20
-251.7676479344
 30
0.0
 11
379.2056457662
 21
-251.7676479344
 31
0.0
  0
LINE
  5
306
  8
0
  6
CONTINUOUS
 62
     7
 10
378.205646068
 20
-261.4676482205
 30
0.0
 11
378.205646068
 21
-251.7676479344
 31
0.0
  0
LINE
  5
307
  8
0
  6
CONTINUOUS
 62
     7
 10
379.2056457662
 20
-250.767660809
 30
0.0
 11
367.6056459138
 21
-250.767660809
 31
0.0
  0
LINE
  5
308
  8
0
  6
CONTINUOUS
 62
     7
 10
379.2056457662
 20
-250.767660809
 30
0.0
 11
379.2056457662
 21
-251.7676479344
 31
0.0
  0
LINE
  5
309
  8
0
  6
CONTINUOUS
 62
     7
 10
376.5556458441
 20
-261.4676482205
 30
0.0
 11
376.5556458441
 21
-270.3676647668
 31
0.0
  0
LINE
  5
30A
  8
0
  6
CONTINUOUS
 62
     7
 10
377.3056457342
 20
-270.3676647668
 30
0.0
 11
377.3056457342
 21
-261.4676482205
 31
0.0
  0
LINE
  5
30B
  8
0
  6
CONTINUOUS
 62
     7
 10
377.3056457342
 20
-270.3676647668
 30
0.0
 11
376.5556458441
 21
-270.3676647668
 31
0.0
  0
LINE
  5
30C
  8
0
  6
CONTINUOUS
 62
     7
 10
373.9056458637
 20
-261.4676482205
 30
0.0
 11
373.9056458637
 21
-270.3676647668
 31
0.0
  0
LINE
  5
30D
  8
0
  6
CONTINUOUS
 62
     7
 10
376.5556458441
 20
-270.3676647668
 30
0.0
 11
373.9056458637
 21
-270.3676647668
 31
0.0
  0
LINE
  5
30E
  8
0
  6
CONTINUOUS
 62
     7
 10
373.1056458257
 20
-270.3676647668
 30
0.0
 11
369.7056458389
 21
-270.3676647668
 31
0.0
  0
LINE
  5
30F
  8
0
  6
CONTINUOUS
 62
     7
 10
369.7056458389
 20
-261.4676482205
 30
0.0
 11
369.7056458389
 21
-270.3676647668
 31
0.0
  0
LINE
  5
310
  8
0
  6
CONTINUOUS
 62
     7
 10
373.1056458257
 20
-261.4676482205
 30
0.0
 11
373.1056458257
 21
-270.3676647668
 31
0.0
  0
LINE
  5
311
  8
0
  6
CONTINUOUS
 62
     7
 10
378.4556456433
 20
-261.4676482205
 30
0.0
 11
378.205646068
 21
-261.4676482205
 31
0.0
  0
LINE
  5
312
  8
0
  6
CONTINUOUS
 62
     7
 10
369.40564565
 20
-215.7676643853
 30
0.0
 11
377.40564603
 21
-215.7676643853
 31
0.0
  0
LINE
  5
313
  8
0
  6
CONTINUOUS
 62
     7
 10
368.9056460337
 20
-190.7676584248
 30
0.0
 11
377.9056456463
 21
-190.7676584248
 31
0.0
  0
LINE
  5
314
  8
0
  6
CONTINUOUS
 62
     7
 10
373.40564584
 20
-230.7676500802
 30
0.0
 11
369.905645732
 21
-230.7676500802
 31
0.0
  0
LINE
  5
315
  8
0
  6
CONTINUOUS
 62
     7
 10
376.905645948
 20
-230.7676500802
 30
0.0
 11
373.40564584
 21
-230.7676500802
 31
0.0
  0
ARC
  5
316
  8
0
  6
CONTINUOUS
 62
     7
 10
368.30564584
 20
-258.4176516538
 30
0.0
 40
0.3000000000000114
 50
270.0
 51
0.0
  0
ARC
  5
317
  8
0
  6
CONTINUOUS
 62
     7
 10
368.30564584
 20
-260.5176516538
 30
0.0
 40
0.3000000000000114
 50
0.0
 51
90.0
  0
LINE
  5
318
  8
0
  6
CONTINUOUS
 62
     7
 10
368.305645656
 20
-260.2176494126
 30
0.0
 11
365.8056457118
 21
-260.2176494126
 31
0.0
  0
LINE
  5
319
  8
0
  6
CONTINUOUS
 62
     7
 10
365.8056457118
 20
-260.2176494126
 30
0.0
 11
365.8056457118
 21
-254.9676424985
 31
0.0
  0
LINE
  5
31A
  8
0
  6
CONTINUOUS
 62
     7
 10
365.8056457118
 20
-254.9676424985
 30
0.0
 11
365.1056459696
 21
-254.4676489358
 31
0.0
  0
LINE
  5
31B
  8
0
  6
CONTINUOUS
 62
     7
 10
364.8056455479
 20
-254.4676489358
 30
0.0
 11
365.1056459696
 21
-254.4676489358
 31
0.0
  0
LINE
  5
31C
  8
0
  6
CONTINUOUS
 62
     7
 10
364.8056455479
 20
-252.9676384454
 30
0.0
 11
364.8056455479
 21
-254.4676489358
 31
0.0
  0
LINE
  5
31D
  8
0
  6
CONTINUOUS
 62
     7
 10
364.8056455479
 20
-252.9676384454
 30
0.0
 11
366.7193197237
 21
-252.9676384454
 31
0.0
  0
LINE
  5
31E
  8
0
  6
CONTINUOUS
 62
     7
 10
366.7193197237
 20
-252.9676384454
 30
0.0
 11
367.2064070181
 21
-258.5350698953
 31
0.0
  0
ARC
  5
31F
  8
0
  6
CONTINUOUS
 62
     7
 10
367.40564584
 20
-258.5176516538
 30
0.0
 40
0.2000000000000455
 50
185.0000000001
 51
270.0
  0
LINE
  5
320
  8
0
  6
CONTINUOUS
 62
     7
 10
367.4056457878
 20
-258.7176389222
 30
0.0
 11
368.305645656
 21
-258.7176389222
 31
0.0
  0
LINE
  5
321
  8
0
  6
CONTINUOUS
 62
     7
 10
367.1056458318
 20
-264.898879004
 30
0.0
 11
367.1056458318
 21
-260.2176494126
 31
0.0
  0
LINE
  5
322
  8
0
  6
CONTINUOUS
 62
     7
 10
367.1056458318
 20
-264.898879004
 30
0.0
 11
368.605645612
 21
-264.7676593785
 31
0.0
  0
LINE
  5
323
  8
0
  6
CONTINUOUS
 62
     7
 10
368.605645612
 20
-266.2676400666
 30
0.0
 11
368.605645612
 21
-264.7676593785
 31
0.0
  0
LINE
  5
324
  8
0
  6
CONTINUOUS
 62
     7
 10
368.605645612
 20
-266.2676400666
 30
0.0
 11
367.1056458318
 21
-267.767650557
 31
0.0
  0
LINE
  5
325
  8
0
  6
CONTINUOUS
 62
     7
 10
365.8056457118
 20
-267.767650557
 30
0.0
 11
367.1056458318
 21
-267.767650557
 31
0.0
  0
LINE
  5
326
  8
0
  6
CONTINUOUS
 62
     7
 10
365.1056459696
 20
-267.0676536088
 30
0.0
 11
365.8056457118
 21
-267.767650557
 31
0.0
  0
LINE
  5
327
  8
0
  6
CONTINUOUS
 62
     7
 10
365.1056459696
 20
-267.0676536088
 30
0.0
 11
365.1056459696
 21
-254.4676489358
 31
0.0
  0
ARC
  5
328
  8
0
  6
CONTINUOUS
 62
     7
 10
375.90564584
 20
78.6323483462
 30
0.0
 40
59.99999999999999
 50
272.626976855
 51
282.5133253629
  0
LINE
  5
329
  8
0
  6
CONTINUOUS
 62
     7
 10
388.9056455867
 20
20.0576097543
 30
0.0
 11
388.9056455867
 21
29.6323490168
 31
0.0
  0
LINE
  5
32A
  8
0
  6
CONTINUOUS
 62
     7
 10
378.6556457692
 20
16.6323468859
 30
0.0
 11
380.9056456724
 21
16.6323468859
 31
0.0
  0
LINE
  5
32B
  8
0
  6
CONTINUOUS
 62
     7
 10
378.6056458541
 20
-259.8676509385
 30
0.0
 11
379.5056457223
 21
-259.8676509385
 31
0.0
  0
LINE
  5
32C
  8
0
  6
CONTINUOUS
 62
     7
 10
373.9056458637
 20
-264.2676658158
 30
0.0
 11
373.4306458394
 21
-264.2676658158
 31
0.0
  0
LINE
  5
32D
  8
0
  6
CONTINUOUS
 62
     7
 10
373.4306458394
 20
-261.4676482205
 30
0.0
 11
373.4306458394
 21
-264.2676658158
 31
0.0
  0
LINE
  5
32E
  8
0
  6
CONTINUOUS
 62
     7
 10
373.3806458406
 20
-264.2676658158
 30
0.0
 11
373.3806458406
 21
-261.4676482205
 31
0.0
  0
LINE
  5
32F
  8
0
  6
CONTINUOUS
 62
     7
 10
373.1056458257
 20
-264.2676658158
 30
0.0
 11
373.3806458406
 21
-264.2676658158
 31
0.0
  0
LINE
  5
330
  8
0
  6
CONTINUOUS
 62
     7
 10
367.3056459577
 20
-258.6908466344
 30
0.0
 11
367.3056459577
 21
-243.3676547532
 31
0.0
  0
LINE
  5
331
  8
0
  6
CONTINUOUS
 62
     7
 10
379.5056457223
 20
-243.3676547532
 30
0.0
 11
376.6543911827
 21
-243.3676547532
 31
0.0
  0
LINE
  5
332
  8
0
  6
CONTINUOUS
 62
     7
 10
374.5190751563
 20
-243.3676547532
 30
0.0
 11
372.6026797724
 21
-243.3676547532
 31
0.0
  0
LINE
  5
333
  8
0
  6
CONTINUOUS
 62
     7
 10
370.5564069153
 20
-243.3676547532
 30
0.0
 11
367.3056459577
 21
-243.3676547532
 31
0.0
  0
LINE
  5
334
  8
0
  6
CONTINUOUS
 62
     7
 10
379.5056457223
 20
-259.8676509385
 30
0.0
 11
379.5056457223
 21
-243.3676547532
 31
0.0
  0
LINE
  5
335
  8
0
  6
CONTINUOUS
 62
     7
 10
369.4306456075
 20
-241.017652226
 30
0.0
 11
369.4306456075
 21
-243.3676547532
 31
0.0
  0
LINE
  5
336
  8
0
  6
CONTINUOUS
 62
     7
 10
374.4737929722
 20
-241.017652226
 30
0.0
 11
372.7769253367
 21
-241.017652226
 31
0.0
  0
LINE
  5
337
  8
0
  6
CONTINUOUS
 62
     7
 10
370.5776019545
 20
-241.017652226
 30
0.0
 11
369.4306456075
 21
-241.017652226
 31
0.0
  0
LINE
  5
338
  8
0
  6
CONTINUOUS
 62
     7
 10
367.3056459577
 20
-235.3613502507
 30
0.0
 11
367.3056459577
 21
-231.6025621419
 31
0.0
  0
LINE
  5
339
  8
0
  6
CONTINUOUS
 62
     7
 10
379.5056457223
 20
-235.3613502507
 30
0.0
 11
379.5056457223
 21
-231.6025621419
 31
0.0
  0
LINE
  5
33A
  8
0
  6
CONTINUOUS
 62
     7
 10
367.3056459577
 20
-231.6025621419
 30
0.0
 11
367.3056459577
 21
-227.3676521306
 31
0.0
  0
LINE
  5
33B
  8
0
  6
CONTINUOUS
 62
     7
 10
379.5056457223
 20
-231.6025621419
 30
0.0
 11
379.5056457223
 21
-227.3676521306
 31
0.0
  0
LINE
  5
33C
  8
0
  6
CONTINUOUS
 62
     7
 10
367.3056459577
 20
-226.8676585679
 30
0.0
 11
369.905645732
 21
-226.8676585679
 31
0.0
  0
LINE
  5
33D
  8
0
  6
CONTINUOUS
 62
     7
 10
378.9056458102
 20
-226.8676585679
 30
0.0
 11
379.5056457223
 21
-226.8676585679
 31
0.0
  0
LINE
  5
33E
  8
0
  6
CONTINUOUS
 62
     7
 10
367.3056459577
 20
-227.3676521306
 30
0.0
 11
367.3056459577
 21
-226.8676585679
 31
0.0
  0
LINE
  5
33F
  8
0
  6
CONTINUOUS
 62
     7
 10
379.5056457223
 20
-227.3676521306
 30
0.0
 11
379.5056457223
 21
-226.8676585679
 31
0.0
  0
LINE
  5
340
  8
0
  6
CONTINUOUS
 62
     7
 10
370.3806458564
 20
-236.3676554684
 30
0.0
 11
370.3806458564
 21
-236.6676456456
 31
0.0
  0
LINE
  5
341
  8
0
  6
CONTINUOUS
 62
     7
 10
370.3806458564
 20
-236.3676554684
 30
0.0
 11
370.6138485634
 21
-236.3676554684
 31
0.0
  0
LINE
  5
342
  8
0
  6
CONTINUOUS
 62
     7
 10
373.1220172833
 20
-236.3676554684
 30
0.0
 11
374.3806458135
 21
-236.3676554684
 31
0.0
  0
LINE
  5
343
  8
0
  6
CONTINUOUS
 62
     7
 10
374.3806458135
 20
-236.6676456456
 30
0.0
 11
374.3806458135
 21
-236.3676554684
 31
0.0
  0
LINE
  5
344
  8
0
  6
CONTINUOUS
 62
     7
 10
374.3806458135
 20
-237.2176475053
 30
0.0
 11
374.3806458135
 21
-236.6676456456
 31
0.0
  0
LINE
  5
345
  8
0
  6
CONTINUOUS
 62
     7
 10
370.3806458564
 20
-237.2176475053
 30
0.0
 11
370.6074222048
 21
-237.2176475053
 31
0.0
  0
LINE
  5
346
  8
0
  6
CONTINUOUS
 62
     7
 10
373.0589359532
 20
-237.2176475053
 30
0.0
 11
374.3806458135
 21
-237.2176475053
 31
0.0
  0
LINE
  5
347
  8
0
  6
CONTINUOUS
 62
     7
 10
370.3806458564
 20
-236.6676456456
 30
0.0
 11
370.3806458564
 21
-237.2176475053
 31
0.0
  0
LINE
  5
348
  8
0
  6
CONTINUOUS
 62
     7
 10
376.6543672012
 20
-241.3676507001
 30
0.0
 11
379.5056457223
 21
-241.3676507001
 31
0.0
  0
LINE
  5
349
  8
0
  6
CONTINUOUS
 62
     7
 10
379.5056457223
 20
-243.3676547532
 30
0.0
 11
379.5056457223
 21
-241.3676507001
 31
0.0
  0
LINE
  5
34A
  8
0
  6
CONTINUOUS
 62
     7
 10
367.3056459577
 20
-241.3676507001
 30
0.0
 11
369.4306456075
 21
-241.3676507001
 31
0.0
  0
LINE
  5
34B
  8
0
  6
CONTINUOUS
 62
     7
 10
367.3056459577
 20
-243.3676547532
 30
0.0
 11
367.3056459577
 21
-241.3676507001
 31
0.0
  0
LINE
  5
34C
  8
0
  6
CONTINUOUS
 62
     7
 10
374.3806458135
 20
-236.3676554684
 30
0.0
 11
374.3831219674
 21
-236.3676554684
 31
0.0
  0
LINE
  5
34D
  8
0
  6
CONTINUOUS
 62
     7
 10
374.3997337354
 20
-237.2176475053
 30
0.0
 11
374.3806458135
 21
-237.2176475053
 31
0.0
  0
LINE
  5
34E
  8
0
  6
CONTINUOUS
 62
     7
 10
369.4306456075
 20
-236.6676456456
 30
0.0
 11
370.3806458564
 21
-236.6676456456
 31
0.0
  0
LINE
  5
34F
  8
0
  6
CONTINUOUS
 62
     7
 10
370.3806458564
 20
-236.3676554684
 30
0.0
 11
369.4306456075
 21
-236.3676554684
 31
0.0
  0
LINE
  5
350
  8
0
  6
CONTINUOUS
 62
     7
 10
369.4306456075
 20
-236.6676456456
 30
0.0
 11
369.4306456075
 21
-236.3676554684
 31
0.0
  0
LINE
  5
351
  8
0
  6
CONTINUOUS
 62
     7
 10
370.3806458564
 20
-237.2176475053
 30
0.0
 11
369.4306456075
 21
-237.2176475053
 31
0.0
  0
LINE
  5
352
  8
0
  6
CONTINUOUS
 62
     7
 10
369.4306456075
 20
-237.2176475053
 30
0.0
 11
369.4306456075
 21
-236.6676456456
 31
0.0
  0
LINE
  5
353
  8
0
  6
CONTINUOUS
 62
     7
 10
370.3806458564
 20
-237.2176475053
 30
0.0
 11
370.3806458564
 21
-238.0676395421
 31
0.0
  0
LINE
  5
354
  8
0
  6
CONTINUOUS
 62
     7
 10
370.3806458564
 20
-238.0676395421
 30
0.0
 11
370.600996079
 21
-238.0676395421
 31
0.0
  0
LINE
  5
355
  8
0
  6
CONTINUOUS
 62
     7
 10
372.9958546521
 20
-238.0676395421
 30
0.0
 11
374.3806458135
 21
-238.0676395421
 31
0.0
  0
LINE
  5
356
  8
0
  6
CONTINUOUS
 62
     7
 10
374.3806458135
 20
-238.0676395421
 30
0.0
 11
374.3806458135
 21
-237.2176475053
 31
0.0
  0
LINE
  5
357
  8
0
  6
CONTINUOUS
 62
     7
 10
370.3806458564
 20
-240.5176586633
 30
0.0
 11
369.4306456075
 21
-240.5176586633
 31
0.0
  0
LINE
  5
358
  8
0
  6
CONTINUOUS
 62
     7
 10
369.4306456075
 20
-240.5176586633
 30
0.0
 11
369.4306456075
 21
-237.2176475053
 31
0.0
  0
LINE
  5
359
  8
0
  6
CONTINUOUS
 62
     7
 10
374.4641584401
 20
-240.5176586633
 30
0.0
 11
374.3806458135
 21
-240.5176586633
 31
0.0
  0
LINE
  5
35A
  8
0
  6
CONTINUOUS
 62
     7
 10
370.3806458564
 20
-238.0676395421
 30
0.0
 11
370.3806458564
 21
-238.9176613812
 31
0.0
  0
LINE
  5
35B
  8
0
  6
CONTINUOUS
 62
     7
 10
374.3806458135
 20
-238.9176613812
 30
0.0
 11
374.3806458135
 21
-238.0676395421
 31
0.0
  0
LINE
  5
35C
  8
0
  6
CONTINUOUS
 62
     7
 10
374.3806458135
 20
-238.9176613812
 30
0.0
 11
372.932773322
 21
-238.9176613812
 31
0.0
  0
LINE
  5
35D
  8
0
  6
CONTINUOUS
 62
     7
 10
370.5945697204
 20
-238.9176613812
 30
0.0
 11
370.3806458564
 21
-238.9176613812
 31
0.0
  0
LINE
  5
35E
  8
0
  6
CONTINUOUS
 62
     7
 10
374.3806458135
 20
-239.767653418
 30
0.0
 11
374.3806458135
 21
-238.9176613812
 31
0.0
  0
LINE
  5
35F
  8
0
  6
CONTINUOUS
 62
     7
 10
374.3806458135
 20
-239.767653418
 30
0.0
 11
372.8696919918
 21
-239.767653418
 31
0.0
  0
LINE
  5
360
  8
0
  6
CONTINUOUS
 62
     7
 10
370.5881433619
 20
-239.767653418
 30
0.0
 11
370.3806458564
 21
-239.767653418
 31
0.0
  0
LINE
  5
361
  8
0
  6
CONTINUOUS
 62
     7
 10
370.3806458564
 20
-238.9176613812
 30
0.0
 11
370.3806458564
 21
-239.767653418
 31
0.0
  0
LINE
  5
362
  8
0
  6
CONTINUOUS
 62
     7
 10
367.3056459577
 20
-236.2435884003
 30
0.0
 11
370.6147864052
 21
-236.2435884003
 31
0.0
  0
LINE
  5
363
  8
0
  6
CONTINUOUS
 62
     7
 10
373.1312237271
 20
-236.2435884003
 30
0.0
 11
374.3806975602
 21
-236.2435884003
 31
0.0
  0
LINE
  5
364
  8
0
  6
CONTINUOUS
 62
     7
 10
376.6549853665
 20
-236.2435884003
 30
0.0
 11
379.5056457223
 21
-236.2435884003
 31
0.0
  0
LINE
  5
365
  8
0
  6
CONTINUOUS
 62
     7
 10
367.3056459577
 20
-236.2435884003
 30
0.0
 11
367.3056459577
 21
-235.3613502507
 31
0.0
  0
LINE
  5
366
  8
0
  6
CONTINUOUS
 62
     7
 10
379.5056457223
 20
-236.2435884003
 30
0.0
 11
379.5056457223
 21
-235.3613502507
 31
0.0
  0
LINE
  5
367
  8
0
  6
CONTINUOUS
 62
     7
 10
370.3806458564
 20
-239.767653418
 30
0.0
 11
370.3806458564
 21
-240.5176586633
 31
0.0
  0
LINE
  5
368
  8
0
  6
CONTINUOUS
 62
     7
 10
374.3806458135
 20
-240.5176586633
 30
0.0
 11
372.814032022
 21
-240.5176586633
 31
0.0
  0
LINE
  5
369
  8
0
  6
CONTINUOUS
 62
     7
 10
370.5821114184
 20
-240.5176586633
 30
0.0
 11
370.3806458564
 21
-240.5176586633
 31
0.0
  0
LINE
  5
36A
  8
0
  6
CONTINUOUS
 62
     7
 10
374.3806458135
 20
-239.767653418
 30
0.0
 11
374.3806458135
 21
-240.5176586633
 31
0.0
  0
LINE
  5
36B
  8
0
  6
CONTINUOUS
 62
     7
 10
369.4306456075
 20
-241.017652226
 30
0.0
 11
369.4306456075
 21
-240.5176586633
 31
0.0
  0
LINE
  5
36C
  8
0
  6
CONTINUOUS
 62
     7
 10
367.3056459577
 20
-241.3676507001
 30
0.0
 11
367.3056459577
 21
-236.2435884003
 31
0.0
  0
LINE
  5
36D
  8
0
  6
CONTINUOUS
 62
     7
 10
379.5056457223
 20
-241.3676507001
 30
0.0
 11
379.5056457223
 21
-236.2435884003
 31
0.0
  0
LINE
  5
36E
  8
0
  6
CONTINUOUS
 62
     7
 10
373.9056458637
 20
-270.3676647668
 30
0.0
 11
373.1056458257
 21
-270.3676647668
 31
0.0
  0
LINE
  5
36F
  8
0
  6
CONTINUOUS
 62
     8
 10
377.9056456463
 20
-215.2676410203
 30
0.0
 11
379.9056459741
 21
-215.2676410203
 31
0.0
  0
LINE
  5
370
  8
0
  6
CONTINUOUS
 62
     8
 10
377.572312724
 20
-215.7390541558
 30
0.0
 11
379.5723125861
 21
-215.7390541558
 31
0.0
  0
LINE
  5
371
  8
0
  6
CONTINUOUS
 62
     8
 10
378.9056458102
 20
-216.6818506245
 30
0.0
 11
376.905645948
 21
-216.6818506245
 31
0.0
  0
LINE
  5
372
  8
0
  6
CONTINUOUS
 62
     8
 10
356.2056452559
 20
28.3323474999
 30
0.0
 11
356.2056452559
 21
22.5405716176
 31
0.0
  0
LINE
  5
373
  8
0
  6
CONTINUOUS
 62
     8
 10
356.2056452559
 20
22.1870192166
 30
0.0
 11
356.2056452559
 21
21.3323482151
 31
0.0
  0
LINE
  5
374
  8
0
  6
CONTINUOUS
 62
     8
 10
368.9056460337
 20
-215.2676410203
 30
0.0
 11
377.9056456463
 21
-215.2676410203
 31
0.0
  0
LINE
  5
375
  8
0
  6
CONTINUOUS
 62
     8
 10
376.905645948
 20
-216.267657948
 30
0.0
 11
369.905645732
 21
-216.267657948
 31
0.0
  0
LINE
  5
376
  8
0
  6
CONTINUOUS
 62
     8
 10
379.5056457223
 20
-231.6025621419
 30
0.0
 11
376.6555450914
 21
-231.6025621419
 31
0.0
  0
LINE
  5
377
  8
0
  6
CONTINUOUS
 62
     8
 10
374.2899964621
 20
-231.6025621419
 30
0.0
 11
373.4756512843
 21
-231.6025621419
 31
0.0
  0
LINE
  5
378
  8
0
  6
CONTINUOUS
 62
     8
 10
370.6498744489
 20
-231.6025621419
 30
0.0
 11
367.3056459577
 21
-231.6025621419
 31
0.0
  0
LINE
  5
379
  8
0
  6
CONTINUOUS
 62
     8
 10
367.3056459577
 20
-235.3613502507
 30
0.0
 11
370.6214565375
 21
-235.3613502507
 31
0.0
  0
LINE
  5
37A
  8
0
  6
CONTINUOUS
 62
     8
 10
373.1966986
 20
-235.3613502507
 30
0.0
 11
374.3634555197
 21
-235.3613502507
 31
0.0
  0
LINE
  5
37B
  8
0
  6
CONTINUOUS
 62
     8
 10
376.6550917701
 20
-235.3613502507
 30
0.0
 11
379.5056457223
 21
-235.3613502507
 31
0.0
  0
LINE
  5
37C
  8
0
  6
CONTINUOUS
 62
     8
 10
379.5056457223
 20
-227.3676521306
 30
0.0
 11
378.9056458102
 21
-227.3676521306
 31
0.0
  0
LINE
  5
37D
  8
0
  6
CONTINUOUS
 62
     8
 10
369.905645732
 20
-227.3676521306
 30
0.0
 11
367.3056459577
 21
-227.3676521306
 31
0.0
  0
LINE
  5
37E
  8
0
  6
CONTINUOUS
 62
     8
 10
370.3806458564
 20
-236.6676456456
 30
0.0
 11
370.6115805601
 21
-236.6676456456
 31
0.0
  0
LINE
  5
37F
  8
0
  6
CONTINUOUS
 62
     8
 10
373.0997532896
 20
-236.6676456456
 30
0.0
 11
374.3806458135
 21
-236.6676456456
 31
0.0
  0
LINE
  5
380
  8
0
  6
CONTINUOUS
 62
     8
 10
374.3806458135
 20
-236.6676456456
 30
0.0
 11
374.3889849923
 21
-236.6676456456
 31
0.0
  0
LINE
  5
381
  8
0
  6
CONTINUOUS
 62
     7
 10
300.4122093791
 20
163.9073246267
 30
0.0
 11
298.4122092841
 21
163.9073246267
 31
0.0
  0
LINE
  5
382
  8
0
  6
CONTINUOUS
 62
     7
 10
298.4122092841
 20
127.9073261764
 30
0.0
 11
300.4122093791
 21
127.9073261764
 31
0.0
  0
LINE
  5
383
  8
0
  6
CONTINUOUS
 62
     7
 10
322.4122094927
 20
150.9073252898
 30
0.0
 11
300.4122093791
 21
150.9073252898
 31
0.0
  0
LINE
  5
384
  8
0
  6
CONTINUOUS
 62
     7
 10
300.4122093791
 20
140.9073255133
 30
0.0
 11
322.4122094927
 21
140.9073255133
 31
0.0
  0
ARC
  5
385
  8
0
  6
CONTINUOUS
 62
     7
 10
303.7091426368
 20
145.9073254016
 30
0.0
 40
150.0
 50
190.8936827814
 51
191.5369590328
  0
ARC
  5
386
  8
0
  6
CONTINUOUS
 62
     7
 10
303.7091426368
 20
145.9073254016
 30
0.0
 40
150.0
 50
168.4630409672
 51
169.1063172186
  0
LINE
  5
387
  8
0
  6
CONTINUOUS
 62
     7
 10
156.4122046349
 20
174.2554024902
 30
0.0
 11
154.9122090457
 21
171.6573254314
 31
0.0
  0
LINE
  5
388
  8
0
  6
CONTINUOUS
 62
     7
 10
154.9122090457
 20
120.1573253718
 30
0.0
 11
156.4122046349
 21
117.559248313
 31
0.0
  0
LINE
  5
389
  8
0
  6
CONTINUOUS
 62
     7
 10
298.4122092841
 20
170.6073262837
 30
0.0
 11
291.412209068
 21
170.6073262837
 31
0.0
  0
LINE
  5
38A
  8
0
  6
CONTINUOUS
 62
     7
 10
291.412209068
 20
175.907324731
 30
0.0
 11
298.4122092841
 21
175.907324731
 31
0.0
  0
LINE
  5
38B
  8
0
  6
CONTINUOUS
 62
     7
 10
291.412209068
 20
170.6073262837
 30
0.0
 11
291.412209068
 21
175.907324731
 31
0.0
  0
LINE
  5
38C
  8
0
  6
CONTINUOUS
 62
     7
 10
298.4122092841
 20
175.907324731
 30
0.0
 11
298.4122092841
 21
170.6073262837
 31
0.0
  0
LINE
  5
38D
  8
0
  6
CONTINUOUS
 62
     7
 10
291.412209068
 20
121.2073245194
 30
0.0
 11
298.4122092841
 21
121.2073245194
 31
0.0
  0
LINE
  5
38E
  8
0
  6
CONTINUOUS
 62
     7
 10
291.412209068
 20
131.9073249694
 30
0.0
 11
291.412209068
 21
121.2073245194
 31
0.0
  0
LINE
  5
38F
  8
0
  6
CONTINUOUS
 62
     7
 10
291.412209068
 20
131.9073249694
 30
0.0
 11
287.9122094256
 21
131.9073249694
 31
0.0
  0
LINE
  5
390
  8
0
  6
CONTINUOUS
 62
     7
 10
291.412209068
 20
159.9073258337
 30
0.0
 11
287.9122094256
 21
159.9073258337
 31
0.0
  0
LINE
  5
391
  8
0
  6
CONTINUOUS
 62
     7
 10
287.9122094256
 20
131.9073249694
 30
0.0
 11
287.9122094256
 21
159.9073258337
 31
0.0
  0
LINE
  5
392
  8
0
  6
CONTINUOUS
 62
     7
 10
291.412209068
 20
159.9073258337
 30
0.0
 11
291.412209068
 21
170.6073262837
 31
0.0
  0
LINE
  5
393
  8
0
  6
CONTINUOUS
 62
     7
 10
298.4122092841
 20
121.2073245194
 30
0.0
 11
298.4122092841
 21
170.6073262837
 31
0.0
  0
LINE
  5
394
  8
0
  6
CONTINUOUS
 62
     7
 10
291.412209068
 20
166.1073246148
 30
0.0
 11
287.9122094256
 21
166.1073246148
 31
0.0
  0
LINE
  5
395
  8
0
  6
CONTINUOUS
 62
     7
 10
287.9122094256
 20
166.1073246148
 30
0.0
 11
287.9122094256
 21
159.9073258337
 31
0.0
  0
LINE
  5
396
  8
0
  6
CONTINUOUS
 62
     7
 10
291.412209068
 20
125.7073261884
 30
0.0
 11
287.9122094256
 21
125.7073261884
 31
0.0
  0
LINE
  5
397
  8
0
  6
CONTINUOUS
 62
     7
 10
287.9122094256
 20
125.7073261884
 30
0.0
 11
287.9122094256
 21
131.9073249694
 31
0.0
  0
LINE
  5
398
  8
0
  6
CONTINUOUS
 62
     7
 10
298.4122092841
 20
115.9073260721
 30
0.0
 11
291.412209068
 21
115.9073260721
 31
0.0
  0
LINE
  5
399
  8
0
  6
CONTINUOUS
 62
     7
 10
291.412209068
 20
115.9073260721
 30
0.0
 11
291.412209068
 21
121.2073245194
 31
0.0
  0
LINE
  5
39A
  8
0
  6
CONTINUOUS
 62
     7
 10
298.4122092841
 20
121.2073245194
 30
0.0
 11
298.4122092841
 21
115.9073260721
 31
0.0
  0
LINE
  5
39B
  8
0
  6
CONTINUOUS
 62
     7
 10
291.412209068
 20
170.9073257741
 30
0.0
 11
287.9122094256
 21
170.9073257741
 31
0.0
  0
LINE
  5
39C
  8
0
  6
CONTINUOUS
 62
     7
 10
287.9122094256
 20
170.9073257741
 30
0.0
 11
287.9122094256
 21
166.1073246148
 31
0.0
  0
LINE
  5
39D
  8
0
  6
CONTINUOUS
 62
     7
 10
291.412209068
 20
120.907325029
 30
0.0
 11
287.9122094256
 21
120.907325029
 31
0.0
  0
LINE
  5
39E
  8
0
  6
CONTINUOUS
 62
     7
 10
287.9122094256
 20
120.907325029
 30
0.0
 11
287.9122094256
 21
125.7073261884
 31
0.0
  0
LINE
  5
39F
  8
0
  6
CONTINUOUS
 62
     7
 10
291.412209068
 20
174.9253419336
 30
0.0
 11
287.9122094256
 21
174.9253419336
 31
0.0
  0
LINE
  5
3A0
  8
0
  6
CONTINUOUS
 62
     7
 10
291.412209068
 20
175.907324731
 30
0.0
 11
287.9122094256
 21
175.907324731
 31
0.0
  0
LINE
  5
3A1
  8
0
  6
CONTINUOUS
 62
     7
 10
287.9122094256
 20
175.907324731
 30
0.0
 11
287.9122094256
 21
174.9253419336
 31
0.0
  0
LINE
  5
3A2
  8
0
  6
CONTINUOUS
 62
     7
 10
287.9122094256
 20
174.9253419336
 30
0.0
 11
287.9122094256
 21
170.9073257741
 31
0.0
  0
LINE
  5
3A3
  8
0
  6
CONTINUOUS
 62
     7
 10
291.412209068
 20
116.8893088695
 30
0.0
 11
287.9122094256
 21
116.8893088695
 31
0.0
  0
LINE
  5
3A4
  8
0
  6
CONTINUOUS
 62
     7
 10
287.9122094256
 20
116.8893088695
 30
0.0
 11
287.9122094256
 21
120.907325029
 31
0.0
  0
LINE
  5
3A5
  8
0
  6
CONTINUOUS
 62
     7
 10
291.412209068
 20
115.9073260721
 30
0.0
 11
287.9122094256
 21
115.9073260721
 31
0.0
  0
LINE
  5
3A6
  8
0
  6
CONTINUOUS
 62
     7
 10
287.9122094256
 20
115.9073260721
 30
0.0
 11
287.9122094256
 21
116.8893088695
 31
0.0
  0
LINE
  5
3A7
  8
0
  6
CONTINUOUS
 62
     7
 10
300.4122093791
 20
163.9073246267
 30
0.0
 11
300.4122093791
 21
127.9073261764
 31
0.0
  0
LINE
  5
3A8
  8
0
  6
CONTINUOUS
 62
     7
 10
322.4122094927
 20
150.9073252898
 30
0.0
 11
322.4122094927
 21
140.9073255133
 31
0.0
  0
LINE
  5
3A9
  8
0
  6
CONTINUOUS
 62
     7
 10
287.9122094256
 20
159.9073258337
 30
0.0
 11
234.2122103093
 21
159.9073258337
 31
0.0
  0
LINE
  5
3AA
  8
0
  6
CONTINUOUS
 62
     7
 10
287.9122094256
 20
166.1073246148
 30
0.0
 11
234.2122103093
 21
166.1073246148
 31
0.0
  0
LINE
  5
3AB
  8
0
  6
CONTINUOUS
 62
     7
 10
234.2122103093
 20
159.9073258337
 30
0.0
 11
234.2122103093
 21
166.1073246148
 31
0.0
  0
LINE
  5
3AC
  8
0
  6
CONTINUOUS
 62
     7
 10
287.9122094256
 20
131.9073249694
 30
0.0
 11
234.2122103093
 21
131.9073249694
 31
0.0
  0
LINE
  5
3AD
  8
0
  6
CONTINUOUS
 62
     7
 10
234.2122103093
 20
131.9073249694
 30
0.0
 11
234.2122103093
 21
159.9073258337
 31
0.0
  0
LINE
  5
3AE
  8
0
  6
CONTINUOUS
 62
     7
 10
287.9122094256
 20
125.7073261884
 30
0.0
 11
234.2122103093
 21
125.7073261884
 31
0.0
  0
LINE
  5
3AF
  8
0
  6
CONTINUOUS
 62
     7
 10
234.2122103093
 20
131.9073249694
 30
0.0
 11
234.2122103093
 21
125.7073261884
 31
0.0
  0
LINE
  5
3B0
  8
0
  6
CONTINUOUS
 62
     7
 10
287.9122094256
 20
170.9073257741
 30
0.0
 11
234.2122103093
 21
170.9073257741
 31
0.0
  0
LINE
  5
3B1
  8
0
  6
CONTINUOUS
 62
     7
 10
234.2122103093
 20
166.1073246148
 30
0.0
 11
234.2122103093
 21
170.9073257741
 31
0.0
  0
LINE
  5
3B2
  8
0
  6
CONTINUOUS
 62
     7
 10
287.9122094256
 20
120.907325029
 30
0.0
 11
234.2122103093
 21
120.907325029
 31
0.0
  0
LINE
  5
3B3
  8
0
  6
CONTINUOUS
 62
     7
 10
234.2122103093
 20
125.7073261884
 30
0.0
 11
234.2122103093
 21
120.907325029
 31
0.0
  0
LINE
  5
3B4
  8
0
  6
CONTINUOUS
 62
     7
 10
287.9122094256
 20
174.9253419336
 30
0.0
 11
234.2122103093
 21
174.9253419336
 31
0.0
  0
LINE
  5
3B5
  8
0
  6
CONTINUOUS
 62
     7
 10
234.2122103093
 20
175.907324731
 30
0.0
 11
287.9122094256
 21
175.907324731
 31
0.0
  0
LINE
  5
3B6
  8
0
  6
CONTINUOUS
 62
     7
 10
234.2122103093
 20
174.9253419336
 30
0.0
 11
234.2122103093
 21
175.907324731
 31
0.0
  0
LINE
  5
3B7
  8
0
  6
CONTINUOUS
 62
     7
 10
234.2122103093
 20
170.9073257741
 30
0.0
 11
234.2122103093
 21
174.9253419336
 31
0.0
  0
LINE
  5
3B8
  8
0
  6
CONTINUOUS
 62
     7
 10
287.9122094256
 20
116.8893088695
 30
0.0
 11
234.2122103093
 21
116.8893088695
 31
0.0
  0
LINE
  5
3B9
  8
0
  6
CONTINUOUS
 62
     7
 10
234.2122103093
 20
120.907325029
 30
0.0
 11
234.2122103093
 21
116.8893088695
 31
0.0
  0
LINE
  5
3BA
  8
0
  6
CONTINUOUS
 62
     7
 10
234.2122103093
 20
115.9073260721
 30
0.0
 11
287.9122094256
 21
115.9073260721
 31
0.0
  0
LINE
  5
3BB
  8
0
  6
CONTINUOUS
 62
     7
 10
234.2122103093
 20
116.8893088695
 30
0.0
 11
234.2122103093
 21
115.9073260721
 31
0.0
  0
LINE
  5
3BC
  8
0
  6
CONTINUOUS
 62
     7
 10
214.7122080443
 20
166.1073246148
 30
0.0
 11
218.2122076867
 21
166.1073246148
 31
0.0
  0
LINE
  5
3BD
  8
0
  6
CONTINUOUS
 62
     7
 10
218.2122076867
 20
166.1073246148
 30
0.0
 11
234.2122103093
 21
159.9073258337
 31
0.0
  0
LINE
  5
3BE
  8
0
  6
CONTINUOUS
 62
     7
 10
218.2122076867
 20
125.7073261884
 30
0.0
 11
234.2122103093
 21
131.9073249694
 31
0.0
  0
LINE
  5
3BF
  8
0
  6
CONTINUOUS
 62
     7
 10
214.7122080443
 20
125.7073261884
 30
0.0
 11
218.2122076867
 21
125.7073261884
 31
0.0
  0
LINE
  5
3C0
  8
0
  6
CONTINUOUS
 62
     7
 10
214.7122080443
 20
125.7073261884
 30
0.0
 11
214.7122080443
 21
166.1073246148
 31
0.0
  0
LINE
  5
3C1
  8
0
  6
CONTINUOUS
 62
     7
 10
218.2122076867
 20
166.1073246148
 30
0.0
 11
234.2122103093
 21
166.1073246148
 31
0.0
  0
LINE
  5
3C2
  8
0
  6
CONTINUOUS
 62
     7
 10
218.2122076867
 20
125.7073261884
 30
0.0
 11
234.2122103093
 21
125.7073261884
 31
0.0
  0
LINE
  5
3C3
  8
0
  6
CONTINUOUS
 62
     7
 10
214.7122080443
 20
170.9073257741
 30
0.0
 11
234.2122103093
 21
170.9073257741
 31
0.0
  0
LINE
  5
3C4
  8
0
  6
CONTINUOUS
 62
     7
 10
214.7122080443
 20
166.1073246148
 30
0.0
 11
214.7122080443
 21
170.9073257741
 31
0.0
  0
LINE
  5
3C5
  8
0
  6
CONTINUOUS
 62
     7
 10
214.7122080443
 20
120.907325029
 30
0.0
 11
234.2122103093
 21
120.907325029
 31
0.0
  0
LINE
  5
3C6
  8
0
  6
CONTINUOUS
 62
     7
 10
214.7122080443
 20
125.7073261884
 30
0.0
 11
214.7122080443
 21
120.907325029
 31
0.0
  0
LINE
  5
3C7
  8
0
  6
CONTINUOUS
 62
     7
 10
234.2122103093
 20
174.9253419336
 30
0.0
 11
218.2122076867
 21
175.907324731
 31
0.0
  0
LINE
  5
3C8
  8
0
  6
CONTINUOUS
 62
     7
 10
218.2122076867
 20
175.907324731
 30
0.0
 11
234.2122103093
 21
175.907324731
 31
0.0
  0
LINE
  5
3C9
  8
0
  6
CONTINUOUS
 62
     7
 10
218.2122076867
 20
175.907324731
 30
0.0
 11
214.7122080443
 21
175.907324731
 31
0.0
  0
LINE
  5
3CA
  8
0
  6
CONTINUOUS
 62
     7
 10
214.7122080443
 20
170.9073257741
 30
0.0
 11
214.7122080443
 21
175.907324731
 31
0.0
  0
LINE
  5
3CB
  8
0
  6
CONTINUOUS
 62
     7
 10
234.2122103093
 20
116.8893088695
 30
0.0
 11
218.2122076867
 21
115.9073260721
 31
0.0
  0
LINE
  5
3CC
  8
0
  6
CONTINUOUS
 62
     7
 10
218.2122076867
 20
115.9073260721
 30
0.0
 11
214.7122080443
 21
115.9073260721
 31
0.0
  0
LINE
  5
3CD
  8
0
  6
CONTINUOUS
 62
     7
 10
214.7122080443
 20
120.907325029
 30
0.0
 11
214.7122080443
 21
115.9073260721
 31
0.0
  0
LINE
  5
3CE
  8
0
  6
CONTINUOUS
 62
     7
 10
218.2122076867
 20
115.9073260721
 30
0.0
 11
234.2122103093
 21
115.9073260721
 31
0.0
  0
LINE
  5
3CF
  8
0
  6
CONTINUOUS
 62
     7
 10
168.7122042296
 20
125.7073261884
 30
0.0
 11
214.7122080443
 21
125.7073261884
 31
0.0
  0
LINE
  5
3D0
  8
0
  6
CONTINUOUS
 62
     7
 10
168.7122042296
 20
166.1073246148
 30
0.0
 11
214.7122080443
 21
166.1073246148
 31
0.0
  0
LINE
  5
3D1
  8
0
  6
CONTINUOUS
 62
     7
 10
168.7122042296
 20
125.7073261884
 30
0.0
 11
168.7122042296
 21
166.1073246148
 31
0.0
  0
LINE
  5
3D2
  8
0
  6
CONTINUOUS
 62
     7
 10
168.7122042296
 20
170.9073257741
 30
0.0
 11
214.7122080443
 21
170.9073257741
 31
0.0
  0
LINE
  5
3D3
  8
0
  6
CONTINUOUS
 62
     7
 10
168.7122042296
 20
166.1073246148
 30
0.0
 11
168.7122042296
 21
170.9073257741
 31
0.0
  0
LINE
  5
3D4
  8
0
  6
CONTINUOUS
 62
     7
 10
168.7122042296
 20
120.907325029
 30
0.0
 11
214.7122080443
 21
120.907325029
 31
0.0
  0
LINE
  5
3D5
  8
0
  6
CONTINUOUS
 62
     7
 10
168.7122042296
 20
125.7073261884
 30
0.0
 11
168.7122042296
 21
120.907325029
 31
0.0
  0
LINE
  5
3D6
  8
0
  6
CONTINUOUS
 62
     7
 10
168.7122042296
 20
175.907324731
 30
0.0
 11
214.7122080443
 21
175.907324731
 31
0.0
  0
LINE
  5
3D7
  8
0
  6
CONTINUOUS
 62
     7
 10
168.7122042296
 20
170.9073257741
 30
0.0
 11
168.7122042296
 21
175.907324731
 31
0.0
  0
LINE
  5
3D8
  8
0
  6
CONTINUOUS
 62
     7
 10
168.7122042296
 20
115.9073260721
 30
0.0
 11
214.7122080443
 21
115.9073260721
 31
0.0
  0
LINE
  5
3D9
  8
0
  6
CONTINUOUS
 62
     7
 10
168.7122042296
 20
120.907325029
 30
0.0
 11
168.7122042296
 21
115.9073260721
 31
0.0
  0
LINE
  5
3DA
  8
0
  6
CONTINUOUS
 62
     7
 10
156.4122046349
 20
174.2554024902
 30
0.0
 11
156.4122046349
 21
117.559248313
 31
0.0
  0
LINE
  5
3DB
  8
0
  6
CONTINUOUS
 62
     7
 10
158.1345553515
 20
175.907324731
 30
0.0
 11
156.7397619603
 21
175.907324731
 31
0.0
  0
ARC
  5
3DC
  8
0
  6
CONTINUOUS
 62
     7
 10
303.7091426368
 20
145.9073254016
 30
0.0
 40
148.6336435669932
 50
168.3555065844
 51
170.316890223
  0
POLYLINE
  5
3DD
  8
0
  6
CONTINUOUS
 62
     7
 66
     1
 10
0.0
 20
0.0
 30
0.0
 70
   128
  0
VERTEX
  5
801
  8
0
  6
CONTINUOUS
 62
     7
 10
157.193070185
 20
166.1073246148
 30
0.0
  0
VERTEX
  5
802
  8
0
  6
CONTINUOUS
 62
     7
 10
156.9709236739
 20
166.3697247502
 30
0.0
  0
VERTEX
  5
803
  8
0
  6
CONTINUOUS
 62
     7
 10
156.8622793076
 20
167.1364509609
 30
0.0
  0
VERTEX
  5
804
  8
0
  6
CONTINUOUS
 62
     7
 10
156.8801308987
 20
168.3042419251
 30
0.0
  0
VERTEX
  5
805
  8
0
  6
CONTINUOUS
 62
     7
 10
157.0181901572
 20
169.7369028923
 30
0.0
  0
VERTEX
  5
806
  8
0
  6
CONTINUOUS
 62
     7
 10
157.193070185
 20
170.9073257741
 30
0.0
  0
SEQEND
  5
8A0
  8
0
  6
CONTINUOUS
 62
     7
  0
LINE
  5
3DE
  8
0
  6
CONTINUOUS
 62
     7
 10
158.1345553515
 20
166.1073246148
 30
0.0
 11
157.193070185
 21
166.1073246148
 31
0.0
  0
ARC
  5
3DF
  8
0
  6
CONTINUOUS
 62
     7
 10
303.7091426368
 20
145.9073254016
 30
0.0
 40
146.9693845669907
 50
172.1000552368
 51
187.8999447632
  0
LINE
  5
3E0
  8
0
  6
CONTINUOUS
 62
     7
 10
157.193070185
 20
125.7073261884
 30
0.0
 11
158.1345553515
 21
125.7073261884
 31
0.0
  0
POLYLINE
  5
3E1
  8
0
  6
CONTINUOUS
 62
     7
 66
     1
 10
0.0
 20
0.0
 30
0.0
 70
   128
  0
VERTEX
  5
807
  8
0
  6
CONTINUOUS
 62
     7
 10
157.193070185
 20
120.907325029
 30
0.0
  0
VERTEX
  5
808
  8
0
  6
CONTINUOUS
 62
     7
 10
156.9709236739
 20
122.4726324078
 30
0.0
  0
VERTEX
  5
809
  8
0
  6
CONTINUOUS
 62
     7
 10
156.8622793076
 20
123.8772587028
 30
0.0
  0
VERTEX
  5
80A
  8
0
  6
CONTINUOUS
 62
     7
 10
156.8801308987
 20
124.9401846078
 30
0.0
  0
VERTEX
  5
80B
  8
0
  6
CONTINUOUS
 62
     7
 10
157.0181901572
 20
125.5624421981
 30
0.0
  0
VERTEX
  5
80C
  8
0
  6
CONTINUOUS
 62
     7
 10
157.193070185
 20
125.7073261884
 30
0.0
  0
SEQEND
  5
8A1
  8
0
  6
CONTINUOUS
 62
     7
  0
ARC
  5
3E2
  8
0
  6
CONTINUOUS
 62
     7
 10
303.7091426368
 20
145.9073254016
 30
0.0
 40
148.6336435669932
 50
189.683109777
 51
191.6444934156
  0
LINE
  5
3E3
  8
0
  6
CONTINUOUS
 62
     7
 10
158.1345553515
 20
115.9073260721
 30
0.0
 11
156.7397619603
 21
115.9073260721
 31
0.0
  0
LINE
  5
3E4
  8
0
  6
CONTINUOUS
 62
     7
 10
158.1345553515
 20
125.7073261884
 30
0.0
 11
168.7122042296
 21
125.7073261884
 31
0.0
  0
LINE
  5
3E5
  8
0
  6
CONTINUOUS
 62
     7
 10
158.1345553515
 20
166.1073246148
 30
0.0
 11
168.7122042296
 21
166.1073246148
 31
0.0
  0
LINE
  5
3E6
  8
0
  6
CONTINUOUS
 62
     7
 10
154.9122090457
 20
171.6573254314
 30
0.0
 11
154.9122090457
 21
120.1573253718
 31
0.0
  0
LINE
  5
3E7
  8
0
  6
CONTINUOUS
 62
     7
 10
157.193070185
 20
170.9073257741
 30
0.0
 11
168.7122042296
 21
170.9073257741
 31
0.0
  0
LINE
  5
3E8
  8
0
  6
CONTINUOUS
 62
     7
 10
157.193070185
 20
120.907325029
 30
0.0
 11
168.7122042296
 21
120.907325029
 31
0.0
  0
LINE
  5
3E9
  8
0
  6
CONTINUOUS
 62
     7
 10
158.1345553515
 20
175.907324731
 30
0.0
 11
168.7122042296
 21
175.907324731
 31
0.0
  0
LINE
  5
3EA
  8
0
  6
CONTINUOUS
 62
     7
 10
158.1345553515
 20
115.9073260721
 30
0.0
 11
168.7122042296
 21
115.9073260721
 31
0.0
  0
LINE
  5
3EB
  8
0
  6
CONTINUOUS
 62
     7
 10
152.7122165082
 20
152.0073252839
 30
0.0
 11
152.2122080443
 21
152.0073252839
 31
0.0
  0
LINE
  5
3EC
  8
0
  6
CONTINUOUS
 62
     7
 10
152.7122165082
 20
152.0073252839
 30
0.0
 11
152.7122165082
 21
139.8073255193
 31
0.0
  0
LINE
  5
3ED
  8
0
  6
CONTINUOUS
 62
     7
 10
152.7122165082
 20
139.8073255193
 30
0.0
 11
152.2122080443
 21
139.8073255193
 31
0.0
  0
LINE
  5
3EE
  8
0
  6
CONTINUOUS
 62
     7
 10
152.2122080443
 20
139.8073255193
 30
0.0
 11
152.2122080443
 21
152.0073252839
 31
0.0
  0
LINE
  5
3EF
  8
0
  6
CONTINUOUS
 62
     7
 10
154.9122090457
 20
152.0073252839
 30
0.0
 11
152.7122165082
 21
152.0073252839
 31
0.0
  0
LINE
  5
3F0
  8
0
  6
CONTINUOUS
 62
     7
 10
154.9122090457
 20
139.8073255193
 30
0.0
 11
152.7122165082
 21
139.8073255193
 31
0.0
  0
LINE
  5
3F1
  8
0
  6
CONTINUOUS
 62
     7
 10
152.0707811234
 20
141.9323251691
 30
0.0
 11
152.0707811234
 21
147.9323254541
 31
0.0
  0
LINE
  5
3F2
  8
0
  6
CONTINUOUS
 62
     7
 10
152.2122080443
 20
147.9323254541
 30
0.0
 11
152.0707811234
 21
147.9323254541
 31
0.0
  0
LINE
  5
3F3
  8
0
  6
CONTINUOUS
 62
     7
 10
152.0707811234
 20
141.9323251691
 30
0.0
 11
152.2122080443
 21
141.9323251691
 31
0.0
  0
LINE
  5
3F4
  8
0
  6
CONTINUOUS
 62
     7
 10
152.0122046588
 20
139.8073255193
 30
0.0
 11
152.0122046588
 21
152.0073252839
 31
0.0
  0
LINE
  5
3F5
  8
0
  6
CONTINUOUS
 62
     7
 10
152.2122080443
 20
152.0073252839
 30
0.0
 11
152.0122046588
 21
152.0073252839
 31
0.0
  0
LINE
  5
3F6
  8
0
  6
CONTINUOUS
 62
     7
 10
152.2122080443
 20
139.8073255193
 30
0.0
 11
152.0122046588
 21
139.8073255193
 31
0.0
  0
LINE
  5
3F7
  8
0
  6
CONTINUOUS
 62
     7
 10
300.4122093791
 20
243.9916909295
 30
0.0
 11
298.4122092841
 21
243.9916909295
 31
0.0
  0
LINE
  5
3F8
  8
0
  6
CONTINUOUS
 62
     7
 10
298.4122092841
 20
207.9916924792
 30
0.0
 11
300.4122093791
 21
207.9916924792
 31
0.0
  0
LINE
  5
3F9
  8
0
  6
CONTINUOUS
 62
     7
 10
322.4122094927
 20
230.9916915926
 30
0.0
 11
300.4122093791
 21
230.9916915926
 31
0.0
  0
LINE
  5
3FA
  8
0
  6
CONTINUOUS
 62
     7
 10
300.4122093791
 20
220.9916918161
 30
0.0
 11
322.4122094927
 21
220.9916918161
 31
0.0
  0
LINE
  5
3FB
  8
0
  6
CONTINUOUS
 62
     7
 10
229.1122059343
 20
268.9916931647
 30
0.0
 11
229.1122059343
 21
476.3916984754
 31
0.0
  0
LINE
  5
3FC
  8
0
  6
CONTINUOUS
 62
     7
 10
221.1122120736
 20
476.3916984754
 30
0.0
 11
221.1122120736
 21
268.9916931647
 31
0.0
  0
ARC
  5
3FD
  8
0
  6
CONTINUOUS
 62
     7
 10
198.4122092841
 20
500.8916917044
 30
0.0
 40
0.5000000000000624
 50
109.4712206345
 51
180.0
  0
ARC
  5
3FE
  8
0
  6
CONTINUOUS
 62
     7
 10
205.4122092841
 20
500.8916917044
 30
0.0
 40
0.5000000000000814
 50
0.0
 51
70.5287793655
  0
LINE
  5
3FF
  8
0
  6
CONTINUOUS
 62
     7
 10
205.912208092
 20
476.3916984754
 30
0.0
 11
205.912208092
 21
500.8916810709
 31
0.0
  0
LINE
  5
400
  8
0
  6
CONTINUOUS
 62
     7
 10
197.9122067807
 20
500.8916810709
 30
0.0
 11
197.9122067807
 21
476.3916984754
 31
0.0
  0
ARC
  5
401
  8
0
  6
CONTINUOUS
 62
     7
 10
197.9122092841
 20
502.3059052667
 30
0.0
 40
1.0
 50
289.4712206345
 51
0.0
  0
ARC
  5
402
  8
0
  6
CONTINUOUS
 62
     7
 10
205.9122092841
 20
502.3059052667
 30
0.0
 40
1.000000000000028
 50
180.0
 51
250.5287793655
  0
LINE
  5
403
  8
0
  6
CONTINUOUS
 62
     7
 10
204.9122060654
 20
502.3058906752
 30
0.0
 11
204.9122060654
 21
516.3916901308
 31
0.0
  0
LINE
  5
404
  8
0
  6
CONTINUOUS
 62
     7
 10
198.9122088072
 20
516.3916901308
 30
0.0
 11
198.9122088072
 21
502.3058906752
 31
0.0
  0
LINE
  5
405
  8
0
  6
CONTINUOUS
 62
     7
 10
204.9122060654
 20
268.9916931647
 30
0.0
 11
204.9122060654
 21
476.3916984754
 31
0.0
  0
LINE
  5
406
  8
0
  6
CONTINUOUS
 62
     7
 10
198.9122088072
 20
476.3916984754
 30
0.0
 11
198.9122088072
 21
268.9916931647
 31
0.0
  0
POLYLINE
  5
407
  8
0
  6
CONTINUOUS
 62
     7
 66
     1
 10
0.0
 20
0.0
 30
0.0
 70
   128
  0
VERTEX
  5
80D
  8
0
  6
CONTINUOUS
 62
     7
 10
199.0208755253
 20
536.3917008596
 30
0.0
  0
VERTEX
  5
80E
  8
0
  6
CONTINUOUS
 62
     7
 10
199.312647712
 20
527.6381925302
 30
0.0
  0
VERTEX
  5
80F
  8
0
  6
CONTINUOUS
 62
     7
 10
199.6622140525
 20
516.3916901308
 30
0.0
  0
SEQEND
  5
8A2
  8
0
  6
CONTINUOUS
 62
     7
  0
POLYLINE
  5
408
  8
0
  6
CONTINUOUS
 62
     7
 66
     1
 10
0.0
 20
0.0
 30
0.0
 70
   128
  0
VERTEX
  5
810
  8
0
  6
CONTINUOUS
 62
     7
 10
201.1622021911
 20
516.3916901308
 30
0.0
  0
VERTEX
  5
811
  8
0
  6
CONTINUOUS
 62
     7
 10
200.7887939928
 20
527.6378051
 30
0.0
  0
VERTEX
  5
812
  8
0
  6
CONTINUOUS
 62
     7
 10
200.5178312776
 20
536.3917008596
 30
0.0
  0
SEQEND
  5
8A3
  8
0
  6
CONTINUOUS
 62
     7
  0
POLYLINE
  5
409
  8
0
  6
CONTINUOUS
 62
     7
 66
     1
 10
0.0
 20
0.0
 30
0.0
 70
   128
  0
VERTEX
  5
813
  8
0
  6
CONTINUOUS
 62
     7
 10
203.1624372122
 20
536.3917008596
 30
0.0
  0
VERTEX
  5
814
  8
0
  6
CONTINUOUS
 62
     7
 10
202.9508854268
 20
527.8896347242
 30
0.0
  0
VERTEX
  5
815
  8
0
  6
CONTINUOUS
 62
     7
 10
202.6622126815
 20
516.3916901308
 30
0.0
  0
SEQEND
  5
8A4
  8
0
  6
CONTINUOUS
 62
     7
  0
POLYLINE
  5
40A
  8
0
  6
CONTINUOUS
 62
     7
 66
     1
 10
0.0
 20
0.0
 30
0.0
 70
   128
  0
VERTEX
  5
816
  8
0
  6
CONTINUOUS
 62
     7
 10
204.1622082708
 20
516.3916901308
 30
0.0
  0
VERTEX
  5
817
  8
0
  6
CONTINUOUS
 62
     7
 10
204.3985332368
 20
525.8937433916
 30
0.0
  0
VERTEX
  5
818
  8
0
  6
CONTINUOUS
 62
     7
 10
204.6620006678
 20
536.3917008596
 30
0.0
  0
SEQEND
  5
8A5
  8
0
  6
CONTINUOUS
 62
     7
  0
LINE
  5
40B
  8
0
  6
CONTINUOUS
 62
     7
 10
206.9622109649
 20
537.391687985
 30
0.0
 11
206.9622109649
 21
547.0916882711
 31
0.0
  0
ARC
  5
40C
  8
0
  6
CONTINUOUS
 62
     7
 10
303.7091426368
 20
225.9916917044
 30
0.0
 40
150.0
 50
190.8936827814
 51
191.5369590328
  0
LINE
  5
40D
  8
0
  6
CONTINUOUS
 62
     7
 10
154.9122090457
 20
200.2416916746
 30
0.0
 11
156.4122046349
 21
197.6436146158
 31
0.0
  0
LINE
  5
40E
  8
0
  6
CONTINUOUS
 62
     7
 10
164.4122059462
 20
268.9916931647
 30
0.0
 11
164.4122059462
 21
512.4916986185
 31
0.0
  0
LINE
  5
40F
  8
0
  6
CONTINUOUS
 62
     7
 10
158.412208688
 20
512.4916986185
 30
0.0
 11
158.412208688
 21
268.9916931647
 31
0.0
  0
LINE
  5
410
  8
0
  6
CONTINUOUS
 62
     7
 10
244.6250374434
 20
260.9854333657
 30
0.0
 11
232.3596457956
 21
266.9685513335
 31
0.0
  0
LINE
  5
411
  8
0
  6
CONTINUOUS
 62
     7
 10
219.8622058151
 20
266.9916928368
 30
0.0
 11
216.1122093914
 21
266.9916928368
 31
0.0
  0
LINE
  5
412
  8
0
  6
CONTINUOUS
 62
     7
 10
232.3122079489
 20
266.9916928368
 30
0.0
 11
230.2971239207
 21
266.9916928368
 31
0.0
  0
LINE
  5
413
  8
0
  6
CONTINUOUS
 62
     7
 10
230.3622121928
 20
266.9860713738
 30
0.0
 11
230.3622121928
 21
268.9916931647
 31
0.0
  0
LINE
  5
414
  8
0
  6
CONTINUOUS
 62
     7
 10
219.8622058151
 20
268.9916931647
 30
0.0
 11
219.8622058151
 21
266.9916928368
 31
0.0
  0
ARC
  5
415
  8
0
  6
CONTINUOUS
 62
     7
 10
229.1122092841
 20
500.8916917044
 30
0.0
 40
0.5000000000000568
 50
0.0
 51
90.0
  0
ARC
  5
416
  8
0
  6
CONTINUOUS
 62
     7
 10
221.1122092841
 20
500.8916917044
 30
0.0
 40
0.5000000000000568
 50
90.0
 51
180.0
  0
LINE
  5
417
  8
0
  6
CONTINUOUS
 62
     7
 10
229.6122069476
 20
476.3916984754
 30
0.0
 11
229.6122069476
 21
500.8916810709
 31
0.0
  0
LINE
  5
418
  8
0
  6
CONTINUOUS
 62
     7
 10
220.6122110603
 20
500.8916810709
 30
0.0
 11
220.6122110603
 21
476.3916984754
 31
0.0
  0
ARC
  5
419
  8
0
  6
CONTINUOUS
 62
     7
 10
229.1122092841
 20
501.8916917044
 30
0.0
 40
0.5
 50
180.0
 51
270.0
  0
ARC
  5
41A
  8
0
  6
CONTINUOUS
 62
     7
 10
221.1122092841
 20
501.8916917044
 30
0.0
 40
0.5
 50
270.0
 51
0.0
  0
LINE
  5
41B
  8
0
  6
CONTINUOUS
 62
     7
 10
228.6122123716
 20
501.8916979986
 30
0.0
 11
228.6122123716
 21
516.3916901308
 31
0.0
  0
LINE
  5
41C
  8
0
  6
CONTINUOUS
 62
     7
 10
221.6122056363
 20
516.3916901308
 30
0.0
 11
221.6122056363
 21
501.8916979986
 31
0.0
  0
POLYLINE
  5
41D
  8
0
  6
CONTINUOUS
 62
     7
 66
     1
 10
0.0
 20
0.0
 30
0.0
 70
   128
  0
VERTEX
  5
819
  8
0
  6
CONTINUOUS
 62
     7
 10
220.3065882442
 20
536.3917008596
 30
0.0
  0
VERTEX
  5
81A
  8
0
  6
CONTINUOUS
 62
     7
 10
221.5332965372
 20
527.8896347242
 30
0.0
  0
VERTEX
  5
81B
  8
0
  6
CONTINUOUS
 62
     7
 10
223.1866772292
 20
516.3916901308
 30
0.0
  0
SEQEND
  5
8A6
  8
0
  6
CONTINUOUS
 62
     7
  0
POLYLINE
  5
41E
  8
0
  6
CONTINUOUS
 62
     7
 66
     1
 10
0.0
 20
0.0
 30
0.0
 70
   128
  0
VERTEX
  5
81C
  8
0
  6
CONTINUOUS
 62
     7
 10
224.6865983126
 20
516.3916901308
 30
0.0
  0
VERTEX
  5
81D
  8
0
  6
CONTINUOUS
 62
     7
 10
223.3155573723
 20
525.8937433916
 30
0.0
  0
VERTEX
  5
81E
  8
0
  6
CONTINUOUS
 62
     7
 10
221.8059132812
 20
536.3917008596
 30
0.0
  0
SEQEND
  5
8A7
  8
0
  6
CONTINUOUS
 62
     7
  0
POLYLINE
  5
41F
  8
0
  6
CONTINUOUS
 62
     7
 66
     1
 10
0.0
 20
0.0
 30
0.0
 70
   128
  0
VERTEX
  5
81F
  8
0
  6
CONTINUOUS
 62
     7
 10
227.0377780316
 20
516.3916901308
 30
0.0
  0
VERTEX
  5
820
  8
0
  6
CONTINUOUS
 62
     7
 10
228.404765856
 20
525.8937433916
 30
0.0
  0
VERTEX
  5
821
  8
0
  6
CONTINUOUS
 62
     7
 10
229.9179340718
 20
536.3917008596
 30
0.0
  0
SEQEND
  5
8A8
  8
0
  6
CONTINUOUS
 62
     7
  0
POLYLINE
  5
420
  8
0
  6
CONTINUOUS
 62
     7
 66
     1
 10
0.0
 20
0.0
 30
0.0
 70
   128
  0
VERTEX
  5
822
  8
0
  6
CONTINUOUS
 62
     7
 10
228.4184674738
 20
536.3917008596
 30
0.0
  0
VERTEX
  5
823
  8
0
  6
CONTINUOUS
 62
     7
 10
227.1952386019
 20
527.8896347242
 30
0.0
  0
VERTEX
  5
824
  8
0
  6
CONTINUOUS
 62
     7
 10
225.5377824423
 20
516.3916901308
 30
0.0
  0
SEQEND
  5
8A9
  8
0
  6
CONTINUOUS
 62
     7
  0
POLYLINE
  5
421
  8
0
  6
CONTINUOUS
 62
     7
 66
     1
 10
0.0
 20
0.0
 30
0.0
 70
   128
  0
VERTEX
  5
825
  8
0
  6
CONTINUOUS
 62
     7
 10
220.274722111
 20
536.3917008596
 30
0.0
  0
VERTEX
  5
826
  8
0
  6
CONTINUOUS
 62
     7
 10
221.4021663187
 20
526.3653055387
 30
0.0
  0
VERTEX
  5
827
  8
0
  6
CONTINUOUS
 62
     7
 10
221.710538399
 20
523.5175148207
 30
0.0
  0
VERTEX
  5
828
  8
0
  6
CONTINUOUS
 62
     7
 10
222.4602307198
 20
516.3916901308
 30
0.0
  0
SEQEND
  5
8AA
  8
0
  6
CONTINUOUS
 62
     7
  0
POLYLINE
  5
422
  8
0
  6
CONTINUOUS
 62
     7
 66
     1
 10
0.0
 20
0.0
 30
0.0
 70
   128
  0
VERTEX
  5
829
  8
0
  6
CONTINUOUS
 62
     7
 10
227.7643213985
 20
516.3916901308
 30
0.0
  0
VERTEX
  5
82A
  8
0
  6
CONTINUOUS
 62
     7
 10
228.803282511
 20
525.8937433916
 30
0.0
  0
VERTEX
  5
82B
  8
0
  6
CONTINUOUS
 62
     7
 10
229.9526537774
 20
536.3917008596
 30
0.0
  0
SEQEND
  5
8AB
  8
0
  6
CONTINUOUS
 62
     7
  0
POLYLINE
  5
423
  8
0
  6
CONTINUOUS
 62
     7
 66
     1
 10
0.0
 20
0.0
 30
0.0
 70
   128
  0
VERTEX
  5
82C
  8
0
  6
CONTINUOUS
 62
     7
 10
225.8601094601
 20
518.6277285772
 30
0.0
  0
VERTEX
  5
82D
  8
0
  6
CONTINUOUS
 62
     7
 10
225.8548418996
 20
525.8937433916
 30
0.0
  0
VERTEX
  5
82E
  8
0
  6
CONTINUOUS
 62
     7
 10
225.8615697739
 20
536.3917008596
 30
0.0
  0
SEQEND
  5
8AC
  8
0
  6
CONTINUOUS
 62
     7
  0
POLYLINE
  5
424
  8
0
  6
CONTINUOUS
 62
     7
 66
     1
 10
0.0
 20
0.0
 30
0.0
 70
   128
  0
VERTEX
  5
82F
  8
0
  6
CONTINUOUS
 62
     7
 10
224.3629823444
 20
536.3917008596
 30
0.0
  0
VERTEX
  5
830
  8
0
  6
CONTINUOUS
 62
     7
 10
224.3695835588
 20
527.8896347242
 30
0.0
  0
VERTEX
  5
831
  8
0
  6
CONTINUOUS
 62
     7
 10
224.3640254257
 20
518.6273113447
 30
0.0
  0
SEQEND
  5
8AD
  8
0
  6
CONTINUOUS
 62
     7
  0
LINE
  5
425
  8
0
  6
CONTINUOUS
 62
     7
 10
196.9122122047
 20
266.9916928368
 30
0.0
 11
195.9122101782
 21
266.9916928368
 31
0.0
  0
LINE
  5
426
  8
0
  6
CONTINUOUS
 62
     7
 10
207.9122121451
 20
266.9916928368
 30
0.0
 11
206.8503106949
 21
266.9916928368
 31
0.0
  0
LINE
  5
427
  8
0
  6
CONTINUOUS
 62
     7
 10
206.9122101185
 20
266.986600365
 30
0.0
 11
206.9122101185
 21
268.9916931647
 31
0.0
  0
LINE
  5
428
  8
0
  6
CONTINUOUS
 62
     7
 10
196.9122122047
 20
268.9916931647
 30
0.0
 11
196.9122122047
 21
266.9916928368
 31
0.0
  0
LINE
  5
429
  8
0
  6
CONTINUOUS
 62
     7
 10
156.4122046349
 20
266.9916928368
 30
0.0
 11
155.4122026084
 21
266.9916928368
 31
0.0
  0
LINE
  5
42A
  8
0
  6
CONTINUOUS
 62
     7
 10
167.4122120259
 20
266.9916928368
 30
0.0
 11
166.3503105757
 21
266.9916928368
 31
0.0
  0
LINE
  5
42B
  8
0
  6
CONTINUOUS
 62
     7
 10
166.4122099993
 20
266.986600365
 30
0.0
 11
166.4122099993
 21
268.9916931647
 31
0.0
  0
LINE
  5
42C
  8
0
  6
CONTINUOUS
 62
     7
 10
156.4122046349
 20
268.9916931647
 30
0.0
 11
156.4122046349
 21
266.9916928368
 31
0.0
  0
LINE
  5
42D
  8
0
  6
CONTINUOUS
 62
     7
 10
291.412209068
 20
255.9916910338
 30
0.0
 11
298.4122092841
 21
255.9916910338
 31
0.0
  0
LINE
  5
42E
  8
0
  6
CONTINUOUS
 62
     7
 10
298.4122092841
 20
250.6916925865
 30
0.0
 11
291.412209068
 21
250.6916925865
 31
0.0
  0
LINE
  5
42F
  8
0
  6
CONTINUOUS
 62
     7
 10
298.4122092841
 20
255.9916910338
 30
0.0
 11
298.4122092841
 21
250.6916925865
 31
0.0
  0
LINE
  5
430
  8
0
  6
CONTINUOUS
 62
     7
 10
291.412209068
 20
250.6916925865
 30
0.0
 11
291.412209068
 21
255.9916910338
 31
0.0
  0
LINE
  5
431
  8
0
  6
CONTINUOUS
 62
     7
 10
291.412209068
 20
201.2916908222
 30
0.0
 11
298.4122092841
 21
201.2916908222
 31
0.0
  0
LINE
  5
432
  8
0
  6
CONTINUOUS
 62
     7
 10
291.412209068
 20
201.2916908222
 30
0.0
 11
291.412209068
 21
211.9916912722
 31
0.0
  0
LINE
  5
433
  8
0
  6
CONTINUOUS
 62
     7
 10
291.412209068
 20
211.9916912722
 30
0.0
 11
287.9122094256
 21
211.9916912722
 31
0.0
  0
LINE
  5
434
  8
0
  6
CONTINUOUS
 62
     7
 10
291.412209068
 20
239.9916921365
 30
0.0
 11
287.9122094256
 21
239.9916921365
 31
0.0
  0
LINE
  5
435
  8
0
  6
CONTINUOUS
 62
     7
 10
298.4122092841
 20
250.6916925865
 30
0.0
 11
298.4122092841
 21
201.2916908222
 31
0.0
  0
LINE
  5
436
  8
0
  6
CONTINUOUS
 62
     7
 10
287.9122094256
 20
211.9916912722
 30
0.0
 11
287.9122094256
 21
239.9916921365
 31
0.0
  0
LINE
  5
437
  8
0
  6
CONTINUOUS
 62
     7
 10
291.412209068
 20
250.6916925865
 30
0.0
 11
291.412209068
 21
239.9916921365
 31
0.0
  0
LINE
  5
438
  8
0
  6
CONTINUOUS
 62
     7
 10
291.412209068
 20
246.1916909176
 30
0.0
 11
287.9122094256
 21
246.1916909176
 31
0.0
  0
LINE
  5
439
  8
0
  6
CONTINUOUS
 62
     7
 10
287.9122094256
 20
239.9916921365
 30
0.0
 11
287.9122094256
 21
246.1916909176
 31
0.0
  0
LINE
  5
43A
  8
0
  6
CONTINUOUS
 62
     7
 10
291.412209068
 20
205.7916924911
 30
0.0
 11
287.9122094256
 21
205.7916924911
 31
0.0
  0
LINE
  5
43B
  8
0
  6
CONTINUOUS
 62
     7
 10
287.9122094256
 20
211.9916912722
 30
0.0
 11
287.9122094256
 21
205.7916924911
 31
0.0
  0
LINE
  5
43C
  8
0
  6
CONTINUOUS
 62
     7
 10
298.4122092841
 20
195.9916923749
 30
0.0
 11
291.412209068
 21
195.9916923749
 31
0.0
  0
LINE
  5
43D
  8
0
  6
CONTINUOUS
 62
     7
 10
291.412209068
 20
195.9916923749
 30
0.0
 11
291.412209068
 21
201.2916908222
 31
0.0
  0
LINE
  5
43E
  8
0
  6
CONTINUOUS
 62
     7
 10
298.4122092841
 20
201.2916908222
 30
0.0
 11
298.4122092841
 21
195.9916923749
 31
0.0
  0
LINE
  5
43F
  8
0
  6
CONTINUOUS
 62
     7
 10
291.412209068
 20
250.9916920769
 30
0.0
 11
287.9122094256
 21
250.9916920769
 31
0.0
  0
LINE
  5
440
  8
0
  6
CONTINUOUS
 62
     7
 10
287.9122094256
 20
246.1916909176
 30
0.0
 11
287.9122094256
 21
250.9916920769
 31
0.0
  0
LINE
  5
441
  8
0
  6
CONTINUOUS
 62
     7
 10
291.412209068
 20
200.9916913318
 30
0.0
 11
287.9122094256
 21
200.9916913318
 31
0.0
  0
LINE
  5
442
  8
0
  6
CONTINUOUS
 62
     7
 10
287.9122094256
 20
205.7916924911
 30
0.0
 11
287.9122094256
 21
200.9916913318
 31
0.0
  0
LINE
  5
443
  8
0
  6
CONTINUOUS
 62
     7
 10
291.412209068
 20
255.0097082364
 30
0.0
 11
287.9122094256
 21
255.0097082364
 31
0.0
  0
LINE
  5
444
  8
0
  6
CONTINUOUS
 62
     7
 10
291.412209068
 20
255.9916910338
 30
0.0
 11
287.9122094256
 21
255.9916910338
 31
0.0
  0
LINE
  5
445
  8
0
  6
CONTINUOUS
 62
     7
 10
287.9122094256
 20
255.0097082364
 30
0.0
 11
287.9122094256
 21
255.9916910338
 31
0.0
  0
LINE
  5
446
  8
0
  6
CONTINUOUS
 62
     7
 10
287.9122094256
 20
250.9916920769
 30
0.0
 11
287.9122094256
 21
255.0097082364
 31
0.0
  0
LINE
  5
447
  8
0
  6
CONTINUOUS
 62
     7
 10
291.412209068
 20
196.9736751723
 30
0.0
 11
287.9122094256
 21
196.9736751723
 31
0.0
  0
LINE
  5
448
  8
0
  6
CONTINUOUS
 62
     7
 10
287.9122094256
 20
200.9916913318
 30
0.0
 11
287.9122094256
 21
196.9736751723
 31
0.0
  0
LINE
  5
449
  8
0
  6
CONTINUOUS
 62
     7
 10
291.412209068
 20
195.9916923749
 30
0.0
 11
287.9122094256
 21
195.9916923749
 31
0.0
  0
LINE
  5
44A
  8
0
  6
CONTINUOUS
 62
     7
 10
287.9122094256
 20
196.9736751723
 30
0.0
 11
287.9122094256
 21
195.9916923749
 31
0.0
  0
LINE
  5
44B
  8
0
  6
CONTINUOUS
 62
     7
 10
300.4122093791
 20
225.9916917044
 30
0.0
 11
300.4122093791
 21
207.9916924792
 31
0.0
  0
LINE
  5
44C
  8
0
  6
CONTINUOUS
 62
     7
 10
300.4122093791
 20
243.9916909295
 30
0.0
 11
300.4122093791
 21
225.9916917044
 31
0.0
  0
LINE
  5
44D
  8
0
  6
CONTINUOUS
 62
     7
 10
322.4122094927
 20
225.9916917044
 30
0.0
 11
322.4122094927
 21
220.9916918161
 31
0.0
  0
LINE
  5
44E
  8
0
  6
CONTINUOUS
 62
     7
 10
322.4122094927
 20
230.9916915926
 30
0.0
 11
322.4122094927
 21
225.9916917044
 31
0.0
  0
LINE
  5
44F
  8
0
  6
CONTINUOUS
 62
     7
 10
234.2122103093
 20
239.9916921365
 30
0.0
 11
287.9122094256
 21
239.9916921365
 31
0.0
  0
LINE
  5
450
  8
0
  6
CONTINUOUS
 62
     7
 10
287.9122094256
 20
246.1916909176
 30
0.0
 11
234.2122103093
 21
246.1916909176
 31
0.0
  0
LINE
  5
451
  8
0
  6
CONTINUOUS
 62
     7
 10
234.2122103093
 20
246.1916909176
 30
0.0
 11
234.2122103093
 21
239.9916921365
 31
0.0
  0
LINE
  5
452
  8
0
  6
CONTINUOUS
 62
     7
 10
234.2122103093
 20
211.9916912722
 30
0.0
 11
287.9122094256
 21
211.9916912722
 31
0.0
  0
LINE
  5
453
  8
0
  6
CONTINUOUS
 62
     7
 10
234.2122103093
 20
211.9916912722
 30
0.0
 11
234.2122103093
 21
239.9916921365
 31
0.0
  0
LINE
  5
454
  8
0
  6
CONTINUOUS
 62
     7
 10
287.9122094256
 20
205.7916924911
 30
0.0
 11
234.2122103093
 21
205.7916924911
 31
0.0
  0
LINE
  5
455
  8
0
  6
CONTINUOUS
 62
     7
 10
234.2122103093
 20
205.7916924911
 30
0.0
 11
234.2122103093
 21
211.9916912722
 31
0.0
  0
LINE
  5
456
  8
0
  6
CONTINUOUS
 62
     7
 10
287.9122094256
 20
250.9916920769
 30
0.0
 11
234.2122103093
 21
250.9916920769
 31
0.0
  0
LINE
  5
457
  8
0
  6
CONTINUOUS
 62
     7
 10
234.2122103093
 20
250.9916920769
 30
0.0
 11
234.2122103093
 21
246.1916909176
 31
0.0
  0
LINE
  5
458
  8
0
  6
CONTINUOUS
 62
     7
 10
287.9122094256
 20
200.9916913318
 30
0.0
 11
234.2122103093
 21
200.9916913318
 31
0.0
  0
LINE
  5
459
  8
0
  6
CONTINUOUS
 62
     7
 10
234.2122103093
 20
200.9916913318
 30
0.0
 11
234.2122103093
 21
205.7916924911
 31
0.0
  0
LINE
  5
45A
  8
0
  6
CONTINUOUS
 62
     7
 10
287.9122094256
 20
255.0097082364
 30
0.0
 11
234.2122103093
 21
255.0097082364
 31
0.0
  0
LINE
  5
45B
  8
0
  6
CONTINUOUS
 62
     7
 10
287.9122094256
 20
255.9916910338
 30
0.0
 11
234.2122103093
 21
255.9916910338
 31
0.0
  0
LINE
  5
45C
  8
0
  6
CONTINUOUS
 62
     7
 10
234.2122103093
 20
255.9916910338
 30
0.0
 11
234.2122103093
 21
255.0097082364
 31
0.0
  0
LINE
  5
45D
  8
0
  6
CONTINUOUS
 62
     7
 10
234.2122103093
 20
255.0097082364
 30
0.0
 11
234.2122103093
 21
250.9916920769
 31
0.0
  0
LINE
  5
45E
  8
0
  6
CONTINUOUS
 62
     7
 10
287.9122094256
 20
196.9736751723
 30
0.0
 11
234.2122103093
 21
196.9736751723
 31
0.0
  0
LINE
  5
45F
  8
0
  6
CONTINUOUS
 62
     7
 10
234.2122103093
 20
196.9736751723
 30
0.0
 11
234.2122103093
 21
200.9916913318
 31
0.0
  0
LINE
  5
460
  8
0
  6
CONTINUOUS
 62
     7
 10
287.9122094256
 20
195.9916923749
 30
0.0
 11
234.2122103093
 21
195.9916923749
 31
0.0
  0
LINE
  5
461
  8
0
  6
CONTINUOUS
 62
     7
 10
234.2122103093
 20
195.9916923749
 30
0.0
 11
234.2122103093
 21
196.9736751723
 31
0.0
  0
LINE
  5
462
  8
0
  6
CONTINUOUS
 62
     7
 10
218.2122076867
 20
246.1916909176
 30
0.0
 11
234.2122103093
 21
239.9916921365
 31
0.0
  0
LINE
  5
463
  8
0
  6
CONTINUOUS
 62
     7
 10
234.2122103093
 20
246.1916909176
 30
0.0
 11
218.2122076867
 21
246.1916909176
 31
0.0
  0
LINE
  5
464
  8
0
  6
CONTINUOUS
 62
     7
 10
218.2122076867
 20
205.7916924911
 30
0.0
 11
234.2122103093
 21
211.9916912722
 31
0.0
  0
LINE
  5
465
  8
0
  6
CONTINUOUS
 62
     7
 10
218.2122076867
 20
205.7916924911
 30
0.0
 11
214.7122080443
 21
205.7916924911
 31
0.0
  0
LINE
  5
466
  8
0
  6
CONTINUOUS
 62
     7
 10
218.2122076867
 20
246.1916909176
 30
0.0
 11
214.7122080443
 21
246.1916909176
 31
0.0
  0
LINE
  5
467
  8
0
  6
CONTINUOUS
 62
     7
 10
214.7122080443
 20
205.7916924911
 30
0.0
 11
214.7122080443
 21
246.1916909176
 31
0.0
  0
LINE
  5
468
  8
0
  6
CONTINUOUS
 62
     7
 10
234.2122103093
 20
205.7916924911
 30
0.0
 11
218.2122076867
 21
205.7916924911
 31
0.0
  0
LINE
  5
469
  8
0
  6
CONTINUOUS
 62
     7
 10
214.7122080443
 20
250.9916920769
 30
0.0
 11
234.2122103093
 21
250.9916920769
 31
0.0
  0
LINE
  5
46A
  8
0
  6
CONTINUOUS
 62
     7
 10
214.7122080443
 20
250.9916920769
 30
0.0
 11
214.7122080443
 21
246.1916909176
 31
0.0
  0
LINE
  5
46B
  8
0
  6
CONTINUOUS
 62
     7
 10
214.7122080443
 20
200.9916913318
 30
0.0
 11
234.2122103093
 21
200.9916913318
 31
0.0
  0
LINE
  5
46C
  8
0
  6
CONTINUOUS
 62
     7
 10
214.7122080443
 20
200.9916913318
 30
0.0
 11
214.7122080443
 21
205.7916924911
 31
0.0
  0
LINE
  5
46D
  8
0
  6
CONTINUOUS
 62
     7
 10
218.2122076867
 20
255.9916910338
 30
0.0
 11
234.2122103093
 21
255.0097082364
 31
0.0
  0
LINE
  5
46E
  8
0
  6
CONTINUOUS
 62
     7
 10
218.2122076867
 20
255.9916910338
 30
0.0
 11
234.2122103093
 21
255.9916910338
 31
0.0
  0
LINE
  5
46F
  8
0
  6
CONTINUOUS
 62
     7
 10
214.7122080443
 20
255.9916910338
 30
0.0
 11
218.2122076867
 21
255.9916910338
 31
0.0
  0
LINE
  5
470
  8
0
  6
CONTINUOUS
 62
     7
 10
214.7122080443
 20
255.9916910338
 30
0.0
 11
214.7122080443
 21
250.9916920769
 31
0.0
  0
LINE
  5
471
  8
0
  6
CONTINUOUS
 62
     7
 10
218.2122076867
 20
195.9916923749
 30
0.0
 11
234.2122103093
 21
196.9736751723
 31
0.0
  0
LINE
  5
472
  8
0
  6
CONTINUOUS
 62
     7
 10
214.7122080443
 20
195.9916923749
 30
0.0
 11
218.2122076867
 21
195.9916923749
 31
0.0
  0
LINE
  5
473
  8
0
  6
CONTINUOUS
 62
     7
 10
214.7122080443
 20
195.9916923749
 30
0.0
 11
214.7122080443
 21
200.9916913318
 31
0.0
  0
LINE
  5
474
  8
0
  6
CONTINUOUS
 62
     7
 10
218.2122076867
 20
195.9916923749
 30
0.0
 11
234.2122103093
 21
195.9916923749
 31
0.0
  0
LINE
  5
475
  8
0
  6
CONTINUOUS
 62
     7
 10
168.7122042296
 20
205.7916924911
 30
0.0
 11
214.7122080443
 21
205.7916924911
 31
0.0
  0
LINE
  5
476
  8
0
  6
CONTINUOUS
 62
     7
 10
168.7122042296
 20
246.1916909176
 30
0.0
 11
214.7122080443
 21
246.1916909176
 31
0.0
  0
LINE
  5
477
  8
0
  6
CONTINUOUS
 62
     7
 10
168.7122042296
 20
205.7916924911
 30
0.0
 11
168.7122042296
 21
246.1916909176
 31
0.0
  0
LINE
  5
478
  8
0
  6
CONTINUOUS
 62
     7
 10
168.7122042296
 20
250.9916920769
 30
0.0
 11
214.7122080443
 21
250.9916920769
 31
0.0
  0
LINE
  5
479
  8
0
  6
CONTINUOUS
 62
     7
 10
168.7122042296
 20
250.9916920769
 30
0.0
 11
168.7122042296
 21
246.1916909176
 31
0.0
  0
LINE
  5
47A
  8
0
  6
CONTINUOUS
 62
     7
 10
168.7122042296
 20
200.9916913318
 30
0.0
 11
214.7122080443
 21
200.9916913318
 31
0.0
  0
LINE
  5
47B
  8
0
  6
CONTINUOUS
 62
     7
 10
168.7122042296
 20
200.9916913318
 30
0.0
 11
168.7122042296
 21
205.7916924911
 31
0.0
  0
LINE
  5
47C
  8
0
  6
CONTINUOUS
 62
     7
 10
168.7122042296
 20
255.9916910338
 30
0.0
 11
214.7122080443
 21
255.9916910338
 31
0.0
  0
LINE
  5
47D
  8
0
  6
CONTINUOUS
 62
     7
 10
168.7122042296
 20
255.9916910338
 30
0.0
 11
168.7122042296
 21
250.9916920769
 31
0.0
  0
LINE
  5
47E
  8
0
  6
CONTINUOUS
 62
     7
 10
168.7122042296
 20
195.9916923749
 30
0.0
 11
214.7122080443
 21
195.9916923749
 31
0.0
  0
LINE
  5
47F
  8
0
  6
CONTINUOUS
 62
     7
 10
168.7122042296
 20
195.9916923749
 30
0.0
 11
168.7122042296
 21
200.9916913318
 31
0.0
  0
LINE
  5
480
  8
0
  6
CONTINUOUS
 62
     7
 10
197.9122067807
 20
476.3916984754
 30
0.0
 11
205.912208092
 21
476.3916984754
 31
0.0
  0
LINE
  5
481
  8
0
  6
CONTINUOUS
 62
     7
 10
198.9122088072
 20
516.3916901308
 30
0.0
 11
204.9122060654
 21
516.3916901308
 31
0.0
  0
LINE
  5
482
  8
0
  6
CONTINUOUS
 62
     7
 10
207.7122087596
 20
536.3917008596
 30
0.0
 11
197.1122081397
 21
536.3917008596
 31
0.0
  0
LINE
  5
483
  8
0
  6
CONTINUOUS
 62
     7
 10
197.1122081397
 20
536.3917008596
 30
0.0
 11
197.1122081397
 21
544.0416887956
 31
0.0
  0
ARC
  5
484
  8
0
  6
CONTINUOUS
 62
     7
 10
196.8122092841
 20
544.0416917044
 30
0.0
 40
0.2999999999999829
 50
0.0
 51
90.0
  0
LINE
  5
485
  8
0
  6
CONTINUOUS
 62
     7
 10
196.8122105119
 20
544.3416789728
 30
0.0
 11
195.9122101782
 21
544.3416789728
 31
0.0
  0
ARC
  5
486
  8
0
  6
CONTINUOUS
 62
     7
 10
195.9122092841
 20
544.1416917044
 30
0.0
 40
0.1999999999999318
 50
90.0
 51
175.0
  0
LINE
  5
487
  8
0
  6
CONTINUOUS
 62
     7
 10
195.7129667518
 20
544.1591099459
 30
0.0
 11
195.2258850453
 21
538.591678496
 31
0.0
  0
LINE
  5
488
  8
0
  6
CONTINUOUS
 62
     7
 10
195.2258850453
 20
538.591678496
 30
0.0
 11
193.3122108696
 21
538.591678496
 31
0.0
  0
LINE
  5
489
  8
0
  6
CONTINUOUS
 62
     7
 10
193.3122108696
 20
540.0916889864
 30
0.0
 11
193.3122108696
 21
538.591678496
 31
0.0
  0
LINE
  5
48A
  8
0
  6
CONTINUOUS
 62
     7
 10
193.6122084973
 20
540.0916889864
 30
0.0
 11
193.3122108696
 21
540.0916889864
 31
0.0
  0
LINE
  5
48B
  8
0
  6
CONTINUOUS
 62
     7
 10
193.6122084973
 20
540.0916889864
 30
0.0
 11
194.3122128961
 21
540.5916825491
 31
0.0
  0
LINE
  5
48C
  8
0
  6
CONTINUOUS
 62
     7
 10
194.3122128961
 20
540.5916825491
 30
0.0
 11
194.3122128961
 21
545.8416894632
 31
0.0
  0
LINE
  5
48D
  8
0
  6
CONTINUOUS
 62
     7
 10
194.3122128961
 20
545.8416894632
 30
0.0
 11
196.8122105119
 21
545.8416894632
 31
0.0
  0
ARC
  5
48E
  8
0
  6
CONTINUOUS
 62
     7
 10
196.8122092841
 20
546.1416917044
 30
0.0
 40
0.3000000000000682
 50
270.0
 51
0.0
  0
LINE
  5
48F
  8
0
  6
CONTINUOUS
 62
     7
 10
197.1122081397
 20
547.0916882711
 30
0.0
 11
197.1122081397
 21
546.1416796404
 31
0.0
  0
LINE
  5
490
  8
0
  6
CONTINUOUS
 62
     7
 10
197.1122081397
 20
547.0916882711
 30
0.0
 11
206.712206733
 21
547.0916882711
 31
0.0
  0
LINE
  5
491
  8
0
  6
CONTINUOUS
 62
     7
 10
206.712206733
 20
547.0916882711
 30
0.0
 11
206.712206733
 21
537.391687985
 31
0.0
  0
LINE
  5
492
  8
0
  6
CONTINUOUS
 62
     7
 10
207.7122087596
 20
537.391687985
 30
0.0
 11
206.712206733
 21
537.391687985
 31
0.0
  0
LINE
  5
493
  8
0
  6
CONTINUOUS
 62
     7
 10
207.7122087596
 20
536.3917008596
 30
0.0
 11
207.7122087596
 21
537.391687985
 31
0.0
  0
LINE
  5
494
  8
0
  6
CONTINUOUS
 62
     7
 10
200.862212014
 20
555.9917048174
 30
0.0
 11
200.862212014
 21
547.0916882711
 31
0.0
  0
LINE
  5
495
  8
0
  6
CONTINUOUS
 62
     7
 10
198.212211859
 20
555.9917048174
 30
0.0
 11
198.212211859
 21
547.0916882711
 31
0.0
  0
LINE
  5
496
  8
0
  6
CONTINUOUS
 62
     7
 10
198.212211859
 20
555.9917048174
 30
0.0
 11
200.862212014
 21
555.9917048174
 31
0.0
  0
LINE
  5
497
  8
0
  6
CONTINUOUS
 62
     7
 10
202.4122084496
 20
547.0916882711
 30
0.0
 11
202.4122084496
 21
555.9917048174
 31
0.0
  0
LINE
  5
498
  8
0
  6
CONTINUOUS
 62
     7
 10
202.4122084496
 20
555.9917048174
 30
0.0
 11
205.8122063992
 21
555.9917048174
 31
0.0
  0
LINE
  5
499
  8
0
  6
CONTINUOUS
 62
     7
 10
205.8122063992
 20
555.9917048174
 30
0.0
 11
205.8122063992
 21
547.0916882711
 31
0.0
  0
LINE
  5
49A
  8
0
  6
CONTINUOUS
 62
     7
 10
201.6122098086
 20
547.0916882711
 30
0.0
 11
201.6122098086
 21
555.9917048174
 31
0.0
  0
LINE
  5
49B
  8
0
  6
CONTINUOUS
 62
     7
 10
201.6122098086
 20
555.9917048174
 30
0.0
 11
200.862212014
 21
555.9917048174
 31
0.0
  0
LINE
  5
49C
  8
0
  6
CONTINUOUS
 62
     7
 10
195.6122125504
 20
550.5229190546
 30
0.0
 11
195.6122125504
 21
545.8416894632
 31
0.0
  0
LINE
  5
49D
  8
0
  6
CONTINUOUS
 62
     7
 10
193.6122084973
 20
540.0916889864
 30
0.0
 11
193.6122084973
 21
552.6916936594
 31
0.0
  0
LINE
  5
49E
  8
0
  6
CONTINUOUS
 62
     7
 10
194.3122128961
 20
553.3916906076
 30
0.0
 11
193.6122084973
 21
552.6916936594
 31
0.0
  0
LINE
  5
49F
  8
0
  6
CONTINUOUS
 62
     7
 10
195.6122125504
 20
553.3916906076
 30
0.0
 11
194.3122128961
 21
553.3916906076
 31
0.0
  0
LINE
  5
4A0
  8
0
  6
CONTINUOUS
 62
     7
 10
197.1122081397
 20
550.3916994291
 30
0.0
 11
197.1122081397
 21
551.8916801172
 31
0.0
  0
LINE
  5
4A1
  8
0
  6
CONTINUOUS
 62
     7
 10
195.6122125504
 20
550.5229190546
 30
0.0
 11
197.1122081397
 21
550.3916994291
 31
0.0
  0
LINE
  5
4A2
  8
0
  6
CONTINUOUS
 62
     7
 10
195.6122125504
 20
553.3916906076
 30
0.0
 11
197.1122081397
 21
551.8916801172
 31
0.0
  0
LINE
  5
4A3
  8
0
  6
CONTINUOUS
 62
     7
 10
206.9622109649
 20
547.0916882711
 30
0.0
 11
206.712206733
 21
547.0916882711
 31
0.0
  0
LINE
  5
4A4
  8
0
  6
CONTINUOUS
 62
     7
 10
156.4122046349
 20
251.0526359635
 30
0.0
 11
156.4122046349
 21
197.6436146158
 31
0.0
  0
ARC
  5
4A5
  8
0
  6
CONTINUOUS
 62
     7
 10
303.7091426368
 20
225.9916917044
 30
0.0
 40
149.4136456285034
 50
168.4171399326
 51
170.3442177466
  0
LINE
  5
4A6
  8
0
  6
CONTINUOUS
 62
     7
 10
158.1345553515
 20
255.9916910338
 30
0.0
 11
157.3382521985
 21
255.9916910338
 31
0.0
  0
ARC
  5
4A7
  8
0
  6
CONTINUOUS
 62
     7
 10
303.7091426368
 20
225.9916917044
 30
0.0
 40
148.6336435669932
 50
168.3555065844
 51
170.316890223
  0
POLYLINE
  5
4A8
  8
0
  6
CONTINUOUS
 62
     7
 66
     1
 10
0.0
 20
0.0
 30
0.0
 70
   128
  0
VERTEX
  5
832
  8
0
  6
CONTINUOUS
 62
     7
 10
157.193070185
 20
246.1916909176
 30
0.0
  0
VERTEX
  5
833
  8
0
  6
CONTINUOUS
 62
     7
 10
156.9709236739
 20
246.454091053
 30
0.0
  0
VERTEX
  5
834
  8
0
  6
CONTINUOUS
 62
     7
 10
156.8622793076
 20
247.2208172637
 30
0.0
  0
VERTEX
  5
835
  8
0
  6
CONTINUOUS
 62
     7
 10
156.8801308987
 20
248.3886082279
 30
0.0
  0
VERTEX
  5
836
  8
0
  6
CONTINUOUS
 62
     7
 10
157.0181901572
 20
249.821269195
 30
0.0
  0
VERTEX
  5
837
  8
0
  6
CONTINUOUS
 62
     7
 10
157.193070185
 20
250.9916920769
 30
0.0
  0
SEQEND
  5
8AE
  8
0
  6
CONTINUOUS
 62
     7
  0
LINE
  5
4A9
  8
0
  6
CONTINUOUS
 62
     7
 10
158.1345553515
 20
246.1916909176
 30
0.0
 11
157.193070185
 21
246.1916909176
 31
0.0
  0
ARC
  5
4AA
  8
0
  6
CONTINUOUS
 62
     7
 10
303.7091426368
 20
225.9916917044
 30
0.0
 40
146.9693845669906
 50
172.1000552368
 51
187.8999447632
  0
LINE
  5
4AB
  8
0
  6
CONTINUOUS
 62
     7
 10
157.193070185
 20
205.7916924911
 30
0.0
 11
158.1345553515
 21
205.7916924911
 31
0.0
  0
POLYLINE
  5
4AC
  8
0
  6
CONTINUOUS
 62
     7
 66
     1
 10
0.0
 20
0.0
 30
0.0
 70
   128
  0
VERTEX
  5
838
  8
0
  6
CONTINUOUS
 62
     7
 10
157.193070185
 20
200.9916913318
 30
0.0
  0
VERTEX
  5
839
  8
0
  6
CONTINUOUS
 62
     7
 10
156.9709236739
 20
202.5569987106
 30
0.0
  0
VERTEX
  5
83A
  8
0
  6
CONTINUOUS
 62
     7
 10
156.8622793076
 20
203.9616250056
 30
0.0
  0
VERTEX
  5
83B
  8
0
  6
CONTINUOUS
 62
     7
 10
156.8801308987
 20
205.0245509106
 30
0.0
  0
VERTEX
  5
83C
  8
0
  6
CONTINUOUS
 62
     7
 10
157.0181901572
 20
205.6468085008
 30
0.0
  0
VERTEX
  5
83D
  8
0
  6
CONTINUOUS
 62
     7
 10
157.193070185
 20
205.7916924911
 30
0.0
  0
SEQEND
  5
8AF
  8
0
  6
CONTINUOUS
 62
     7
  0
ARC
  5
4AD
  8
0
  6
CONTINUOUS
 62
     7
 10
303.7091426368
 20
225.9916917044
 30
0.0
 40
148.6336435669932
 50
189.683109777
 51
191.6444934156
  0
LINE
  5
4AE
  8
0
  6
CONTINUOUS
 62
     7
 10
156.7397619603
 20
195.9916923749
 30
0.0
 11
158.1345553515
 21
195.9916923749
 31
0.0
  0
LINE
  5
4AF
  8
0
  6
CONTINUOUS
 62
     7
 10
158.1345553515
 20
205.7916924911
 30
0.0
 11
168.7122042296
 21
205.7916924911
 31
0.0
  0
LINE
  5
4B0
  8
0
  6
CONTINUOUS
 62
     7
 10
158.1345553515
 20
246.1916909176
 30
0.0
 11
168.7122042296
 21
246.1916909176
 31
0.0
  0
LINE
  5
4B1
  8
0
  6
CONTINUOUS
 62
     7
 10
154.9122090457
 20
248.0710942852
 30
0.0
 11
154.9122090457
 21
200.2416916746
 31
0.0
  0
POLYLINE
  5
4B2
  8
0
  6
CONTINUOUS
 62
     7
 66
     1
 10
0.0
 20
0.0
 30
0.0
 70
   128
  0
VERTEX
  5
83E
  8
0
  6
CONTINUOUS
 62
     7
 10
154.9122090457
 20
248.0710942852
 30
0.0
  0
VERTEX
  5
83F
  8
0
  6
CONTINUOUS
 62
     7
 10
156.0033614752
 20
250.2487090039
 30
0.0
  0
VERTEX
  5
840
  8
0
  6
CONTINUOUS
 62
     7
 10
156.4122046349
 20
251.0526359635
 30
0.0
  0
SEQEND
  5
8B0
  8
0
  6
CONTINUOUS
 62
     7
  0
LINE
  5
4B3
  8
0
  6
CONTINUOUS
 62
     7
 10
157.193070185
 20
250.9916920769
 30
0.0
 11
168.7122042296
 21
250.9916920769
 31
0.0
  0
LINE
  5
4B4
  8
0
  6
CONTINUOUS
 62
     7
 10
157.193070185
 20
200.9916913318
 30
0.0
 11
168.7122042296
 21
200.9916913318
 31
0.0
  0
LINE
  5
4B5
  8
0
  6
CONTINUOUS
 62
     7
 10
158.1345553515
 20
255.9916910338
 30
0.0
 11
168.7122042296
 21
255.9916910338
 31
0.0
  0
LINE
  5
4B6
  8
0
  6
CONTINUOUS
 62
     7
 10
158.1345553515
 20
195.9916923749
 30
0.0
 11
168.7122042296
 21
195.9916923749
 31
0.0
  0
LINE
  5
4B7
  8
0
  6
CONTINUOUS
 62
     7
 10
157.3382521985
 20
255.9916910338
 30
0.0
 11
154.9122090457
 21
255.9916910338
 31
0.0
  0
LINE
  5
4B8
  8
0
  6
CONTINUOUS
 62
     7
 10
154.9122090457
 20
255.9916910338
 30
0.0
 11
154.9122090457
 21
248.0710942852
 31
0.0
  0
LINE
  5
4B9
  8
0
  6
CONTINUOUS
 62
     7
 10
232.3122079489
 20
266.9916928368
 30
0.0
 11
232.3122079489
 21
265.4532187241
 31
0.0
  0
LINE
  5
4BA
  8
0
  6
CONTINUOUS
 62
     7
 10
244.6122075436
 20
260.9591365414
 30
0.0
 11
244.6122075436
 21
260.2348357993
 31
0.0
  0
POLYLINE
  5
4BB
  8
0
  6
CONTINUOUS
 62
     7
 66
     1
 10
0.0
 20
0.0
 30
0.0
 70
   128
  0
VERTEX
  5
841
  8
0
  6
CONTINUOUS
 62
     7
 10
240.6122106133
 20
261.404435392
 30
0.0
  0
VERTEX
  5
842
  8
0
  6
CONTINUOUS
 62
     7
 10
241.9713716028
 20
260.7958794194
 30
0.0
  0
VERTEX
  5
843
  8
0
  6
CONTINUOUS
 62
     7
 10
243.2198877452
 20
260.3472725111
 30
0.0
  0
VERTEX
  5
844
  8
0
  6
CONTINUOUS
 62
     7
 10
244.0840209839
 20
260.1395689505
 30
0.0
  0
VERTEX
  5
845
  8
0
  6
CONTINUOUS
 62
     7
 10
244.5284630177
 20
260.1393677848
 30
0.0
  0
VERTEX
  5
846
  8
0
  6
CONTINUOUS
 62
     7
 10
244.6122075436
 20
260.2348357993
 30
0.0
  0
SEQEND
  5
8B1
  8
0
  6
CONTINUOUS
 62
     7
  0
LINE
  5
4BC
  8
0
  6
CONTINUOUS
 62
     7
 10
240.6122106133
 20
261.404435392
 30
0.0
 11
232.3122079489
 21
265.4532187241
 31
0.0
  0
LINE
  5
4BD
  8
0
  6
CONTINUOUS
 62
     7
 10
232.3122079489
 20
265.4532187241
 30
0.0
 11
216.1122093914
 21
265.4532187241
 31
0.0
  0
LINE
  5
4BE
  8
0
  6
CONTINUOUS
 62
     7
 10
216.1122093914
 20
265.4532187241
 30
0.0
 11
216.1122093914
 21
266.9916928368
 31
0.0
  0
POLYLINE
  5
4BF
  8
0
  6
CONTINUOUS
 62
     7
 66
     1
 10
0.0
 20
0.0
 30
0.0
 70
   128
  0
VERTEX
  5
847
  8
0
  6
CONTINUOUS
 62
     7
 10
219.8622058151
 20
266.9916928368
 30
0.0
  0
VERTEX
  5
848
  8
0
  6
CONTINUOUS
 62
     7
 10
220.1568390248
 20
266.9666290837
 30
0.0
  0
VERTEX
  5
849
  8
0
  6
CONTINUOUS
 62
     7
 10
221.0069353697
 20
266.9023827272
 30
0.0
  0
VERTEX
  5
84A
  8
0
  6
CONTINUOUS
 62
     7
 10
222.3204280255
 20
266.8267258066
 30
0.0
  0
VERTEX
  5
84B
  8
0
  6
CONTINUOUS
 62
     7
 10
223.9517699001
 20
266.7728283065
 30
0.0
  0
VERTEX
  5
84C
  8
0
  6
CONTINUOUS
 62
     7
 10
225.7104645488
 20
266.7645581621
 30
0.0
  0
VERTEX
  5
84D
  8
0
  6
CONTINUOUS
 62
     7
 10
227.3970077751
 20
266.8052159804
 30
0.0
  0
VERTEX
  5
84E
  8
0
  6
CONTINUOUS
 62
     7
 10
228.8289870141
 20
266.8770135003
 30
0.0
  0
VERTEX
  5
84F
  8
0
  6
CONTINUOUS
 62
     7
 10
229.8470417974
 20
266.9488110202
 30
0.0
  0
VERTEX
  5
850
  8
0
  6
CONTINUOUS
 62
     7
 10
230.3310538647
 20
266.9889733749
 30
0.0
  0
VERTEX
  5
851
  8
0
  6
CONTINUOUS
 62
     7
 10
230.2971239207
 20
266.9860527473
 30
0.0
  0
SEQEND
  5
8B2
  8
0
  6
CONTINUOUS
 62
     7
  0
LINE
  5
4C0
  8
0
  6
CONTINUOUS
 62
     7
 10
216.1122093914
 20
265.4532187241
 30
0.0
 11
216.1122093914
 21
255.9916910338
 31
0.0
  0
LINE
  5
4C1
  8
0
  6
CONTINUOUS
 62
     7
 10
240.6122106133
 20
255.9916910338
 30
0.0
 11
240.6122106133
 21
261.404435392
 31
0.0
  0
LINE
  5
4C2
  8
0
  6
CONTINUOUS
 62
     7
 10
244.6122075436
 20
260.2348357993
 30
0.0
 11
244.6122075436
 21
255.9916910338
 31
0.0
  0
LINE
  5
4C3
  8
0
  6
CONTINUOUS
 62
     7
 10
230.3622121928
 20
268.9916931647
 30
0.0
 11
219.8622058151
 21
268.9916931647
 31
0.0
  0
LINE
  5
4C4
  8
0
  6
CONTINUOUS
 62
     7
 10
218.2122076867
 20
536.3917008596
 30
0.0
 11
232.0122103212
 21
536.3917008596
 31
0.0
  0
LINE
  5
4C5
  8
0
  6
CONTINUOUS
 62
     7
 10
232.0122103212
 20
537.391687985
 30
0.0
 11
218.2122076867
 21
537.391687985
 31
0.0
  0
LINE
  5
4C6
  8
0
  6
CONTINUOUS
 62
     7
 10
218.2122076867
 20
536.3917008596
 30
0.0
 11
218.2122076867
 21
537.391687985
 31
0.0
  0
LINE
  5
4C7
  8
0
  6
CONTINUOUS
 62
     7
 10
232.0122103212
 20
536.3917008596
 30
0.0
 11
232.0122103212
 21
537.391687985
 31
0.0
  0
LINE
  5
4C8
  8
0
  6
CONTINUOUS
 62
     7
 10
229.0622125385
 20
547.0916882711
 30
0.0
 11
229.5622061012
 21
547.0916882711
 31
0.0
  0
LINE
  5
4C9
  8
0
  6
CONTINUOUS
 62
     7
 10
229.5622061012
 20
537.391687985
 30
0.0
 11
229.5622061012
 21
547.0916882711
 31
0.0
  0
LINE
  5
4CA
  8
0
  6
CONTINUOUS
 62
     7
 10
229.0622125385
 20
547.0916882711
 30
0.0
 11
229.0622125385
 21
537.391687985
 31
0.0
  0
LINE
  5
4CB
  8
0
  6
CONTINUOUS
 62
     7
 10
225.0872085807
 20
547.0916882711
 30
0.0
 11
225.0872085807
 21
537.391687985
 31
0.0
  0
LINE
  5
4CC
  8
0
  6
CONTINUOUS
 62
     7
 10
224.5872075675
 20
547.0916882711
 30
0.0
 11
224.5872075675
 21
537.391687985
 31
0.0
  0
LINE
  5
4CD
  8
0
  6
CONTINUOUS
 62
     7
 10
224.5872075675
 20
547.0916882711
 30
0.0
 11
225.0872085807
 21
547.0916882711
 31
0.0
  0
LINE
  5
4CE
  8
0
  6
CONTINUOUS
 62
     7
 10
229.0122116921
 20
547.0916882711
 30
0.0
 11
229.0122116921
 21
537.391687985
 31
0.0
  0
LINE
  5
4CF
  8
0
  6
CONTINUOUS
 62
     7
 10
228.5122106788
 20
547.0916882711
 30
0.0
 11
228.5122106788
 21
537.391687985
 31
0.0
  0
LINE
  5
4D0
  8
0
  6
CONTINUOUS
 62
     7
 10
228.5122106788
 20
547.0916882711
 30
0.0
 11
229.0122116921
 21
547.0916882711
 31
0.0
  0
LINE
  5
4D1
  8
0
  6
CONTINUOUS
 62
     7
 10
225.6372104404
 20
537.391687985
 30
0.0
 11
225.6372104404
 21
547.0916882711
 31
0.0
  0
LINE
  5
4D2
  8
0
  6
CONTINUOUS
 62
     7
 10
225.1372094271
 20
537.391687985
 30
0.0
 11
225.1372094271
 21
547.0916882711
 31
0.0
  0
LINE
  5
4D3
  8
0
  6
CONTINUOUS
 62
     7
 10
225.1372094271
 20
547.0916882711
 30
0.0
 11
225.6372104404
 21
547.0916882711
 31
0.0
  0
LINE
  5
4D4
  8
0
  6
CONTINUOUS
 62
     7
 10
221.16221292
 20
547.0916882711
 30
0.0
 11
221.16221292
 21
537.391687985
 31
0.0
  0
LINE
  5
4D5
  8
0
  6
CONTINUOUS
 62
     7
 10
220.6622119067
 20
547.0916882711
 30
0.0
 11
220.6622119067
 21
537.391687985
 31
0.0
  0
LINE
  5
4D6
  8
0
  6
CONTINUOUS
 62
     7
 10
221.16221292
 20
547.0916882711
 30
0.0
 11
220.6622119067
 21
547.0916882711
 31
0.0
  0
LINE
  5
4D7
  8
0
  6
CONTINUOUS
 62
     7
 10
230.1122079609
 20
537.391687985
 30
0.0
 11
230.1122079609
 21
547.0916882711
 31
0.0
  0
LINE
  5
4D8
  8
0
  6
CONTINUOUS
 62
     7
 10
229.6122069476
 20
537.391687985
 30
0.0
 11
229.6122069476
 21
547.0916882711
 31
0.0
  0
LINE
  5
4D9
  8
0
  6
CONTINUOUS
 62
     7
 10
229.6122069476
 20
547.0916882711
 30
0.0
 11
230.1122079609
 21
547.0916882711
 31
0.0
  0
LINE
  5
4DA
  8
0
  6
CONTINUOUS
 62
     7
 10
229.0122116921
 20
547.0916882711
 30
0.0
 11
229.0622125385
 21
547.0916882711
 31
0.0
  0
LINE
  5
4DB
  8
0
  6
CONTINUOUS
 62
     7
 10
218.2122076867
 20
547.0916882711
 30
0.0
 11
220.6622119067
 21
547.0916882711
 31
0.0
  0
LINE
  5
4DC
  8
0
  6
CONTINUOUS
 62
     7
 10
218.2122076867
 20
547.0916882711
 30
0.0
 11
218.2122076867
 21
537.391687985
 31
0.0
  0
LINE
  5
4DD
  8
0
  6
CONTINUOUS
 62
     7
 10
228.5122106788
 20
547.0916882711
 30
0.0
 11
225.6372104404
 21
547.0916882711
 31
0.0
  0
LINE
  5
4DE
  8
0
  6
CONTINUOUS
 62
     7
 10
225.0872085807
 20
547.0916882711
 30
0.0
 11
225.1372094271
 21
547.0916882711
 31
0.0
  0
LINE
  5
4DF
  8
0
  6
CONTINUOUS
 62
     7
 10
232.0122103212
 20
547.0916882711
 30
0.0
 11
230.1122079609
 21
547.0916882711
 31
0.0
  0
LINE
  5
4E0
  8
0
  6
CONTINUOUS
 62
     7
 10
232.0122103212
 20
547.0916882711
 30
0.0
 11
232.0122103212
 21
537.391687985
 31
0.0
  0
LINE
  5
4E1
  8
0
  6
CONTINUOUS
 62
     7
 10
229.5622061012
 20
547.0916882711
 30
0.0
 11
229.6122069476
 21
547.0916882711
 31
0.0
  0
LINE
  5
4E2
  8
0
  6
CONTINUOUS
 62
     7
 10
224.5872075675
 20
547.0916882711
 30
0.0
 11
221.16221292
 21
547.0916882711
 31
0.0
  0
LINE
  5
4E3
  8
0
  6
CONTINUOUS
 62
     7
 10
229.1122059343
 20
501.3917044359
 30
0.0
 11
221.1122120736
 21
501.3917044359
 31
0.0
  0
LINE
  5
4E4
  8
0
  6
CONTINUOUS
 62
     7
 10
229.6122069476
 20
476.3916984754
 30
0.0
 11
220.6122110603
 21
476.3916984754
 31
0.0
  0
LINE
  5
4E5
  8
0
  6
CONTINUOUS
 62
     7
 10
224.1622115491
 20
547.0916882711
 30
0.0
 11
224.1622115491
 21
555.9917048174
 31
0.0
  0
LINE
  5
4E6
  8
0
  6
CONTINUOUS
 62
     7
 10
223.4122063039
 20
555.9917048174
 30
0.0
 11
223.4122063039
 21
547.0916882711
 31
0.0
  0
LINE
  5
4E7
  8
0
  6
CONTINUOUS
 62
     7
 10
224.1622115491
 20
555.9917048174
 30
0.0
 11
223.4122063039
 21
555.9917048174
 31
0.0
  0
LINE
  5
4E8
  8
0
  6
CONTINUOUS
 62
     7
 10
228.3622081397
 20
547.0916882711
 30
0.0
 11
228.3622081397
 21
555.9917048174
 31
0.0
  0
LINE
  5
4E9
  8
0
  6
CONTINUOUS
 62
     7
 10
227.612210345
 20
555.9917048174
 30
0.0
 11
227.612210345
 21
547.0916882711
 31
0.0
  0
LINE
  5
4EA
  8
0
  6
CONTINUOUS
 62
     7
 10
228.3622081397
 20
555.9917048174
 30
0.0
 11
227.612210345
 21
555.9917048174
 31
0.0
  0
LINE
  5
4EB
  8
0
  6
CONTINUOUS
 62
     7
 10
222.6122076628
 20
547.0916882711
 30
0.0
 11
222.6122076628
 21
555.9917048174
 31
0.0
  0
LINE
  5
4EC
  8
0
  6
CONTINUOUS
 62
     7
 10
219.2122097132
 20
555.9917048174
 30
0.0
 11
222.6122076628
 21
555.9917048174
 31
0.0
  0
LINE
  5
4ED
  8
0
  6
CONTINUOUS
 62
     7
 10
219.2122097132
 20
555.9917048174
 30
0.0
 11
219.2122097132
 21
547.0916882711
 31
0.0
  0
LINE
  5
4EE
  8
0
  6
CONTINUOUS
 62
     7
 10
231.0122082946
 20
547.0916882711
 30
0.0
 11
231.0122082946
 21
555.9917048174
 31
0.0
  0
LINE
  5
4EF
  8
0
  6
CONTINUOUS
 62
     7
 10
230.2622105
 20
555.9917048174
 30
0.0
 11
230.2622105
 21
547.0916882711
 31
0.0
  0
LINE
  5
4F0
  8
0
  6
CONTINUOUS
 62
     7
 10
230.2622105
 20
555.9917048174
 30
0.0
 11
231.0122082946
 21
555.9917048174
 31
0.0
  0
LINE
  5
4F1
  8
0
  6
CONTINUOUS
 62
     7
 10
226.0622064588
 20
555.9917048174
 30
0.0
 11
226.0622064588
 21
547.0916882711
 31
0.0
  0
LINE
  5
4F2
  8
0
  6
CONTINUOUS
 62
     7
 10
224.1622115491
 20
555.9917048174
 30
0.0
 11
226.0622064588
 21
555.9917048174
 31
0.0
  0
LINE
  5
4F3
  8
0
  6
CONTINUOUS
 62
     7
 10
228.3622081397
 20
555.9917048174
 30
0.0
 11
230.2622105
 21
555.9917048174
 31
0.0
  0
LINE
  5
4F4
  8
0
  6
CONTINUOUS
 62
     7
 10
226.812211704
 20
547.0916882711
 30
0.0
 11
226.812211704
 21
555.9917048174
 31
0.0
  0
LINE
  5
4F5
  8
0
  6
CONTINUOUS
 62
     7
 10
226.0622064588
 20
555.9917048174
 30
0.0
 11
226.812211704
 21
555.9917048174
 31
0.0
  0
LINE
  5
4F6
  8
0
  6
CONTINUOUS
 62
     7
 10
221.6122056363
 20
516.3916901308
 30
0.0
 11
228.6122123716
 21
516.3916901308
 31
0.0
  0
LINE
  5
4F7
  8
0
  6
CONTINUOUS
 62
     7
 10
207.9122121451
 20
265.5664302963
 30
0.0
 11
195.9122101782
 21
265.5664302963
 31
0.0
  0
POLYLINE
  5
4F8
  8
0
  6
CONTINUOUS
 62
     7
 66
     1
 10
0.0
 20
0.0
 30
0.0
 70
   128
  0
VERTEX
  5
852
  8
0
  6
CONTINUOUS
 62
     7
 10
196.9122122047
 20
266.9916928368
 30
0.0
  0
VERTEX
  5
853
  8
0
  6
CONTINUOUS
 62
     7
 10
197.1929277299
 20
266.9689499396
 30
0.0
  0
VERTEX
  5
854
  8
0
  6
CONTINUOUS
 62
     7
 10
198.0029325006
 20
266.910656597
 30
0.0
  0
VERTEX
  5
855
  8
0
  6
CONTINUOUS
 62
     7
 10
199.2541606543
 20
266.8420479256
 30
0.0
  0
VERTEX
  5
856
  8
0
  6
CONTINUOUS
 62
     7
 10
200.8077333687
 20
266.7931944686
 30
0.0
  0
VERTEX
  5
857
  8
0
  6
CONTINUOUS
 62
     7
 10
202.4828250525
 20
266.785717811
 30
0.0
  0
VERTEX
  5
858
  8
0
  6
CONTINUOUS
 62
     7
 10
204.0895278571
 20
266.8226242619
 30
0.0
  0
VERTEX
  5
859
  8
0
  6
CONTINUOUS
 62
     7
 10
205.4533715365
 20
266.8877684134
 30
0.0
  0
VERTEX
  5
85A
  8
0
  6
CONTINUOUS
 62
     7
 10
206.4223940489
 20
266.9528604108
 30
0.0
  0
VERTEX
  5
85B
  8
0
  6
CONTINUOUS
 62
     7
 10
206.8827207205
 20
266.9892415958
 30
0.0
  0
VERTEX
  5
85C
  8
0
  6
CONTINUOUS
 62
     7
 10
206.8503106949
 20
266.9865817386
 30
0.0
  0
SEQEND
  5
8B3
  8
0
  6
CONTINUOUS
 62
     7
  0
LINE
  5
4F9
  8
0
  6
CONTINUOUS
 62
     7
 10
195.9122101782
 20
265.5664302963
 30
0.0
 11
195.9122101782
 21
266.9916928368
 31
0.0
  0
LINE
  5
4FA
  8
0
  6
CONTINUOUS
 62
     7
 10
207.9122121451
 20
265.5664302963
 30
0.0
 11
207.9122121451
 21
266.9916928368
 31
0.0
  0
LINE
  5
4FB
  8
0
  6
CONTINUOUS
 62
     7
 10
195.9122101782
 20
265.5664302963
 30
0.0
 11
195.9122101782
 21
255.9916910338
 31
0.0
  0
LINE
  5
4FC
  8
0
  6
CONTINUOUS
 62
     7
 10
207.9122121451
 20
265.5664302963
 30
0.0
 11
207.9122121451
 21
255.9916910338
 31
0.0
  0
LINE
  5
4FD
  8
0
  6
CONTINUOUS
 62
     7
 10
206.9122101185
 20
268.9916931647
 30
0.0
 11
196.9122122047
 21
268.9916931647
 31
0.0
  0
LINE
  5
4FE
  8
0
  6
CONTINUOUS
 62
     7
 10
167.4122120259
 20
265.5664302963
 30
0.0
 11
155.4122026084
 21
265.5664302963
 31
0.0
  0
POLYLINE
  5
4FF
  8
0
  6
CONTINUOUS
 62
     7
 66
     1
 10
0.0
 20
0.0
 30
0.0
 70
   128
  0
VERTEX
  5
85D
  8
0
  6
CONTINUOUS
 62
     7
 10
156.4122046349
 20
266.9916928368
 30
0.0
  0
VERTEX
  5
85E
  8
0
  6
CONTINUOUS
 62
     7
 10
156.6929276107
 20
266.9689499396
 30
0.0
  0
VERTEX
  5
85F
  8
0
  6
CONTINUOUS
 62
     7
 10
157.5029249308
 20
266.910656597
 30
0.0
  0
VERTEX
  5
860
  8
0
  6
CONTINUOUS
 62
     7
 10
158.7541605351
 20
266.8420479256
 30
0.0
  0
VERTEX
  5
861
  8
0
  6
CONTINUOUS
 62
     7
 10
160.3077407
 20
266.7931944686
 30
0.0
  0
VERTEX
  5
862
  8
0
  6
CONTINUOUS
 62
     7
 10
161.9828249333
 20
266.785717811
 30
0.0
  0
VERTEX
  5
863
  8
0
  6
CONTINUOUS
 62
     7
 10
163.5895277379
 20
266.8226242619
 30
0.0
  0
VERTEX
  5
864
  8
0
  6
CONTINUOUS
 62
     7
 10
164.9533714173
 20
266.8877684134
 30
0.0
  0
VERTEX
  5
865
  8
0
  6
CONTINUOUS
 62
     7
 10
165.9223939297
 20
266.9528604108
 30
0.0
  0
VERTEX
  5
866
  8
0
  6
CONTINUOUS
 62
     7
 10
166.3827206013
 20
266.9892415958
 30
0.0
  0
VERTEX
  5
867
  8
0
  6
CONTINUOUS
 62
     7
 10
166.3503105757
 20
266.9865817386
 30
0.0
  0
SEQEND
  5
8B4
  8
0
  6
CONTINUOUS
 62
     7
  0
LINE
  5
500
  8
0
  6
CONTINUOUS
 62
     7
 10
155.4122026084
 20
265.5664302963
 30
0.0
 11
155.4122026084
 21
266.9916928368
 31
0.0
  0
LINE
  5
501
  8
0
  6
CONTINUOUS
 62
     7
 10
167.4122120259
 20
265.5664302963
 30
0.0
 11
167.4122120259
 21
266.9916928368
 31
0.0
  0
LINE
  5
502
  8
0
  6
CONTINUOUS
 62
     7
 10
155.4122026084
 20
265.5664302963
 30
0.0
 11
155.4122026084
 21
255.9916910338
 31
0.0
  0
LINE
  5
503
  8
0
  6
CONTINUOUS
 62
     7
 10
167.4122120259
 20
265.5664302963
 30
0.0
 11
167.4122120259
 21
255.9916910338
 31
0.0
  0
LINE
  5
504
  8
0
  6
CONTINUOUS
 62
     7
 10
166.4122099993
 20
268.9916931647
 30
0.0
 11
156.4122046349
 21
268.9916931647
 31
0.0
  0
LINE
  5
505
  8
0
  6
CONTINUOUS
 62
     7
 10
152.2122080443
 20
512.9916921812
 30
0.0
 11
152.2122080443
 21
517.2266021925
 31
0.0
  0
ARC
  5
506
  8
0
  6
CONTINUOUS
 62
     7
 10
157.2122092841
 20
517.2265899194
 30
0.0
 40
5.000000000000704
 50
131.2570117043
 51
180.0
  0
LINE
  5
507
  8
0
  6
CONTINUOUS
 62
     7
 10
153.9150233386
 20
520.9853903013
 30
0.0
 11
154.9207921145
 21
521.867628451
 31
0.0
  0
LINE
  5
508
  8
0
  6
CONTINUOUS
 62
     7
 10
154.9207921145
 20
521.867628451
 30
0.0
 11
154.9207921145
 21
526.9916907507
 31
0.0
  0
LINE
  5
509
  8
0
  6
CONTINUOUS
 62
     7
 10
154.9207921145
 20
526.9916907507
 30
0.0
 11
152.9207880614
 21
528.9916948038
 31
0.0
  0
LINE
  5
50A
  8
0
  6
CONTINUOUS
 62
     7
 10
152.9207880614
 20
528.9916948038
 30
0.0
 11
152.0122046588
 21
528.9916948038
 31
0.0
  0
LINE
  5
50B
  8
0
  6
CONTINUOUS
 62
     7
 10
152.0122046588
 20
528.9916948038
 30
0.0
 11
152.0122046588
 21
545.4916909891
 31
0.0
  0
LINE
  5
50C
  8
0
  6
CONTINUOUS
 62
     7
 10
152.0122046588
 20
545.4916909891
 30
0.0
 11
170.8122099755
 21
545.4916909891
 31
0.0
  0
LINE
  5
50D
  8
0
  6
CONTINUOUS
 62
     7
 10
170.8122099755
 20
545.4916909891
 30
0.0
 11
170.8122099755
 21
528.9916948038
 31
0.0
  0
LINE
  5
50E
  8
0
  6
CONTINUOUS
 62
     7
 10
170.8122099755
 20
528.9916948038
 30
0.0
 11
169.9036265729
 21
528.9916948038
 31
0.0
  0
LINE
  5
50F
  8
0
  6
CONTINUOUS
 62
     7
 10
169.9036265729
 20
528.9916948038
 30
0.0
 11
167.9036374209
 21
526.9916907507
 31
0.0
  0
LINE
  5
510
  8
0
  6
CONTINUOUS
 62
     7
 10
167.9036374209
 20
526.9916907507
 30
0.0
 11
167.9036374209
 21
521.867628451
 31
0.0
  0
LINE
  5
511
  8
0
  6
CONTINUOUS
 62
     7
 10
167.9036374209
 20
521.867628451
 30
0.0
 11
168.9093912957
 21
520.9853903013
 31
0.0
  0
ARC
  5
512
  8
0
  6
CONTINUOUS
 62
     7
 10
165.6122092841
 20
517.2265899194
 30
0.0
 40
5.000000000001148
 50
0.0
 51
48.7429882957
  0
LINE
  5
513
  8
0
  6
CONTINUOUS
 62
     7
 10
170.61220659
 20
517.2266021925
 30
0.0
 11
170.61220659
 21
512.9916921812
 31
0.0
  0
ARC
  5
514
  8
0
  6
CONTINUOUS
 62
     7
 10
170.1122092841
 20
512.9916917044
 30
0.0
 40
0.5
 50
270.0
 51
0.0
  0
LINE
  5
515
  8
0
  6
CONTINUOUS
 62
     7
 10
170.1122130273
 20
512.4916986185
 30
0.0
 11
152.7122165082
 21
512.4916986185
 31
0.0
  0
ARC
  5
516
  8
0
  6
CONTINUOUS
 62
     7
 10
152.7122092841
 20
512.9916917044
 30
0.0
 40
0.5
 50
180.0
 51
270.0
  0
LINE
  5
517
  8
0
  6
CONTINUOUS
 62
     7
 10
155.7622159836
 20
555.9917048174
 30
0.0
 11
155.7622159836
 21
545.4916909891
 31
0.0
  0
LINE
  5
518
  8
0
  6
CONTINUOUS
 62
     7
 10
155.7622159836
 20
555.9917048174
 30
0.0
 11
156.1622078536
 21
555.9917048174
 31
0.0
  0
LINE
  5
519
  8
0
  6
CONTINUOUS
 62
     7
 10
156.1622078536
 20
555.9917048174
 30
0.0
 11
156.1622078536
 21
545.4916909891
 31
0.0
  0
LINE
  5
51A
  8
0
  6
CONTINUOUS
 62
     7
 10
156.1622078536
 20
555.9917048174
 30
0.0
 11
165.0622094987
 21
555.9917048174
 31
0.0
  0
LINE
  5
51B
  8
0
  6
CONTINUOUS
 62
     7
 10
165.0622094987
 20
555.9917048174
 30
0.0
 11
165.0622094987
 21
545.4916909891
 31
0.0
  0
LINE
  5
51C
  8
0
  6
CONTINUOUS
 62
     7
 10
165.0622094987
 20
555.9917048174
 30
0.0
 11
165.7658423302
 21
555.9917048174
 31
0.0
  0
LINE
  5
51D
  8
0
  6
CONTINUOUS
 62
     7
 10
165.7658423302
 20
555.9917048174
 30
0.0
 11
165.7658423302
 21
545.4916909891
 31
0.0
  0
LINE
  5
51E
  8
0
  6
CONTINUOUS
 62
     7
 10
166.9436599133
 20
555.9917048174
 30
0.0
 11
166.9436599133
 21
545.4916909891
 31
0.0
  0
LINE
  5
51F
  8
0
  6
CONTINUOUS
 62
     7
 10
165.7658423302
 20
555.9917048174
 30
0.0
 11
166.9436599133
 21
555.9917048174
 31
0.0
  0
LINE
  5
520
  8
0
  6
CONTINUOUS
 62
     7
 10
152.0122046588
 20
549.8917058664
 30
0.0
 11
154.5122022746
 21
549.8917058664
 31
0.0
  0
LINE
  5
521
  8
0
  6
CONTINUOUS
 62
     7
 10
154.5122022746
 20
549.8917058664
 30
0.0
 11
154.5122022746
 21
545.4916909891
 31
0.0
  0
LINE
  5
522
  8
0
  6
CONTINUOUS
 62
     7
 10
152.0122046588
 20
545.4916909891
 30
0.0
 11
152.0122046588
 21
549.8917058664
 31
0.0
  0
LINE
  5
523
  8
0
  6
CONTINUOUS
 62
     7
 10
168.3122123597
 20
549.8917058664
 30
0.0
 11
170.8122099755
 21
549.8917058664
 31
0.0
  0
LINE
  5
524
  8
0
  6
CONTINUOUS
 62
     7
 10
168.3122123597
 20
545.4916909891
 30
0.0
 11
168.3122123597
 21
549.8917058664
 31
0.0
  0
LINE
  5
525
  8
0
  6
CONTINUOUS
 62
     7
 10
170.8122099755
 20
549.8917058664
 30
0.0
 11
170.8122099755
 21
545.4916909891
 31
0.0
  0
LINE
  5
526
  8
0
  6
CONTINUOUS
 62
     7
 10
168.4036309836
 20
526.1416987139
 30
0.0
 11
169.6536297915
 21
522.8416875559
 31
0.0
  0
LINE
  5
527
  8
0
  6
CONTINUOUS
 62
     7
 10
169.6536297915
 20
522.8416875559
 30
0.0
 11
169.6536297915
 21
522.2916856962
 31
0.0
  0
ARC
  5
528
  8
0
  6
CONTINUOUS
 62
     7
 10
169.3536306403
 20
522.2916917044
 30
0.0
 40
0.3000000000000398
 50
270.0
 51
0.0
  0
LINE
  5
529
  8
0
  6
CONTINUOUS
 62
     7
 10
169.3536247132
 20
521.9916955191
 30
0.0
 11
168.3036292908
 21
521.9916955191
 31
0.0
  0
LINE
  5
52A
  8
0
  6
CONTINUOUS
 62
     7
 10
168.3036292908
 20
521.9916955191
 30
0.0
 11
167.9036374209
 21
522.3917022901
 31
0.0
  0
LINE
  5
52B
  8
0
  6
CONTINUOUS
 62
     7
 10
170.7536335108
 20
528.9916948038
 30
0.0
 11
168.4036309836
 21
526.6416922766
 31
0.0
  0
LINE
  5
52C
  8
0
  6
CONTINUOUS
 62
     7
 10
168.4036309836
 20
526.6416922766
 30
0.0
 11
168.4036309836
 21
526.1416987139
 31
0.0
  0
LINE
  5
52D
  8
0
  6
CONTINUOUS
 62
     7
 10
154.9207921145
 20
522.3917022901
 30
0.0
 11
154.5207853434
 21
521.9916955191
 31
0.0
  0
LINE
  5
52E
  8
0
  6
CONTINUOUS
 62
     7
 10
154.5207853434
 20
521.9916955191
 30
0.0
 11
153.4707899211
 21
521.9916955191
 31
0.0
  0
ARC
  5
52F
  8
0
  6
CONTINUOUS
 62
     7
 10
153.4707879278
 20
522.2916917044
 30
0.0
 40
0.3000000000000682
 50
180.0
 51
270.0
  0
LINE
  5
530
  8
0
  6
CONTINUOUS
 62
     7
 10
153.1707848427
 20
522.2916856962
 30
0.0
 11
153.1707848427
 21
522.8416875559
 31
0.0
  0
LINE
  5
531
  8
0
  6
CONTINUOUS
 62
     7
 10
153.1707848427
 20
522.8416875559
 30
0.0
 11
154.4207836507
 21
526.1416987139
 31
0.0
  0
LINE
  5
532
  8
0
  6
CONTINUOUS
 62
     7
 10
154.4207836507
 20
526.1416987139
 30
0.0
 11
154.4207836507
 21
526.6416922766
 31
0.0
  0
LINE
  5
533
  8
0
  6
CONTINUOUS
 62
     7
 10
154.4207836507
 20
526.6416922766
 30
0.0
 11
152.0707811234
 21
528.9916948038
 31
0.0
  0
LINE
  5
534
  8
0
  6
CONTINUOUS
 62
     7
 10
167.0622135518
 20
555.9917048174
 30
0.0
 11
167.0622135518
 21
545.4916909891
 31
0.0
  0
LINE
  5
535
  8
0
  6
CONTINUOUS
 62
     7
 10
166.9436599133
 20
555.9917048174
 30
0.0
 11
167.0622135518
 21
555.9917048174
 31
0.0
  0
LINE
  5
536
  8
0
  6
CONTINUOUS
 62
     7
 10
169.9755991814
 20
522.8416875559
 30
0.0
 11
169.9755991814
 21
522.2916856962
 31
0.0
  0
ARC
  5
537
  8
0
  6
CONTINUOUS
 62
     7
 10
169.6756003373
 20
522.2916917044
 30
0.0
 40
0.2999999999999545
 50
270.0
 51
0.0
  0
LINE
  5
538
  8
0
  6
CONTINUOUS
 62
     7
 10
169.6536297915
 20
522.8416875559
 30
0.0
 11
169.9755991814
 21
522.8416875559
 31
0.0
  0
LINE
  5
539
  8
0
  6
CONTINUOUS
 62
     7
 10
169.3536247132
 20
521.9916955191
 30
0.0
 11
169.6755941031
 21
521.9916955191
 31
0.0
  0
LINE
  5
53A
  8
0
  6
CONTINUOUS
 62
     7
 10
152.8488154528
 20
522.2916856962
 30
0.0
 11
152.8488154528
 21
522.8416875559
 31
0.0
  0
LINE
  5
53B
  8
0
  6
CONTINUOUS
 62
     7
 10
152.8488154528
 20
522.8416875559
 30
0.0
 11
153.1707848427
 21
522.8416875559
 31
0.0
  0
ARC
  5
53C
  8
0
  6
CONTINUOUS
 62
     7
 10
153.1488182309
 20
522.2916917044
 30
0.0
 40
0.3000000000000398
 50
180.0
 51
270.0
  0
LINE
  5
53D
  8
0
  6
CONTINUOUS
 62
     7
 10
153.1488205311
 20
521.9916955191
 30
0.0
 11
153.4707899211
 21
521.9916955191
 31
0.0
  0
LINE
  5
53E
  8
0
  6
CONTINUOUS
 62
     7
 10
169.3316604016
 20
523.6916795927
 30
0.0
 11
169.6536297915
 21
523.6916795927
 31
0.0
  0
LINE
  5
53F
  8
0
  6
CONTINUOUS
 62
     7
 10
169.6536297915
 20
523.6916795927
 30
0.0
 11
169.6536297915
 21
522.8416875559
 31
0.0
  0
LINE
  5
540
  8
0
  6
CONTINUOUS
 62
     7
 10
153.1707848427
 20
523.6916795927
 30
0.0
 11
153.4927542327
 21
523.6916795927
 31
0.0
  0
LINE
  5
541
  8
0
  6
CONTINUOUS
 62
     7
 10
153.1707848427
 20
522.8416875559
 30
0.0
 11
153.1707848427
 21
523.6916795927
 31
0.0
  0
LINE
  5
542
  8
0
  6
CONTINUOUS
 62
     7
 10
169.0096910117
 20
524.5417014318
 30
0.0
 11
169.3316604016
 21
524.5417014318
 31
0.0
  0
LINE
  5
543
  8
0
  6
CONTINUOUS
 62
     7
 10
169.3316604016
 20
524.5417014318
 30
0.0
 11
169.3316604016
 21
523.6916795927
 31
0.0
  0
LINE
  5
544
  8
0
  6
CONTINUOUS
 62
     7
 10
153.4927542327
 20
524.5417014318
 30
0.0
 11
153.8147236226
 21
524.5417014318
 31
0.0
  0
LINE
  5
545
  8
0
  6
CONTINUOUS
 62
     7
 10
153.4927542327
 20
523.6916795927
 30
0.0
 11
153.4927542327
 21
524.5417014318
 31
0.0
  0
LINE
  5
546
  8
0
  6
CONTINUOUS
 62
     7
 10
168.6877216218
 20
525.3916934687
 30
0.0
 11
169.0096910117
 21
525.3916934687
 31
0.0
  0
LINE
  5
547
  8
0
  6
CONTINUOUS
 62
     7
 10
169.0096910117
 20
525.3916934687
 30
0.0
 11
169.0096910117
 21
524.5417014318
 31
0.0
  0
LINE
  5
548
  8
0
  6
CONTINUOUS
 62
     7
 10
153.8147236226
 20
525.3916934687
 30
0.0
 11
154.1366930125
 21
525.3916934687
 31
0.0
  0
LINE
  5
549
  8
0
  6
CONTINUOUS
 62
     7
 10
153.8147236226
 20
524.5417014318
 30
0.0
 11
153.8147236226
 21
525.3916934687
 31
0.0
  0
LINE
  5
54A
  8
0
  6
CONTINUOUS
 62
     7
 10
168.4036309836
 20
526.1416987139
 30
0.0
 11
168.6877216218
 21
526.1416987139
 31
0.0
  0
LINE
  5
54B
  8
0
  6
CONTINUOUS
 62
     7
 10
168.6877216218
 20
525.3916934687
 30
0.0
 11
168.6877216218
 21
526.1416987139
 31
0.0
  0
LINE
  5
54C
  8
0
  6
CONTINUOUS
 62
     7
 10
154.1366930125
 20
526.1416987139
 30
0.0
 11
154.1366930125
 21
525.3916934687
 31
0.0
  0
LINE
  5
54D
  8
0
  6
CONTINUOUS
 62
     7
 10
154.1366930125
 20
526.1416987139
 30
0.0
 11
154.4207836507
 21
526.1416987139
 31
0.0
  0
LINE
  5
54E
  8
0
  6
CONTINUOUS
 62
     8
 10
205.912208092
 20
500.8916810709
 30
0.0
 11
197.9122067807
 21
500.8916810709
 31
0.0
  0
LINE
  5
54F
  8
0
  6
CONTINUOUS
 62
     8
 10
205.5788765667
 20
501.3630942064
 30
0.0
 11
198.2455457566
 21
501.3630942064
 31
0.0
  0
LINE
  5
550
  8
0
  6
CONTINUOUS
 62
     8
 10
198.9122088072
 20
502.3058906752
 30
0.0
 11
204.9122060654
 21
502.3058906752
 31
0.0
  0
LINE
  5
551
  8
0
  6
CONTINUOUS
 62
     8
 10
229.6122069476
 20
500.8916810709
 30
0.0
 11
220.6122110603
 21
500.8916810709
 31
0.0
  0
LINE
  5
552
  8
0
  6
CONTINUOUS
 62
     8
 10
221.6122056363
 20
501.8916979986
 30
0.0
 11
228.6122123716
 21
501.8916979986
 31
0.0
  0
LINE
  5
553
  8
0
  6
CONTINUOUS
 62
     7
 10
300.4122093791
 20
638.6074842054
 30
0.0
 11
298.4122092841
 21
638.6074842054
 31
0.0
  0
LINE
  5
554
  8
0
  6
CONTINUOUS
 62
     7
 10
298.4122092841
 20
602.6074857551
 30
0.0
 11
300.4122093791
 21
602.6074857551
 31
0.0
  0
LINE
  5
555
  8
0
  6
CONTINUOUS
 62
     7
 10
322.4122094927
 20
625.6074848685
 30
0.0
 11
300.4122093791
 21
625.6074848685
 31
0.0
  0
LINE
  5
556
  8
0
  6
CONTINUOUS
 62
     7
 10
300.4122093791
 20
615.607485092
 30
0.0
 11
322.4122094927
 21
615.607485092
 31
0.0
  0
ARC
  5
557
  8
0
  6
CONTINUOUS
 62
     7
 10
303.7091426368
 20
620.6074849803
 30
0.0
 40
150.0
 50
190.8936827814
 51
191.5369590328
  0
ARC
  5
558
  8
0
  6
CONTINUOUS
 62
     7
 10
303.7091426368
 20
620.6074849803
 30
0.0
 40
150.0
 50
168.4630409672
 51
169.1063172186
  0
LINE
  5
559
  8
0
  6
CONTINUOUS
 62
     7
 10
156.4122046349
 20
648.9555620689
 30
0.0
 11
154.9122090457
 21
646.3574850101
 31
0.0
  0
LINE
  5
55A
  8
0
  6
CONTINUOUS
 62
     7
 10
154.9122090457
 20
594.8574849505
 30
0.0
 11
156.4122046349
 21
592.2594078917
 31
0.0
  0
LINE
  5
55B
  8
0
  6
CONTINUOUS
 62
     7
 10
224.612211716
 20
634.1074853305
 30
0.0
 11
224.612211716
 21
636.7074855704
 31
0.0
  0
LINE
  5
55C
  8
0
  6
CONTINUOUS
 62
     7
 10
217.6122124312
 20
636.7074855704
 30
0.0
 11
217.6122124312
 21
634.1074853305
 31
0.0
  0
LINE
  5
55D
  8
0
  6
CONTINUOUS
 62
     7
 10
234.0122069237
 20
634.1074853305
 30
0.0
 11
234.0122069237
 21
634.4074848208
 31
0.0
  0
LINE
  5
55E
  8
0
  6
CONTINUOUS
 62
     7
 10
228.2122056005
 20
634.4074848208
 30
0.0
 11
228.2122056005
 21
634.1074853305
 31
0.0
  0
ARC
  5
55F
  8
0
  6
CONTINUOUS
 62
     7
 10
218.9122092841
 20
637.8074849803
 30
0.0
 40
1.299999999999983
 50
90.0
 51
180.0
  0
LINE
  5
560
  8
0
  6
CONTINUOUS
 62
     7
 10
224.612211716
 20
636.7074855704
 30
0.0
 11
224.612211716
 21
637.8074855644
 31
0.0
  0
LINE
  5
561
  8
0
  6
CONTINUOUS
 62
     7
 10
217.6122124312
 20
637.8074855644
 30
0.0
 11
217.6122124312
 21
636.7074855704
 31
0.0
  0
ARC
  5
562
  8
0
  6
CONTINUOUS
 62
     7
 10
223.3122092841
 20
637.8074849803
 30
0.0
 40
1.299999999999983
 50
0.0
 51
90.0
  0
LINE
  5
563
  8
0
  6
CONTINUOUS
 62
     7
 10
291.412209068
 20
650.6074843097
 30
0.0
 11
298.4122092841
 21
650.6074843097
 31
0.0
  0
LINE
  5
564
  8
0
  6
CONTINUOUS
 62
     7
 10
298.4122092841
 20
645.3074858624
 30
0.0
 11
291.412209068
 21
645.3074858624
 31
0.0
  0
LINE
  5
565
  8
0
  6
CONTINUOUS
 62
     7
 10
291.412209068
 20
645.3074858624
 30
0.0
 11
291.412209068
 21
650.6074843097
 31
0.0
  0
LINE
  5
566
  8
0
  6
CONTINUOUS
 62
     7
 10
298.4122092841
 20
650.6074843097
 30
0.0
 11
298.4122092841
 21
645.3074858624
 31
0.0
  0
LINE
  5
567
  8
0
  6
CONTINUOUS
 62
     7
 10
291.412209068
 20
595.9074840981
 30
0.0
 11
298.4122092841
 21
595.9074840981
 31
0.0
  0
LINE
  5
568
  8
0
  6
CONTINUOUS
 62
     7
 10
291.412209068
 20
606.6074845481
 30
0.0
 11
291.412209068
 21
595.9074840981
 31
0.0
  0
LINE
  5
569
  8
0
  6
CONTINUOUS
 62
     7
 10
291.412209068
 20
606.6074845481
 30
0.0
 11
287.9122094256
 21
606.6074845481
 31
0.0
  0
LINE
  5
56A
  8
0
  6
CONTINUOUS
 62
     7
 10
291.412209068
 20
634.6074854124
 30
0.0
 11
287.9122094256
 21
634.6074854124
 31
0.0
  0
LINE
  5
56B
  8
0
  6
CONTINUOUS
 62
     7
 10
291.412209068
 20
634.6074854124
 30
0.0
 11
291.412209068
 21
645.3074858624
 31
0.0
  0
LINE
  5
56C
  8
0
  6
CONTINUOUS
 62
     7
 10
298.4122092841
 20
645.3074858624
 30
0.0
 11
298.4122092841
 21
595.9074840981
 31
0.0
  0
LINE
  5
56D
  8
0
  6
CONTINUOUS
 62
     7
 10
287.9122094256
 20
634.6074854124
 30
0.0
 11
287.9122094256
 21
606.6074845481
 31
0.0
  0
LINE
  5
56E
  8
0
  6
CONTINUOUS
 62
     7
 10
291.412209068
 20
640.8074841935
 30
0.0
 11
287.9122094256
 21
640.8074841935
 31
0.0
  0
LINE
  5
56F
  8
0
  6
CONTINUOUS
 62
     7
 10
287.9122094256
 20
640.8074841935
 30
0.0
 11
287.9122094256
 21
634.6074854124
 31
0.0
  0
LINE
  5
570
  8
0
  6
CONTINUOUS
 62
     7
 10
291.412209068
 20
600.4074857671
 30
0.0
 11
287.9122094256
 21
600.4074857671
 31
0.0
  0
LINE
  5
571
  8
0
  6
CONTINUOUS
 62
     7
 10
287.9122094256
 20
600.4074857671
 30
0.0
 11
287.9122094256
 21
606.6074845481
 31
0.0
  0
LINE
  5
572
  8
0
  6
CONTINUOUS
 62
     7
 10
298.4122092841
 20
590.6074856508
 30
0.0
 11
291.412209068
 21
590.6074856508
 31
0.0
  0
LINE
  5
573
  8
0
  6
CONTINUOUS
 62
     7
 10
291.412209068
 20
590.6074856508
 30
0.0
 11
291.412209068
 21
595.9074840981
 31
0.0
  0
LINE
  5
574
  8
0
  6
CONTINUOUS
 62
     7
 10
298.4122092841
 20
595.9074840981
 30
0.0
 11
298.4122092841
 21
590.6074856508
 31
0.0
  0
LINE
  5
575
  8
0
  6
CONTINUOUS
 62
     7
 10
291.412209068
 20
645.6074853528
 30
0.0
 11
287.9122094256
 21
645.6074853528
 31
0.0
  0
LINE
  5
576
  8
0
  6
CONTINUOUS
 62
     7
 10
287.9122094256
 20
645.6074853528
 30
0.0
 11
287.9122094256
 21
640.8074841935
 31
0.0
  0
LINE
  5
577
  8
0
  6
CONTINUOUS
 62
     7
 10
291.412209068
 20
595.6074846077
 30
0.0
 11
287.9122094256
 21
595.6074846077
 31
0.0
  0
LINE
  5
578
  8
0
  6
CONTINUOUS
 62
     7
 10
287.9122094256
 20
595.6074846077
 30
0.0
 11
287.9122094256
 21
600.4074857671
 31
0.0
  0
LINE
  5
579
  8
0
  6
CONTINUOUS
 62
     7
 10
291.412209068
 20
649.6255015123
 30
0.0
 11
287.9122094256
 21
649.6255015123
 31
0.0
  0
LINE
  5
57A
  8
0
  6
CONTINUOUS
 62
     7
 10
291.412209068
 20
650.6074843097
 30
0.0
 11
287.9122094256
 21
650.6074843097
 31
0.0
  0
LINE
  5
57B
  8
0
  6
CONTINUOUS
 62
     7
 10
287.9122094256
 20
650.6074843097
 30
0.0
 11
287.9122094256
 21
649.6255015123
 31
0.0
  0
LINE
  5
57C
  8
0
  6
CONTINUOUS
 62
     7
 10
287.9122094256
 20
649.6255015123
 30
0.0
 11
287.9122094256
 21
645.6074853528
 31
0.0
  0
LINE
  5
57D
  8
0
  6
CONTINUOUS
 62
     7
 10
291.412209068
 20
591.5894684482
 30
0.0
 11
287.9122094256
 21
591.5894684482
 31
0.0
  0
LINE
  5
57E
  8
0
  6
CONTINUOUS
 62
     7
 10
287.9122094256
 20
591.5894684482
 30
0.0
 11
287.9122094256
 21
595.6074846077
 31
0.0
  0
LINE
  5
57F
  8
0
  6
CONTINUOUS
 62
     7
 10
291.412209068
 20
590.6074856508
 30
0.0
 11
287.9122094256
 21
590.6074856508
 31
0.0
  0
LINE
  5
580
  8
0
  6
CONTINUOUS
 62
     7
 10
287.9122094256
 20
590.6074856508
 30
0.0
 11
287.9122094256
 21
591.5894684482
 31
0.0
  0
LINE
  5
581
  8
0
  6
CONTINUOUS
 62
     7
 10
300.4122093791
 20
638.6074842054
 30
0.0
 11
300.4122093791
 21
602.6074857551
 31
0.0
  0
LINE
  5
582
  8
0
  6
CONTINUOUS
 62
     7
 10
322.4122094927
 20
625.6074848685
 30
0.0
 11
322.4122094927
 21
615.607485092
 31
0.0
  0
LINE
  5
583
  8
0
  6
CONTINUOUS
 62
     7
 10
287.9122094256
 20
634.6074854124
 30
0.0
 11
234.2122103093
 21
634.6074854124
 31
0.0
  0
LINE
  5
584
  8
0
  6
CONTINUOUS
 62
     7
 10
287.9122094256
 20
640.8074841935
 30
0.0
 11
234.2122103093
 21
640.8074841935
 31
0.0
  0
LINE
  5
585
  8
0
  6
CONTINUOUS
 62
     7
 10
234.2122103093
 20
634.6074854124
 30
0.0
 11
234.2122103093
 21
640.8074841935
 31
0.0
  0
LINE
  5
586
  8
0
  6
CONTINUOUS
 62
     7
 10
287.9122094256
 20
606.6074845481
 30
0.0
 11
234.2122103093
 21
606.6074845481
 31
0.0
  0
LINE
  5
587
  8
0
  6
CONTINUOUS
 62
     7
 10
234.2122103093
 20
634.6074854124
 30
0.0
 11
234.2122103093
 21
634.1074853305
 31
0.0
  0
LINE
  5
588
  8
0
  6
CONTINUOUS
 62
     7
 10
234.2122103093
 20
607.1074846301
 30
0.0
 11
234.2122103093
 21
606.6074845481
 31
0.0
  0
LINE
  5
589
  8
0
  6
CONTINUOUS
 62
     7
 10
287.9122094256
 20
600.4074857671
 30
0.0
 11
234.2122103093
 21
600.4074857671
 31
0.0
  0
LINE
  5
58A
  8
0
  6
CONTINUOUS
 62
     7
 10
234.2122103093
 20
606.6074845481
 30
0.0
 11
234.2122103093
 21
600.4074857671
 31
0.0
  0
LINE
  5
58B
  8
0
  6
CONTINUOUS
 62
     7
 10
287.9122094256
 20
645.6074853528
 30
0.0
 11
234.2122103093
 21
645.6074853528
 31
0.0
  0
LINE
  5
58C
  8
0
  6
CONTINUOUS
 62
     7
 10
234.2122103093
 20
640.8074841935
 30
0.0
 11
234.2122103093
 21
645.6074853528
 31
0.0
  0
LINE
  5
58D
  8
0
  6
CONTINUOUS
 62
     7
 10
287.9122094256
 20
595.6074846077
 30
0.0
 11
234.2122103093
 21
595.6074846077
 31
0.0
  0
LINE
  5
58E
  8
0
  6
CONTINUOUS
 62
     7
 10
234.2122103093
 20
600.4074857671
 30
0.0
 11
234.2122103093
 21
595.6074846077
 31
0.0
  0
LINE
  5
58F
  8
0
  6
CONTINUOUS
 62
     7
 10
287.9122094256
 20
649.6255015123
 30
0.0
 11
234.2122103093
 21
649.6255015123
 31
0.0
  0
LINE
  5
590
  8
0
  6
CONTINUOUS
 62
     7
 10
234.2122103093
 20
650.6074843097
 30
0.0
 11
287.9122094256
 21
650.6074843097
 31
0.0
  0
LINE
  5
591
  8
0
  6
CONTINUOUS
 62
     7
 10
234.2122103093
 20
649.6255015123
 30
0.0
 11
234.2122103093
 21
650.6074843097
 31
0.0
  0
LINE
  5
592
  8
0
  6
CONTINUOUS
 62
     7
 10
234.2122103093
 20
645.6074853528
 30
0.0
 11
234.2122103093
 21
649.6255015123
 31
0.0
  0
LINE
  5
593
  8
0
  6
CONTINUOUS
 62
     7
 10
287.9122094256
 20
591.5894684482
 30
0.0
 11
234.2122103093
 21
591.5894684482
 31
0.0
  0
LINE
  5
594
  8
0
  6
CONTINUOUS
 62
     7
 10
234.2122103093
 20
595.6074846077
 30
0.0
 11
234.2122103093
 21
591.5894684482
 31
0.0
  0
LINE
  5
595
  8
0
  6
CONTINUOUS
 62
     7
 10
234.2122103093
 20
590.6074856508
 30
0.0
 11
287.9122094256
 21
590.6074856508
 31
0.0
  0
LINE
  5
596
  8
0
  6
CONTINUOUS
 62
     7
 10
234.2122103093
 20
591.5894684482
 30
0.0
 11
234.2122103093
 21
590.6074856508
 31
0.0
  0
LINE
  5
597
  8
0
  6
CONTINUOUS
 62
     7
 10
218.2122076867
 20
600.4074857671
 30
0.0
 11
234.2122103093
 21
606.6074845481
 31
0.0
  0
LINE
  5
598
  8
0
  6
CONTINUOUS
 62
     7
 10
214.7122080443
 20
600.4074857671
 30
0.0
 11
218.2122076867
 21
600.4074857671
 31
0.0
  0
LINE
  5
599
  8
0
  6
CONTINUOUS
 62
     7
 10
214.7122080443
 20
640.8074841935
 30
0.0
 11
218.2122076867
 21
640.8074841935
 31
0.0
  0
LINE
  5
59A
  8
0
  6
CONTINUOUS
 62
     7
 10
218.2122076867
 20
640.8074841935
 30
0.0
 11
222.5993032572
 21
639.1074852187
 31
0.0
  0
LINE
  5
59B
  8
0
  6
CONTINUOUS
 62
     7
 10
224.4799788115
 20
638.3787234414
 30
0.0
 11
234.2122103093
 21
634.6074854124
 31
0.0
  0
LINE
  5
59C
  8
0
  6
CONTINUOUS
 62
     7
 10
214.7122080443
 20
640.8074841935
 30
0.0
 11
214.7122080443
 21
600.4074857671
 31
0.0
  0
LINE
  5
59D
  8
0
  6
CONTINUOUS
 62
     7
 10
218.2122076867
 20
640.8074841935
 30
0.0
 11
234.2122103093
 21
640.8074841935
 31
0.0
  0
LINE
  5
59E
  8
0
  6
CONTINUOUS
 62
     7
 10
218.2122076867
 20
600.4074857671
 30
0.0
 11
234.2122103093
 21
600.4074857671
 31
0.0
  0
LINE
  5
59F
  8
0
  6
CONTINUOUS
 62
     7
 10
214.7122080443
 20
645.6074853528
 30
0.0
 11
234.2122103093
 21
645.6074853528
 31
0.0
  0
LINE
  5
5A0
  8
0
  6
CONTINUOUS
 62
     7
 10
214.7122080443
 20
640.8074841935
 30
0.0
 11
214.7122080443
 21
645.6074853528
 31
0.0
  0
LINE
  5
5A1
  8
0
  6
CONTINUOUS
 62
     7
 10
214.7122080443
 20
595.6074846077
 30
0.0
 11
234.2122103093
 21
595.6074846077
 31
0.0
  0
LINE
  5
5A2
  8
0
  6
CONTINUOUS
 62
     7
 10
214.7122080443
 20
600.4074857671
 30
0.0
 11
214.7122080443
 21
595.6074846077
 31
0.0
  0
LINE
  5
5A3
  8
0
  6
CONTINUOUS
 62
     7
 10
218.2122076867
 20
650.6074843097
 30
0.0
 11
214.7122080443
 21
650.6074843097
 31
0.0
  0
LINE
  5
5A4
  8
0
  6
CONTINUOUS
 62
     7
 10
234.2122103093
 20
649.6255015123
 30
0.0
 11
218.2122076867
 21
650.6074843097
 31
0.0
  0
LINE
  5
5A5
  8
0
  6
CONTINUOUS
 62
     7
 10
214.7122080443
 20
645.6074853528
 30
0.0
 11
214.7122080443
 21
650.6074843097
 31
0.0
  0
LINE
  5
5A6
  8
0
  6
CONTINUOUS
 62
     7
 10
218.2122076867
 20
650.6074843097
 30
0.0
 11
234.2122103093
 21
650.6074843097
 31
0.0
  0
LINE
  5
5A7
  8
0
  6
CONTINUOUS
 62
     7
 10
234.2122103093
 20
591.5894684482
 30
0.0
 11
218.2122076867
 21
590.6074856508
 31
0.0
  0
LINE
  5
5A8
  8
0
  6
CONTINUOUS
 62
     7
 10
218.2122076867
 20
590.6074856508
 30
0.0
 11
214.7122080443
 21
590.6074856508
 31
0.0
  0
LINE
  5
5A9
  8
0
  6
CONTINUOUS
 62
     7
 10
214.7122080443
 20
595.6074846077
 30
0.0
 11
214.7122080443
 21
590.6074856508
 31
0.0
  0
LINE
  5
5AA
  8
0
  6
CONTINUOUS
 62
     7
 10
218.2122076867
 20
590.6074856508
 30
0.0
 11
234.2122103093
 21
590.6074856508
 31
0.0
  0
LINE
  5
5AB
  8
0
  6
CONTINUOUS
 62
     7
 10
202.4122084496
 20
616.40748513
 30
0.0
 11
205.8122063992
 21
616.40748513
 31
0.0
  0
LINE
  5
5AC
  8
0
  6
CONTINUOUS
 62
     7
 10
202.4122084496
 20
619.8074850005
 30
0.0
 11
202.4122084496
 21
616.40748513
 31
0.0
  0
LINE
  5
5AD
  8
0
  6
CONTINUOUS
 62
     7
 10
204.062206578
 20
617.2074849352
 30
0.0
 11
203.5622055648
 21
617.2074849352
 31
0.0
  0
LINE
  5
5AE
  8
0
  6
CONTINUOUS
 62
     7
 10
204.062206578
 20
617.3074849982
 30
0.0
 11
204.062206578
 21
617.2074849352
 31
0.0
  0
LINE
  5
5AF
  8
0
  6
CONTINUOUS
 62
     7
 10
204.7122101305
 20
617.3074849982
 30
0.0
 11
204.062206578
 21
617.3074849982
 31
0.0
  0
LINE
  5
5B0
  8
0
  6
CONTINUOUS
 62
     7
 10
204.7122101305
 20
617.6324849117
 30
0.0
 11
204.7122101305
 21
617.3074849982
 31
0.0
  0
LINE
  5
5B1
  8
0
  6
CONTINUOUS
 62
     7
 10
204.8122118232
 20
617.7324849747
 30
0.0
 11
204.7122101305
 21
617.6324849117
 31
0.0
  0
LINE
  5
5B2
  8
0
  6
CONTINUOUS
 62
     7
 10
204.8122118232
 20
618.4824848648
 30
0.0
 11
204.8122118232
 21
617.7324849747
 31
0.0
  0
LINE
  5
5B3
  8
0
  6
CONTINUOUS
 62
     7
 10
204.7122101305
 20
618.9074849577
 30
0.0
 11
204.7122101305
 21
618.5824849277
 31
0.0
  0
LINE
  5
5B4
  8
0
  6
CONTINUOUS
 62
     7
 10
204.062206578
 20
619.0074850207
 30
0.0
 11
204.062206578
 21
618.9074849577
 31
0.0
  0
LINE
  5
5B5
  8
0
  6
CONTINUOUS
 62
     7
 10
203.5622055648
 20
618.9074849577
 30
0.0
 11
203.5622055648
 21
619.0074850207
 31
0.0
  0
LINE
  5
5B6
  8
0
  6
CONTINUOUS
 62
     7
 10
203.5622055648
 20
618.9074849577
 30
0.0
 11
203.0622120021
 21
618.9074849577
 31
0.0
  0
LINE
  5
5B7
  8
0
  6
CONTINUOUS
 62
     7
 10
203.0622120021
 20
617.3074849982
 30
0.0
 11
203.0622120021
 21
618.9074849577
 31
0.0
  0
LINE
  5
5B8
  8
0
  6
CONTINUOUS
 62
     7
 10
203.0622120021
 20
617.3074849982
 30
0.0
 11
203.5622055648
 21
617.3074849982
 31
0.0
  0
LINE
  5
5B9
  8
0
  6
CONTINUOUS
 62
     7
 10
203.5622055648
 20
617.2074849352
 30
0.0
 11
203.5622055648
 21
617.3074849982
 31
0.0
  0
LINE
  5
5BA
  8
0
  6
CONTINUOUS
 62
     7
 10
203.5622055648
 20
619.0074850207
 30
0.0
 11
204.062206578
 21
619.0074850207
 31
0.0
  0
LINE
  5
5BB
  8
0
  6
CONTINUOUS
 62
     7
 10
205.8122063992
 20
616.40748513
 30
0.0
 11
205.8122063992
 21
619.8074850005
 31
0.0
  0
LINE
  5
5BC
  8
0
  6
CONTINUOUS
 62
     7
 10
204.062206578
 20
618.9074849577
 30
0.0
 11
204.7122101305
 21
618.9074849577
 31
0.0
  0
LINE
  5
5BD
  8
0
  6
CONTINUOUS
 62
     7
 10
205.8122063992
 20
619.8074850005
 30
0.0
 11
202.4122084496
 21
619.8074850005
 31
0.0
  0
LINE
  5
5BE
  8
0
  6
CONTINUOUS
 62
     7
 10
204.7122101305
 20
618.5824849277
 30
0.0
 11
204.8122118232
 21
618.4824848648
 31
0.0
  0
LINE
  5
5BF
  8
0
  6
CONTINUOUS
 62
     7
 10
201.6122098086
 20
617.1574850201
 30
0.0
 11
200.862212014
 21
616.40748513
 31
0.0
  0
LINE
  5
5C0
  8
0
  6
CONTINUOUS
 62
     7
 10
198.212211859
 20
616.40748513
 30
0.0
 11
200.862212014
 21
616.40748513
 31
0.0
  0
LINE
  5
5C1
  8
0
  6
CONTINUOUS
 62
     7
 10
200.862212014
 20
619.8074850005
 30
0.0
 11
201.6122098086
 21
619.0574849358
 31
0.0
  0
LINE
  5
5C2
  8
0
  6
CONTINUOUS
 62
     7
 10
199.3622089741
 20
617.2074849352
 30
0.0
 11
199.3622089741
 21
617.3074849982
 31
0.0
  0
LINE
  5
5C3
  8
0
  6
CONTINUOUS
 62
     7
 10
199.8622099874
 20
617.2074849352
 30
0.0
 11
199.3622089741
 21
617.2074849352
 31
0.0
  0
LINE
  5
5C4
  8
0
  6
CONTINUOUS
 62
     7
 10
199.8622099874
 20
617.3074849982
 30
0.0
 11
199.8622099874
 21
617.2074849352
 31
0.0
  0
LINE
  5
5C5
  8
0
  6
CONTINUOUS
 62
     7
 10
200.5122060893
 20
617.3074849982
 30
0.0
 11
199.8622099874
 21
617.3074849982
 31
0.0
  0
LINE
  5
5C6
  8
0
  6
CONTINUOUS
 62
     7
 10
200.5122060893
 20
617.6324849117
 30
0.0
 11
200.5122060893
 21
617.3074849982
 31
0.0
  0
LINE
  5
5C7
  8
0
  6
CONTINUOUS
 62
     7
 10
200.612207782
 20
617.7324849747
 30
0.0
 11
200.5122060893
 21
617.6324849117
 31
0.0
  0
LINE
  5
5C8
  8
0
  6
CONTINUOUS
 62
     7
 10
199.3622089741
 20
617.3074849982
 30
0.0
 11
198.8622079609
 21
617.3074849982
 31
0.0
  0
LINE
  5
5C9
  8
0
  6
CONTINUOUS
 62
     7
 10
200.612207782
 20
618.4824848648
 30
0.0
 11
200.612207782
 21
617.7324849747
 31
0.0
  0
LINE
  5
5CA
  8
0
  6
CONTINUOUS
 62
     7
 10
199.8622099874
 20
618.9074849577
 30
0.0
 11
200.5122060893
 21
618.9074849577
 31
0.0
  0
LINE
  5
5CB
  8
0
  6
CONTINUOUS
 62
     7
 10
199.3622089741
 20
619.0074850207
 30
0.0
 11
199.8622099874
 21
619.0074850207
 31
0.0
  0
LINE
  5
5CC
  8
0
  6
CONTINUOUS
 62
     7
 10
200.5122060893
 20
618.9074849577
 30
0.0
 11
200.5122060893
 21
618.5824849277
 31
0.0
  0
LINE
  5
5CD
  8
0
  6
CONTINUOUS
 62
     7
 10
198.8622079609
 20
618.9074849577
 30
0.0
 11
199.3622089741
 21
618.9074849577
 31
0.0
  0
LINE
  5
5CE
  8
0
  6
CONTINUOUS
 62
     7
 10
198.212211859
 20
619.8074850005
 30
0.0
 11
198.212211859
 21
616.40748513
 31
0.0
  0
LINE
  5
5CF
  8
0
  6
CONTINUOUS
 62
     7
 10
201.6122098086
 20
617.1574850201
 30
0.0
 11
201.6122098086
 21
619.0574849358
 31
0.0
  0
LINE
  5
5D0
  8
0
  6
CONTINUOUS
 62
     7
 10
198.8622079609
 20
618.9074849577
 30
0.0
 11
198.8622079609
 21
617.3074849982
 31
0.0
  0
LINE
  5
5D1
  8
0
  6
CONTINUOUS
 62
     7
 10
199.3622089741
 20
618.9074849577
 30
0.0
 11
199.3622089741
 21
619.0074850207
 31
0.0
  0
LINE
  5
5D2
  8
0
  6
CONTINUOUS
 62
     7
 10
199.8622099874
 20
619.0074850207
 30
0.0
 11
199.8622099874
 21
618.9074849577
 31
0.0
  0
LINE
  5
5D3
  8
0
  6
CONTINUOUS
 62
     7
 10
200.5122060893
 20
618.5824849277
 30
0.0
 11
200.612207782
 21
618.4824848648
 31
0.0
  0
LINE
  5
5D4
  8
0
  6
CONTINUOUS
 62
     7
 10
200.862212014
 20
619.8074850005
 30
0.0
 11
198.212211859
 21
619.8074850005
 31
0.0
  0
LINE
  5
5D5
  8
0
  6
CONTINUOUS
 62
     7
 10
195.6122125504
 20
616.6074847903
 30
0.0
 11
195.6122125504
 21
619.6074849328
 31
0.0
  0
LINE
  5
5D6
  8
0
  6
CONTINUOUS
 62
     7
 10
195.6122125504
 20
616.6074847903
 30
0.0
 11
194.3122128961
 21
616.6074847903
 31
0.0
  0
LINE
  5
5D7
  8
0
  6
CONTINUOUS
 62
     7
 10
194.3122128961
 20
616.6074847903
 30
0.0
 11
194.3122128961
 21
619.6074849328
 31
0.0
  0
LINE
  5
5D8
  8
0
  6
CONTINUOUS
 62
     7
 10
195.6122125504
 20
619.6074849328
 30
0.0
 11
194.3122128961
 21
619.6074849328
 31
0.0
  0
LINE
  5
5D9
  8
0
  6
CONTINUOUS
 62
     7
 10
194.3122128961
 20
616.6074847903
 30
0.0
 11
193.6122084973
 21
616.6074847903
 31
0.0
  0
LINE
  5
5DA
  8
0
  6
CONTINUOUS
 62
     7
 10
193.6122084973
 20
619.6074849328
 30
0.0
 11
193.6122084973
 21
616.6074847903
 31
0.0
  0
LINE
  5
5DB
  8
0
  6
CONTINUOUS
 62
     7
 10
194.3122128961
 20
619.6074849328
 30
0.0
 11
193.6122084973
 21
619.6074849328
 31
0.0
  0
LINE
  5
5DC
  8
0
  6
CONTINUOUS
 62
     7
 10
197.1122081397
 20
619.6074849328
 30
0.0
 11
197.1122081397
 21
616.6074847903
 31
0.0
  0
LINE
  5
5DD
  8
0
  6
CONTINUOUS
 62
     7
 10
195.6122125504
 20
616.6074847903
 30
0.0
 11
197.1122081397
 21
616.6074847903
 31
0.0
  0
LINE
  5
5DE
  8
0
  6
CONTINUOUS
 62
     7
 10
195.6122125504
 20
619.6074849328
 30
0.0
 11
197.1122081397
 21
619.6074849328
 31
0.0
  0
LINE
  5
5DF
  8
0
  6
CONTINUOUS
 62
     7
 10
199.8622099874
 20
618.8574849263
 30
0.0
 11
200.23721261
 21
618.8574849263
 31
0.0
  0
LINE
  5
5E0
  8
0
  6
CONTINUOUS
 62
     7
 10
199.8622099874
 20
618.9074849577
 30
0.0
 11
199.8622099874
 21
618.8574849263
 31
0.0
  0
LINE
  5
5E1
  8
0
  6
CONTINUOUS
 62
     7
 10
200.23721261
 20
618.8574849263
 30
0.0
 11
200.5122060893
 21
618.5824849277
 31
0.0
  0
LINE
  5
5E2
  8
0
  6
CONTINUOUS
 62
     7
 10
204.062206578
 20
618.8574849263
 30
0.0
 11
204.4372092006
 21
618.8574849263
 31
0.0
  0
LINE
  5
5E3
  8
0
  6
CONTINUOUS
 62
     7
 10
204.062206578
 20
618.9074849577
 30
0.0
 11
204.062206578
 21
618.8574849263
 31
0.0
  0
LINE
  5
5E4
  8
0
  6
CONTINUOUS
 62
     7
 10
204.4372092006
 20
618.8574849263
 30
0.0
 11
204.7122101305
 21
618.5824849277
 31
0.0
  0
LINE
  5
5E5
  8
0
  6
CONTINUOUS
 62
     7
 10
206.712206733
 20
620.8074849752
 30
0.0
 11
206.712206733
 21
618.3574850771
 31
0.0
  0
LINE
  5
5E6
  8
0
  6
CONTINUOUS
 62
     7
 10
206.712206733
 20
615.4074849661
 30
0.0
 11
206.712206733
 21
617.8574849952
 31
0.0
  0
LINE
  5
5E7
  8
0
  6
CONTINUOUS
 62
     7
 10
197.1122081397
 20
615.4074849661
 30
0.0
 11
206.712206733
 21
615.4074849661
 31
0.0
  0
ARC
  5
5E8
  8
0
  6
CONTINUOUS
 62
     7
 10
206.7122092841
 20
618.1074849803
 30
0.0
 40
0.2500000000001137
 50
270.0
 51
90.0
  0
LINE
  5
5E9
  8
0
  6
CONTINUOUS
 62
     7
 10
197.1122081397
 20
620.8074849752
 30
0.0
 11
206.712206733
 21
620.8074849752
 31
0.0
  0
LINE
  5
5EA
  8
0
  6
CONTINUOUS
 62
     7
 10
197.1122081397
 20
615.4074849661
 30
0.0
 11
197.1122081397
 21
616.6074847903
 31
0.0
  0
LINE
  5
5EB
  8
0
  6
CONTINUOUS
 62
     7
 10
197.1122081397
 20
619.6074849328
 30
0.0
 11
197.1122081397
 21
620.8074849752
 31
0.0
  0
LINE
  5
5EC
  8
0
  6
CONTINUOUS
 62
     7
 10
203.0622120021
 20
618.8574849263
 30
0.0
 11
203.5622055648
 21
618.8574849263
 31
0.0
  0
LINE
  5
5ED
  8
0
  6
CONTINUOUS
 62
     7
 10
203.5622055648
 20
618.8574849263
 30
0.0
 11
203.5622055648
 21
618.9074849577
 31
0.0
  0
LINE
  5
5EE
  8
0
  6
CONTINUOUS
 62
     7
 10
198.8622079609
 20
618.8574849263
 30
0.0
 11
199.3622089741
 21
618.8574849263
 31
0.0
  0
LINE
  5
5EF
  8
0
  6
CONTINUOUS
 62
     7
 10
199.3622089741
 20
618.8574849263
 30
0.0
 11
199.3622089741
 21
618.9074849577
 31
0.0
  0
LINE
  5
5F0
  8
0
  6
CONTINUOUS
 62
     7
 10
204.4372092006
 20
617.3574849132
 30
0.0
 11
204.062206578
 21
617.3574849132
 31
0.0
  0
LINE
  5
5F1
  8
0
  6
CONTINUOUS
 62
     7
 10
204.062206578
 20
617.3574849132
 30
0.0
 11
204.062206578
 21
617.3074849982
 31
0.0
  0
LINE
  5
5F2
  8
0
  6
CONTINUOUS
 62
     7
 10
204.4372092006
 20
617.3574849132
 30
0.0
 11
204.7122101305
 21
617.6324849117
 31
0.0
  0
LINE
  5
5F3
  8
0
  6
CONTINUOUS
 62
     7
 10
200.23721261
 20
617.3574849132
 30
0.0
 11
199.8622099874
 21
617.3574849132
 31
0.0
  0
LINE
  5
5F4
  8
0
  6
CONTINUOUS
 62
     7
 10
199.8622099874
 20
617.3574849132
 30
0.0
 11
199.8622099874
 21
617.3074849982
 31
0.0
  0
LINE
  5
5F5
  8
0
  6
CONTINUOUS
 62
     7
 10
200.23721261
 20
617.3574849132
 30
0.0
 11
200.5122060893
 21
617.6324849117
 31
0.0
  0
LINE
  5
5F6
  8
0
  6
CONTINUOUS
 62
     7
 10
203.0622120021
 20
617.3574849132
 30
0.0
 11
203.5622055648
 21
617.3574849132
 31
0.0
  0
LINE
  5
5F7
  8
0
  6
CONTINUOUS
 62
     7
 10
203.5622055648
 20
617.3574849132
 30
0.0
 11
203.5622055648
 21
617.3074849982
 31
0.0
  0
LINE
  5
5F8
  8
0
  6
CONTINUOUS
 62
     7
 10
198.8622079609
 20
617.3574849132
 30
0.0
 11
199.3622089741
 21
617.3574849132
 31
0.0
  0
LINE
  5
5F9
  8
0
  6
CONTINUOUS
 62
     7
 10
199.3622089741
 20
617.3574849132
 30
0.0
 11
199.3622089741
 21
617.3074849982
 31
0.0
  0
LINE
  5
5FA
  8
0
  6
CONTINUOUS
 62
     7
 10
196.8122105119
 20
619.6074849328
 30
0.0
 11
196.8122105119
 21
620.8074849752
 31
0.0
  0
LINE
  5
5FB
  8
0
  6
CONTINUOUS
 62
     7
 10
197.1122081397
 20
620.8074849752
 30
0.0
 11
196.8122105119
 21
620.8074849752
 31
0.0
  0
LINE
  5
5FC
  8
0
  6
CONTINUOUS
 62
     7
 10
196.8122105119
 20
615.4074849661
 30
0.0
 11
196.8122105119
 21
616.6074847903
 31
0.0
  0
LINE
  5
5FD
  8
0
  6
CONTINUOUS
 62
     7
 10
196.8122105119
 20
615.4074849661
 30
0.0
 11
197.1122081397
 21
615.4074849661
 31
0.0
  0
LINE
  5
5FE
  8
0
  6
CONTINUOUS
 62
     7
 10
203.5622055648
 20
618.8574849263
 30
0.0
 11
204.062206578
 21
618.8574849263
 31
0.0
  0
LINE
  5
5FF
  8
0
  6
CONTINUOUS
 62
     7
 10
199.3622089741
 20
618.8574849263
 30
0.0
 11
199.8622099874
 21
618.8574849263
 31
0.0
  0
LINE
  5
600
  8
0
  6
CONTINUOUS
 62
     7
 10
204.062206578
 20
617.3574849132
 30
0.0
 11
203.5622055648
 21
617.3574849132
 31
0.0
  0
LINE
  5
601
  8
0
  6
CONTINUOUS
 62
     7
 10
199.8622099874
 20
617.3574849132
 30
0.0
 11
199.3622089741
 21
617.3574849132
 31
0.0
  0
LINE
  5
602
  8
0
  6
CONTINUOUS
 62
     7
 10
194.3122128961
 20
620.8074849752
 30
0.0
 11
194.3122128961
 21
619.6074849328
 31
0.0
  0
LINE
  5
603
  8
0
  6
CONTINUOUS
 62
     7
 10
196.8122105119
 20
620.8074849752
 30
0.0
 11
194.3122128961
 21
620.8074849752
 31
0.0
  0
LINE
  5
604
  8
0
  6
CONTINUOUS
 62
     7
 10
194.3122128961
 20
615.4074849661
 30
0.0
 11
194.3122128961
 21
616.6074847903
 31
0.0
  0
LINE
  5
605
  8
0
  6
CONTINUOUS
 62
     7
 10
194.3122128961
 20
615.4074849661
 30
0.0
 11
196.8122105119
 21
615.4074849661
 31
0.0
  0
LINE
  5
606
  8
0
  6
CONTINUOUS
 62
     7
 10
193.6122084973
 20
619.6074849328
 30
0.0
 11
193.6122084973
 21
620.8074849752
 31
0.0
  0
LINE
  5
607
  8
0
  6
CONTINUOUS
 62
     7
 10
194.3122128961
 20
620.8074849752
 30
0.0
 11
193.6122084973
 21
620.8074849752
 31
0.0
  0
LINE
  5
608
  8
0
  6
CONTINUOUS
 62
     7
 10
193.6122084973
 20
616.6074847903
 30
0.0
 11
193.6122084973
 21
615.4074849661
 31
0.0
  0
LINE
  5
609
  8
0
  6
CONTINUOUS
 62
     7
 10
193.6122084973
 20
615.4074849661
 30
0.0
 11
194.3122128961
 21
615.4074849661
 31
0.0
  0
LINE
  5
60A
  8
0
  6
CONTINUOUS
 62
     7
 10
193.3122108696
 20
620.8074849752
 30
0.0
 11
193.3122108696
 21
615.4074849661
 31
0.0
  0
LINE
  5
60B
  8
0
  6
CONTINUOUS
 62
     7
 10
193.6122084973
 20
615.4074849661
 30
0.0
 11
193.3122108696
 21
615.4074849661
 31
0.0
  0
LINE
  5
60C
  8
0
  6
CONTINUOUS
 62
     7
 10
193.3122108696
 20
620.8074849752
 30
0.0
 11
193.6122084973
 21
620.8074849752
 31
0.0
  0
LINE
  5
60D
  8
0
  6
CONTINUOUS
 62
     7
 10
207.7122087596
 20
615.4074849661
 30
0.0
 11
207.7122087596
 21
620.8074849752
 31
0.0
  0
LINE
  5
60E
  8
0
  6
CONTINUOUS
 62
     7
 10
207.7122087596
 20
615.4074849661
 30
0.0
 11
206.712206733
 21
615.4074849661
 31
0.0
  0
LINE
  5
60F
  8
0
  6
CONTINUOUS
 62
     7
 10
207.7122087596
 20
620.8074849752
 30
0.0
 11
206.712206733
 21
620.8074849752
 31
0.0
  0
ARC
  5
610
  8
0
  6
CONTINUOUS
 62
     7
 10
201.9122092841
 20
618.1074849803
 30
0.0
 40
3.000000000000012
 50
64.1580672368
 51
115.8419327632
  0
ARC
  5
611
  8
0
  6
CONTINUOUS
 62
     7
 10
201.9122092841
 20
618.1074849803
 30
0.0
 40
2.999999999999967
 50
244.1580672368
 51
295.8419327632
  0
ARC
  5
612
  8
0
  6
CONTINUOUS
 62
     7
 10
201.9122092841
 20
618.1074849803
 30
0.0
 40
4.000000000000046
 50
222.4541502044
 51
317.5458497956
  0
ARC
  5
613
  8
0
  6
CONTINUOUS
 62
     7
 10
201.9122092841
 20
618.1074849803
 30
0.0
 40
3.999999999999984
 50
42.4541502044
 51
137.5458497956
  0
LINE
  5
614
  8
0
  6
CONTINUOUS
 62
     7
 10
168.7122042296
 20
600.4074857671
 30
0.0
 11
214.7122080443
 21
600.4074857671
 31
0.0
  0
LINE
  5
615
  8
0
  6
CONTINUOUS
 62
     7
 10
168.7122042296
 20
640.8074841935
 30
0.0
 11
214.7122080443
 21
640.8074841935
 31
0.0
  0
LINE
  5
616
  8
0
  6
CONTINUOUS
 62
     7
 10
168.7122042296
 20
640.8074841935
 30
0.0
 11
168.7122042296
 21
626.7074848626
 31
0.0
  0
LINE
  5
617
  8
0
  6
CONTINUOUS
 62
     7
 10
168.7122042296
 20
614.507485098
 30
0.0
 11
168.7122042296
 21
600.4074857671
 31
0.0
  0
LINE
  5
618
  8
0
  6
CONTINUOUS
 62
     7
 10
168.7122042296
 20
645.6074853528
 30
0.0
 11
214.7122080443
 21
645.6074853528
 31
0.0
  0
LINE
  5
619
  8
0
  6
CONTINUOUS
 62
     7
 10
168.7122042296
 20
640.8074841935
 30
0.0
 11
168.7122042296
 21
645.6074853528
 31
0.0
  0
LINE
  5
61A
  8
0
  6
CONTINUOUS
 62
     7
 10
168.7122042296
 20
595.6074846077
 30
0.0
 11
214.7122080443
 21
595.6074846077
 31
0.0
  0
LINE
  5
61B
  8
0
  6
CONTINUOUS
 62
     7
 10
168.7122042296
 20
600.4074857671
 30
0.0
 11
168.7122042296
 21
595.6074846077
 31
0.0
  0
LINE
  5
61C
  8
0
  6
CONTINUOUS
 62
     7
 10
168.7122042296
 20
650.6074843097
 30
0.0
 11
214.7122080443
 21
650.6074843097
 31
0.0
  0
LINE
  5
61D
  8
0
  6
CONTINUOUS
 62
     7
 10
168.7122042296
 20
645.6074853528
 30
0.0
 11
168.7122042296
 21
650.6074843097
 31
0.0
  0
LINE
  5
61E
  8
0
  6
CONTINUOUS
 62
     7
 10
168.7122042296
 20
590.6074856508
 30
0.0
 11
214.7122080443
 21
590.6074856508
 31
0.0
  0
LINE
  5
61F
  8
0
  6
CONTINUOUS
 62
     7
 10
168.7122042296
 20
595.6074846077
 30
0.0
 11
168.7122042296
 21
590.6074856508
 31
0.0
  0
LINE
  5
620
  8
0
  6
CONTINUOUS
 62
     7
 10
156.4122046349
 20
607.3574851367
 30
0.0
 11
156.4122046349
 21
592.2594078917
 31
0.0
  0
LINE
  5
621
  8
0
  6
CONTINUOUS
 62
     7
 10
156.4122046349
 20
648.9555620689
 30
0.0
 11
156.4122046349
 21
633.8574848238
 31
0.0
  0
ARC
  5
622
  8
0
  6
CONTINUOUS
 62
     7
 10
303.7091426368
 20
620.6074849803
 30
0.0
 40
146.9693845669907
 50
185.1725144534
 51
187.8999447632
  0
LINE
  5
623
  8
0
  6
CONTINUOUS
 62
     7
 10
157.193070185
 20
600.4074857671
 30
0.0
 11
158.1345553515
 21
600.4074857671
 31
0.0
  0
POLYLINE
  5
624
  8
0
  6
CONTINUOUS
 62
     7
 66
     1
 10
0.0
 20
0.0
 30
0.0
 70
   128
  0
VERTEX
  5
868
  8
0
  6
CONTINUOUS
 62
     7
 10
157.193070185
 20
595.6074846077
 30
0.0
  0
VERTEX
  5
869
  8
0
  6
CONTINUOUS
 62
     7
 10
156.9709236739
 20
597.1727919865
 30
0.0
  0
VERTEX
  5
86A
  8
0
  6
CONTINUOUS
 62
     7
 10
156.8622793076
 20
598.5774182815
 30
0.0
  0
VERTEX
  5
86B
  8
0
  6
CONTINUOUS
 62
     7
 10
156.8801308987
 20
599.6403441865
 30
0.0
  0
VERTEX
  5
86C
  8
0
  6
CONTINUOUS
 62
     7
 10
157.0181901572
 20
600.2626017768
 30
0.0
  0
VERTEX
  5
86D
  8
0
  6
CONTINUOUS
 62
     7
 10
157.193070185
 20
600.4074857671
 30
0.0
  0
SEQEND
  5
8B5
  8
0
  6
CONTINUOUS
 62
     7
  0
ARC
  5
625
  8
0
  6
CONTINUOUS
 62
     7
 10
303.7091426368
 20
620.6074849803
 30
0.0
 40
148.6336435669932
 50
189.683109777
 51
191.6444934156
  0
LINE
  5
626
  8
0
  6
CONTINUOUS
 62
     7
 10
156.7397619603
 20
590.6074856508
 30
0.0
 11
158.1345553515
 21
590.6074856508
 31
0.0
  0
LINE
  5
627
  8
0
  6
CONTINUOUS
 62
     7
 10
156.7397619603
 20
650.6074843097
 30
0.0
 11
158.1345553515
 21
650.6074843097
 31
0.0
  0
ARC
  5
628
  8
0
  6
CONTINUOUS
 62
     7
 10
303.7091426368
 20
620.6074849803
 30
0.0
 40
148.6336435669932
 50
168.3555065844
 51
170.316890223
  0
POLYLINE
  5
629
  8
0
  6
CONTINUOUS
 62
     7
 66
     1
 10
0.0
 20
0.0
 30
0.0
 70
   128
  0
VERTEX
  5
86E
  8
0
  6
CONTINUOUS
 62
     7
 10
157.193070185
 20
640.8074841935
 30
0.0
  0
VERTEX
  5
86F
  8
0
  6
CONTINUOUS
 62
     7
 10
156.9709236739
 20
641.0698843289
 30
0.0
  0
VERTEX
  5
870
  8
0
  6
CONTINUOUS
 62
     7
 10
156.8622793076
 20
641.8366105396
 30
0.0
  0
VERTEX
  5
871
  8
0
  6
CONTINUOUS
 62
     7
 10
156.8801308987
 20
643.0044015039
 30
0.0
  0
VERTEX
  5
872
  8
0
  6
CONTINUOUS
 62
     7
 10
157.0181901572
 20
644.437062471
 30
0.0
  0
VERTEX
  5
873
  8
0
  6
CONTINUOUS
 62
     7
 10
157.193070185
 20
645.6074853528
 30
0.0
  0
SEQEND
  5
8B6
  8
0
  6
CONTINUOUS
 62
     7
  0
LINE
  5
62A
  8
0
  6
CONTINUOUS
 62
     7
 10
158.1345553515
 20
640.8074841935
 30
0.0
 11
157.193070185
 21
640.8074841935
 31
0.0
  0
ARC
  5
62B
  8
0
  6
CONTINUOUS
 62
     7
 10
303.7091426368
 20
620.6074849803
 30
0.0
 40
146.9693845669907
 50
172.1000552368
 51
174.8274855466
  0
LINE
  5
62C
  8
0
  6
CONTINUOUS
 62
     7
 10
157.3382521985
 20
607.3574851367
 30
0.0
 11
154.9122090457
 21
607.3574851367
 31
0.0
  0
LINE
  5
62D
  8
0
  6
CONTINUOUS
 62
     7
 10
154.9122090457
 20
607.3574851367
 30
0.0
 11
154.9122090457
 21
614.507485098
 31
0.0
  0
LINE
  5
62E
  8
0
  6
CONTINUOUS
 62
     7
 10
154.9122090457
 20
626.7074848626
 30
0.0
 11
154.9122090457
 21
633.8574848238
 31
0.0
  0
LINE
  5
62F
  8
0
  6
CONTINUOUS
 62
     7
 10
157.3382521985
 20
633.8574848238
 30
0.0
 11
154.9122090457
 21
633.8574848238
 31
0.0
  0
LINE
  5
630
  8
0
  6
CONTINUOUS
 62
     7
 10
158.1345553515
 20
640.8074841935
 30
0.0
 11
168.7122042296
 21
640.8074841935
 31
0.0
  0
LINE
  5
631
  8
0
  6
CONTINUOUS
 62
     7
 10
158.1345553515
 20
600.4074857671
 30
0.0
 11
168.7122042296
 21
600.4074857671
 31
0.0
  0
LINE
  5
632
  8
0
  6
CONTINUOUS
 62
     7
 10
157.193070185
 20
645.6074853528
 30
0.0
 11
168.7122042296
 21
645.6074853528
 31
0.0
  0
LINE
  5
633
  8
0
  6
CONTINUOUS
 62
     7
 10
157.193070185
 20
595.6074846077
 30
0.0
 11
168.7122042296
 21
595.6074846077
 31
0.0
  0
LINE
  5
634
  8
0
  6
CONTINUOUS
 62
     7
 10
154.9122090457
 20
607.3574851367
 30
0.0
 11
154.9122090457
 21
594.8574849505
 31
0.0
  0
LINE
  5
635
  8
0
  6
CONTINUOUS
 62
     7
 10
154.9122090457
 20
646.3574850101
 30
0.0
 11
154.9122090457
 21
633.8574848238
 31
0.0
  0
LINE
  5
636
  8
0
  6
CONTINUOUS
 62
     7
 10
158.1345553515
 20
650.6074843097
 30
0.0
 11
168.7122042296
 21
650.6074843097
 31
0.0
  0
LINE
  5
637
  8
0
  6
CONTINUOUS
 62
     7
 10
158.1345553515
 20
590.6074856508
 30
0.0
 11
168.7122042296
 21
590.6074856508
 31
0.0
  0
LINE
  5
638
  8
0
  6
CONTINUOUS
 62
     7
 10
232.3122079489
 20
634.1074853305
 30
0.0
 11
232.3122079489
 21
607.1074846301
 31
0.0
  0
LINE
  5
639
  8
0
  6
CONTINUOUS
 62
     7
 10
240.6122106133
 20
634.1074853305
 30
0.0
 11
232.3122079489
 21
634.1074853305
 31
0.0
  0
ARC
  5
63A
  8
0
  6
CONTINUOUS
 62
     7
 10
240.612209144
 20
630.1074869308
 30
0.0
 40
3.999998399676471
 50
359.9999676855
 51
89.9999789536
  0
LINE
  5
63B
  8
0
  6
CONTINUOUS
 62
     7
 10
244.6122075436
 20
630.1074846748
 30
0.0
 11
244.6122075436
 21
611.1074852858
 31
0.0
  0
ARC
  5
63C
  8
0
  6
CONTINUOUS
 62
     7
 10
240.6122129037
 20
611.1074792701
 30
0.0
 40
3.999994639966705
 50
269.9999671924
 51
0.0000861685
  0
LINE
  5
63D
  8
0
  6
CONTINUOUS
 62
     7
 10
240.6122106133
 20
607.1074846301
 30
0.0
 11
232.3122079489
 21
607.1074846301
 31
0.0
  0
LINE
  5
63E
  8
0
  6
CONTINUOUS
 62
     7
 10
232.3122079489
 20
607.1074846301
 30
0.0
 11
216.1122093914
 21
607.1074846301
 31
0.0
  0
LINE
  5
63F
  8
0
  6
CONTINUOUS
 62
     7
 10
216.1122093914
 20
634.1074853305
 30
0.0
 11
232.3122079489
 21
634.1074853305
 31
0.0
  0
LINE
  5
640
  8
0
  6
CONTINUOUS
 62
     7
 10
216.1122093914
 20
607.1074846301
 30
0.0
 11
216.1122093914
 21
634.1074853305
 31
0.0
  0
LINE
  5
641
  8
0
  6
CONTINUOUS
 62
     7
 10
217.6122124312
 20
636.7074855704
 30
0.0
 11
224.612211716
 21
636.7074855704
 31
0.0
  0
LINE
  5
642
  8
0
  6
CONTINUOUS
 62
     7
 10
228.2122056005
 20
634.4074848208
 30
0.0
 11
234.0122069237
 21
634.4074848208
 31
0.0
  0
LINE
  5
643
  8
0
  6
CONTINUOUS
 62
     7
 10
218.9122120855
 20
639.1074852187
 30
0.0
 11
222.4809880374
 21
639.1074852187
 31
0.0
  0
POLYLINE
  5
644
  8
0
  6
CONTINUOUS
 62
     7
 66
     1
 10
0.0
 20
0.0
 30
0.0
 70
   128
  0
VERTEX
  5
874
  8
0
  6
CONTINUOUS
 62
     7
 10
222.4809880374
 20
639.1074852187
 30
0.0
  0
VERTEX
  5
875
  8
0
  6
CONTINUOUS
 62
     7
 10
222.7878998039
 20
639.0337188829
 30
0.0
  0
VERTEX
  5
876
  8
0
  6
CONTINUOUS
 62
     7
 10
223.0601738212
 20
638.8201125998
 30
0.0
  0
VERTEX
  5
877
  8
0
  6
CONTINUOUS
 62
     7
 10
223.2657576916
 20
638.4922311742
 30
0.0
  0
VERTEX
  5
878
  8
0
  6
CONTINUOUS
 62
     7
 10
223.3822922228
 20
638.0879012037
 30
0.0
  0
VERTEX
  5
879
  8
0
  6
CONTINUOUS
 62
     7
 10
223.4039883135
 20
637.8074855644
 30
0.0
  0
SEQEND
  5
8B7
  8
0
  6
CONTINUOUS
 62
     7
  0
LINE
  5
645
  8
0
  6
CONTINUOUS
 62
     7
 10
223.4039883135
 20
637.8074855644
 30
0.0
 11
223.7575407145
 21
637.8074855644
 31
0.0
  0
LINE
  5
646
  8
0
  6
CONTINUOUS
 62
     7
 10
222.8345404384
 20
639.1074852187
 30
0.0
 11
223.3122120617
 21
639.1074852187
 31
0.0
  0
POLYLINE
  5
647
  8
0
  6
CONTINUOUS
 62
     7
 66
     1
 10
0.0
 20
0.0
 30
0.0
 70
   128
  0
VERTEX
  5
87A
  8
0
  6
CONTINUOUS
 62
     7
 10
223.7575407145
 20
637.8074855644
 30
0.0
  0
VERTEX
  5
87B
  8
0
  6
CONTINUOUS
 62
     7
 10
223.7058113334
 20
638.236879288
 30
0.0
  0
VERTEX
  5
87C
  8
0
  6
CONTINUOUS
 62
     7
 10
223.55652405
 20
638.6178591389
 30
0.0
  0
VERTEX
  5
87D
  8
0
  6
CONTINUOUS
 62
     7
 10
223.3263979671
 20
638.907902791
 30
0.0
  0
VERTEX
  5
87E
  8
0
  6
CONTINUOUS
 62
     7
 10
223.0407948611
 20
639.0747250158
 30
0.0
  0
VERTEX
  5
87F
  8
0
  6
CONTINUOUS
 62
     7
 10
222.8345404384
 20
639.1074852187
 30
0.0
  0
SEQEND
  5
8B8
  8
0
  6
CONTINUOUS
 62
     7
  0
LINE
  5
648
  8
0
  6
CONTINUOUS
 62
     7
 10
222.4809880374
 20
639.1074852187
 30
0.0
 11
222.8345404384
 21
639.1074852187
 31
0.0
  0
LINE
  5
649
  8
0
  6
CONTINUOUS
 62
     7
 10
219.9622075079
 20
620.9074849945
 30
0.0
 11
219.2122097132
 21
621.6574849428
 31
0.0
  0
LINE
  5
64A
  8
0
  6
CONTINUOUS
 62
     7
 10
222.6122076628
 20
624.3074849814
 30
0.0
 11
219.2122097132
 21
624.3074849814
 31
0.0
  0
LINE
  5
64B
  8
0
  6
CONTINUOUS
 62
     7
 10
222.6122076628
 20
621.6574849428
 30
0.0
 11
221.8622098682
 21
620.9074849945
 31
0.0
  0
LINE
  5
64C
  8
0
  6
CONTINUOUS
 62
     7
 10
219.9622075079
 20
620.9074849945
 30
0.0
 11
221.8622098682
 21
620.9074849945
 31
0.0
  0
LINE
  5
64D
  8
0
  6
CONTINUOUS
 62
     7
 10
220.0122083542
 20
623.1574850723
 30
0.0
 11
220.112210047
 21
623.1574850723
 31
0.0
  0
LINE
  5
64E
  8
0
  6
CONTINUOUS
 62
     7
 10
220.0122083542
 20
622.6574849903
 30
0.0
 11
220.0122083542
 21
623.1574850723
 31
0.0
  0
LINE
  5
64F
  8
0
  6
CONTINUOUS
 62
     7
 10
220.112210047
 20
622.6574849903
 30
0.0
 11
220.0122083542
 21
622.6574849903
 31
0.0
  0
LINE
  5
650
  8
0
  6
CONTINUOUS
 62
     7
 10
220.112210047
 20
622.0074849304
 30
0.0
 11
220.112210047
 21
622.6574849903
 31
0.0
  0
LINE
  5
651
  8
0
  6
CONTINUOUS
 62
     7
 10
220.4372118232
 20
622.0074849304
 30
0.0
 11
220.112210047
 21
622.0074849304
 31
0.0
  0
LINE
  5
652
  8
0
  6
CONTINUOUS
 62
     7
 10
220.5372060654
 20
621.9074849838
 30
0.0
 11
220.4372118232
 21
622.0074849304
 31
0.0
  0
LINE
  5
653
  8
0
  6
CONTINUOUS
 62
     7
 10
221.2872113106
 20
621.9074849838
 30
0.0
 11
220.5372060654
 21
621.9074849838
 31
0.0
  0
LINE
  5
654
  8
0
  6
CONTINUOUS
 62
     7
 10
221.3872130034
 20
622.0074849304
 30
0.0
 11
221.2872113106
 21
621.9074849838
 31
0.0
  0
LINE
  5
655
  8
0
  6
CONTINUOUS
 62
     7
 10
221.7122073291
 20
622.0074849304
 30
0.0
 11
221.3872130034
 21
622.0074849304
 31
0.0
  0
LINE
  5
656
  8
0
  6
CONTINUOUS
 62
     7
 10
221.7122073291
 20
622.6574849903
 30
0.0
 11
221.7122073291
 21
622.0074849304
 31
0.0
  0
LINE
  5
657
  8
0
  6
CONTINUOUS
 62
     7
 10
221.8122090218
 20
622.6574849903
 30
0.0
 11
221.7122073291
 21
622.6574849903
 31
0.0
  0
LINE
  5
658
  8
0
  6
CONTINUOUS
 62
     7
 10
221.8122090218
 20
623.1574850723
 30
0.0
 11
221.8122090218
 21
622.6574849903
 31
0.0
  0
LINE
  5
659
  8
0
  6
CONTINUOUS
 62
     7
 10
221.7122073291
 20
623.1574850723
 30
0.0
 11
221.8122090218
 21
623.1574850723
 31
0.0
  0
LINE
  5
65A
  8
0
  6
CONTINUOUS
 62
     7
 10
221.7122073291
 20
623.6574849214
 30
0.0
 11
221.7122073291
 21
623.1574850723
 31
0.0
  0
LINE
  5
65B
  8
0
  6
CONTINUOUS
 62
     7
 10
221.7122073291
 20
623.6574849214
 30
0.0
 11
220.112210047
 21
623.6574849214
 31
0.0
  0
LINE
  5
65C
  8
0
  6
CONTINUOUS
 62
     7
 10
219.2122097132
 20
624.3074849814
 30
0.0
 11
219.2122097132
 21
621.6574849428
 31
0.0
  0
LINE
  5
65D
  8
0
  6
CONTINUOUS
 62
     7
 10
222.6122076628
 20
621.6574849428
 30
0.0
 11
222.6122076628
 21
624.3074849814
 31
0.0
  0
LINE
  5
65E
  8
0
  6
CONTINUOUS
 62
     7
 10
220.112210047
 20
623.1574850723
 30
0.0
 11
220.112210047
 21
623.6574849214
 31
0.0
  0
LINE
  5
65F
  8
0
  6
CONTINUOUS
 62
     7
 10
227.612210345
 20
620.9074849945
 30
0.0
 11
231.0122082946
 21
620.9074849945
 31
0.0
  0
LINE
  5
660
  8
0
  6
CONTINUOUS
 62
     7
 10
228.4122089861
 20
623.1574850723
 30
0.0
 11
228.5122106788
 21
623.1574850723
 31
0.0
  0
LINE
  5
661
  8
0
  6
CONTINUOUS
 62
     7
 10
228.4122089861
 20
622.6574849903
 30
0.0
 11
228.4122089861
 21
623.1574850723
 31
0.0
  0
LINE
  5
662
  8
0
  6
CONTINUOUS
 62
     7
 10
228.5122106788
 20
622.6574849903
 30
0.0
 11
228.4122089861
 21
622.6574849903
 31
0.0
  0
LINE
  5
663
  8
0
  6
CONTINUOUS
 62
     7
 10
228.5122106788
 20
622.0074849304
 30
0.0
 11
228.5122106788
 21
622.6574849903
 31
0.0
  0
LINE
  5
664
  8
0
  6
CONTINUOUS
 62
     7
 10
228.837212455
 20
622.0074849304
 30
0.0
 11
228.5122106788
 21
622.0074849304
 31
0.0
  0
LINE
  5
665
  8
0
  6
CONTINUOUS
 62
     7
 10
228.9372066972
 20
621.9074849838
 30
0.0
 11
228.837212455
 21
622.0074849304
 31
0.0
  0
LINE
  5
666
  8
0
  6
CONTINUOUS
 62
     7
 10
229.6872119424
 20
621.9074849838
 30
0.0
 11
228.9372066972
 21
621.9074849838
 31
0.0
  0
LINE
  5
667
  8
0
  6
CONTINUOUS
 62
     7
 10
229.7872061846
 20
622.0074849304
 30
0.0
 11
229.6872119424
 21
621.9074849838
 31
0.0
  0
LINE
  5
668
  8
0
  6
CONTINUOUS
 62
     7
 10
230.1122079609
 20
622.0074849304
 30
0.0
 11
229.7872061846
 21
622.0074849304
 31
0.0
  0
LINE
  5
669
  8
0
  6
CONTINUOUS
 62
     7
 10
230.1122079609
 20
622.6574849903
 30
0.0
 11
230.1122079609
 21
622.0074849304
 31
0.0
  0
LINE
  5
66A
  8
0
  6
CONTINUOUS
 62
     7
 10
230.2122096536
 20
622.6574849903
 30
0.0
 11
230.1122079609
 21
622.6574849903
 31
0.0
  0
LINE
  5
66B
  8
0
  6
CONTINUOUS
 62
     7
 10
230.2122096536
 20
623.1574850723
 30
0.0
 11
230.2122096536
 21
622.6574849903
 31
0.0
  0
LINE
  5
66C
  8
0
  6
CONTINUOUS
 62
     7
 10
230.1122079609
 20
623.1574850723
 30
0.0
 11
230.2122096536
 21
623.1574850723
 31
0.0
  0
LINE
  5
66D
  8
0
  6
CONTINUOUS
 62
     7
 10
230.1122079609
 20
623.6574849214
 30
0.0
 11
230.1122079609
 21
623.1574850723
 31
0.0
  0
LINE
  5
66E
  8
0
  6
CONTINUOUS
 62
     7
 10
230.1122079609
 20
623.6574849214
 30
0.0
 11
228.5122106788
 21
623.6574849214
 31
0.0
  0
LINE
  5
66F
  8
0
  6
CONTINUOUS
 62
     7
 10
231.0122082946
 20
624.3074849814
 30
0.0
 11
227.612210345
 21
624.3074849814
 31
0.0
  0
LINE
  5
670
  8
0
  6
CONTINUOUS
 62
     7
 10
231.0122082946
 20
620.9074849945
 30
0.0
 11
231.0122082946
 21
624.3074849814
 31
0.0
  0
LINE
  5
671
  8
0
  6
CONTINUOUS
 62
     7
 10
228.5122106788
 20
623.1574850723
 30
0.0
 11
228.5122106788
 21
623.6574849214
 31
0.0
  0
LINE
  5
672
  8
0
  6
CONTINUOUS
 62
     7
 10
227.612210345
 20
624.3074849814
 30
0.0
 11
227.612210345
 21
620.9074849945
 31
0.0
  0
LINE
  5
673
  8
0
  6
CONTINUOUS
 62
     7
 10
223.4122063039
 20
620.9074849945
 30
0.0
 11
226.812211704
 21
620.9074849945
 31
0.0
  0
LINE
  5
674
  8
0
  6
CONTINUOUS
 62
     7
 10
224.2122123954
 20
623.1574850723
 30
0.0
 11
224.3122066376
 21
623.1574850723
 31
0.0
  0
LINE
  5
675
  8
0
  6
CONTINUOUS
 62
     7
 10
224.2122123954
 20
622.6574849903
 30
0.0
 11
224.2122123954
 21
623.1574850723
 31
0.0
  0
LINE
  5
676
  8
0
  6
CONTINUOUS
 62
     7
 10
224.3122066376
 20
622.6574849903
 30
0.0
 11
224.2122123954
 21
622.6574849903
 31
0.0
  0
LINE
  5
677
  8
0
  6
CONTINUOUS
 62
     7
 10
224.3122066376
 20
622.0074849304
 30
0.0
 11
224.3122066376
 21
622.6574849903
 31
0.0
  0
LINE
  5
678
  8
0
  6
CONTINUOUS
 62
     7
 10
224.6372084139
 20
622.0074849304
 30
0.0
 11
224.3122066376
 21
622.0074849304
 31
0.0
  0
LINE
  5
679
  8
0
  6
CONTINUOUS
 62
     7
 10
224.7372101066
 20
621.9074849838
 30
0.0
 11
224.6372084139
 21
622.0074849304
 31
0.0
  0
LINE
  5
67A
  8
0
  6
CONTINUOUS
 62
     7
 10
225.4872079013
 20
621.9074849838
 30
0.0
 11
224.7372101066
 21
621.9074849838
 31
0.0
  0
LINE
  5
67B
  8
0
  6
CONTINUOUS
 62
     7
 10
225.587209594
 20
622.0074849304
 30
0.0
 11
225.4872079013
 21
621.9074849838
 31
0.0
  0
LINE
  5
67C
  8
0
  6
CONTINUOUS
 62
     7
 10
225.9122113702
 20
622.0074849304
 30
0.0
 11
225.587209594
 21
622.0074849304
 31
0.0
  0
LINE
  5
67D
  8
0
  6
CONTINUOUS
 62
     7
 10
225.9122113702
 20
622.6574849903
 30
0.0
 11
225.9122113702
 21
622.0074849304
 31
0.0
  0
LINE
  5
67E
  8
0
  6
CONTINUOUS
 62
     7
 10
226.0122056124
 20
622.6574849903
 30
0.0
 11
225.9122113702
 21
622.6574849903
 31
0.0
  0
LINE
  5
67F
  8
0
  6
CONTINUOUS
 62
     7
 10
226.0122056124
 20
623.1574850723
 30
0.0
 11
226.0122056124
 21
622.6574849903
 31
0.0
  0
LINE
  5
680
  8
0
  6
CONTINUOUS
 62
     7
 10
225.9122113702
 20
623.1574850723
 30
0.0
 11
226.0122056124
 21
623.1574850723
 31
0.0
  0
LINE
  5
681
  8
0
  6
CONTINUOUS
 62
     7
 10
223.4122063039
 20
624.3074849814
 30
0.0
 11
223.4122063039
 21
620.9074849945
 31
0.0
  0
LINE
  5
682
  8
0
  6
CONTINUOUS
 62
     7
 10
226.812211704
 20
620.9074849945
 30
0.0
 11
226.812211704
 21
624.3074849814
 31
0.0
  0
LINE
  5
683
  8
0
  6
CONTINUOUS
 62
     7
 10
226.812211704
 20
624.3074849814
 30
0.0
 11
223.4122063039
 21
624.3074849814
 31
0.0
  0
LINE
  5
684
  8
0
  6
CONTINUOUS
 62
     7
 10
225.9122113702
 20
623.6574849214
 30
0.0
 11
225.9122113702
 21
623.1574850723
 31
0.0
  0
LINE
  5
685
  8
0
  6
CONTINUOUS
 62
     7
 10
225.9122113702
 20
623.6574849214
 30
0.0
 11
224.3122066376
 21
623.6574849214
 31
0.0
  0
LINE
  5
686
  8
0
  6
CONTINUOUS
 62
     7
 10
224.3122066376
 20
623.1574850723
 30
0.0
 11
224.3122066376
 21
623.6574849214
 31
0.0
  0
LINE
  5
687
  8
0
  6
CONTINUOUS
 62
     7
 10
231.0122082946
 20
617.4574849762
 30
0.0
 11
231.0122082946
 21
620.1074849565
 31
0.0
  0
LINE
  5
688
  8
0
  6
CONTINUOUS
 62
     7
 10
230.2622105
 20
616.7074850861
 30
0.0
 11
231.0122082946
 21
617.4574849762
 31
0.0
  0
LINE
  5
689
  8
0
  6
CONTINUOUS
 62
     7
 10
228.3622081397
 20
616.7074850861
 30
0.0
 11
230.2622105
 21
616.7074850861
 31
0.0
  0
LINE
  5
68A
  8
0
  6
CONTINUOUS
 62
     7
 10
228.3622081397
 20
616.7074850861
 30
0.0
 11
227.612210345
 21
617.4574849762
 31
0.0
  0
LINE
  5
68B
  8
0
  6
CONTINUOUS
 62
     7
 10
227.612210345
 20
620.1074849565
 30
0.0
 11
227.612210345
 21
617.4574849762
 31
0.0
  0
LINE
  5
68C
  8
0
  6
CONTINUOUS
 62
     7
 10
231.0122082946
 20
620.1074849565
 30
0.0
 11
227.612210345
 21
620.1074849565
 31
0.0
  0
LINE
  5
68D
  8
0
  6
CONTINUOUS
 62
     7
 10
228.4122089861
 20
618.4574849073
 30
0.0
 11
228.4122089861
 21
618.9574849892
 31
0.0
  0
LINE
  5
68E
  8
0
  6
CONTINUOUS
 62
     7
 10
228.5122106788
 20
618.4574849073
 30
0.0
 11
228.4122089861
 21
618.4574849073
 31
0.0
  0
LINE
  5
68F
  8
0
  6
CONTINUOUS
 62
     7
 10
228.5122106788
 20
617.8074850801
 30
0.0
 11
228.5122106788
 21
618.4574849073
 31
0.0
  0
LINE
  5
690
  8
0
  6
CONTINUOUS
 62
     7
 10
228.837212455
 20
617.8074850801
 30
0.0
 11
228.5122106788
 21
617.8074850801
 31
0.0
  0
LINE
  5
691
  8
0
  6
CONTINUOUS
 62
     7
 10
228.9372066972
 20
617.7074850172
 30
0.0
 11
228.837212455
 21
617.8074850801
 31
0.0
  0
LINE
  5
692
  8
0
  6
CONTINUOUS
 62
     7
 10
229.6872119424
 20
617.7074850172
 30
0.0
 11
228.9372066972
 21
617.7074850172
 31
0.0
  0
LINE
  5
693
  8
0
  6
CONTINUOUS
 62
     7
 10
229.7872061846
 20
617.8074850801
 30
0.0
 11
229.6872119424
 21
617.7074850172
 31
0.0
  0
LINE
  5
694
  8
0
  6
CONTINUOUS
 62
     7
 10
230.1122079609
 20
617.8074850801
 30
0.0
 11
229.7872061846
 21
617.8074850801
 31
0.0
  0
LINE
  5
695
  8
0
  6
CONTINUOUS
 62
     7
 10
230.1122079609
 20
618.4574849073
 30
0.0
 11
230.1122079609
 21
617.8074850801
 31
0.0
  0
LINE
  5
696
  8
0
  6
CONTINUOUS
 62
     7
 10
230.2122096536
 20
618.4574849073
 30
0.0
 11
230.1122079609
 21
618.4574849073
 31
0.0
  0
LINE
  5
697
  8
0
  6
CONTINUOUS
 62
     7
 10
230.2122096536
 20
618.9574849892
 30
0.0
 11
230.2122096536
 21
618.4574849073
 31
0.0
  0
LINE
  5
698
  8
0
  6
CONTINUOUS
 62
     7
 10
230.1122079609
 20
618.9574849892
 30
0.0
 11
230.2122096536
 21
618.9574849892
 31
0.0
  0
LINE
  5
699
  8
0
  6
CONTINUOUS
 62
     7
 10
230.1122079609
 20
619.4574849548
 30
0.0
 11
230.1122079609
 21
618.9574849892
 31
0.0
  0
LINE
  5
69A
  8
0
  6
CONTINUOUS
 62
     7
 10
230.1122079609
 20
619.4574849548
 30
0.0
 11
228.5122106788
 21
619.4574849548
 31
0.0
  0
LINE
  5
69B
  8
0
  6
CONTINUOUS
 62
     7
 10
228.5122106788
 20
618.9574849892
 30
0.0
 11
228.5122106788
 21
619.4574849548
 31
0.0
  0
LINE
  5
69C
  8
0
  6
CONTINUOUS
 62
     7
 10
228.4122089861
 20
618.9574849892
 30
0.0
 11
228.5122106788
 21
618.9574849892
 31
0.0
  0
LINE
  5
69D
  8
0
  6
CONTINUOUS
 62
     7
 10
222.6122076628
 20
616.7074850861
 30
0.0
 11
222.6122076628
 21
620.1074849565
 31
0.0
  0
LINE
  5
69E
  8
0
  6
CONTINUOUS
 62
     7
 10
219.2122097132
 20
616.7074850861
 30
0.0
 11
222.6122076628
 21
616.7074850861
 31
0.0
  0
LINE
  5
69F
  8
0
  6
CONTINUOUS
 62
     7
 10
219.2122097132
 20
620.1074849565
 30
0.0
 11
219.2122097132
 21
616.7074850861
 31
0.0
  0
LINE
  5
6A0
  8
0
  6
CONTINUOUS
 62
     7
 10
222.6122076628
 20
620.1074849565
 30
0.0
 11
219.2122097132
 21
620.1074849565
 31
0.0
  0
LINE
  5
6A1
  8
0
  6
CONTINUOUS
 62
     7
 10
220.0122083542
 20
618.4574849073
 30
0.0
 11
220.0122083542
 21
618.9574849892
 31
0.0
  0
LINE
  5
6A2
  8
0
  6
CONTINUOUS
 62
     7
 10
220.112210047
 20
618.4574849073
 30
0.0
 11
220.0122083542
 21
618.4574849073
 31
0.0
  0
LINE
  5
6A3
  8
0
  6
CONTINUOUS
 62
     7
 10
220.112210047
 20
617.8074850801
 30
0.0
 11
220.112210047
 21
618.4574849073
 31
0.0
  0
LINE
  5
6A4
  8
0
  6
CONTINUOUS
 62
     7
 10
220.4372118232
 20
617.8074850801
 30
0.0
 11
220.112210047
 21
617.8074850801
 31
0.0
  0
LINE
  5
6A5
  8
0
  6
CONTINUOUS
 62
     7
 10
220.5372060654
 20
617.7074850172
 30
0.0
 11
220.4372118232
 21
617.8074850801
 31
0.0
  0
LINE
  5
6A6
  8
0
  6
CONTINUOUS
 62
     7
 10
221.2872113106
 20
617.7074850172
 30
0.0
 11
220.5372060654
 21
617.7074850172
 31
0.0
  0
LINE
  5
6A7
  8
0
  6
CONTINUOUS
 62
     7
 10
221.3872130034
 20
617.8074850801
 30
0.0
 11
221.2872113106
 21
617.7074850172
 31
0.0
  0
LINE
  5
6A8
  8
0
  6
CONTINUOUS
 62
     7
 10
221.7122073291
 20
617.8074850801
 30
0.0
 11
221.3872130034
 21
617.8074850801
 31
0.0
  0
LINE
  5
6A9
  8
0
  6
CONTINUOUS
 62
     7
 10
221.7122073291
 20
618.4574849073
 30
0.0
 11
221.7122073291
 21
617.8074850801
 31
0.0
  0
LINE
  5
6AA
  8
0
  6
CONTINUOUS
 62
     7
 10
221.8122090218
 20
618.4574849073
 30
0.0
 11
221.7122073291
 21
618.4574849073
 31
0.0
  0
LINE
  5
6AB
  8
0
  6
CONTINUOUS
 62
     7
 10
221.8122090218
 20
618.9574849892
 30
0.0
 11
221.8122090218
 21
618.4574849073
 31
0.0
  0
LINE
  5
6AC
  8
0
  6
CONTINUOUS
 62
     7
 10
221.7122073291
 20
618.9574849892
 30
0.0
 11
221.8122090218
 21
618.9574849892
 31
0.0
  0
LINE
  5
6AD
  8
0
  6
CONTINUOUS
 62
     7
 10
221.7122073291
 20
619.4574849548
 30
0.0
 11
221.7122073291
 21
618.9574849892
 31
0.0
  0
LINE
  5
6AE
  8
0
  6
CONTINUOUS
 62
     7
 10
221.7122073291
 20
619.4574849548
 30
0.0
 11
220.112210047
 21
619.4574849548
 31
0.0
  0
LINE
  5
6AF
  8
0
  6
CONTINUOUS
 62
     7
 10
220.112210047
 20
618.9574849892
 30
0.0
 11
220.112210047
 21
619.4574849548
 31
0.0
  0
LINE
  5
6B0
  8
0
  6
CONTINUOUS
 62
     7
 10
220.0122083542
 20
618.9574849892
 30
0.0
 11
220.112210047
 21
618.9574849892
 31
0.0
  0
LINE
  5
6B1
  8
0
  6
CONTINUOUS
 62
     7
 10
226.812211704
 20
617.4574849762
 30
0.0
 11
226.812211704
 21
620.1074849565
 31
0.0
  0
LINE
  5
6B2
  8
0
  6
CONTINUOUS
 62
     7
 10
226.0622064588
 20
616.7074850861
 30
0.0
 11
226.812211704
 21
617.4574849762
 31
0.0
  0
LINE
  5
6B3
  8
0
  6
CONTINUOUS
 62
     7
 10
224.1622115491
 20
616.7074850861
 30
0.0
 11
226.0622064588
 21
616.7074850861
 31
0.0
  0
LINE
  5
6B4
  8
0
  6
CONTINUOUS
 62
     7
 10
224.1622115491
 20
616.7074850861
 30
0.0
 11
223.4122063039
 21
617.4574849762
 31
0.0
  0
LINE
  5
6B5
  8
0
  6
CONTINUOUS
 62
     7
 10
223.4122063039
 20
620.1074849565
 30
0.0
 11
223.4122063039
 21
617.4574849762
 31
0.0
  0
LINE
  5
6B6
  8
0
  6
CONTINUOUS
 62
     7
 10
226.812211704
 20
620.1074849565
 30
0.0
 11
223.4122063039
 21
620.1074849565
 31
0.0
  0
LINE
  5
6B7
  8
0
  6
CONTINUOUS
 62
     7
 10
224.2122123954
 20
618.4574849073
 30
0.0
 11
224.2122123954
 21
618.9574849892
 31
0.0
  0
LINE
  5
6B8
  8
0
  6
CONTINUOUS
 62
     7
 10
224.3122066376
 20
618.4574849073
 30
0.0
 11
224.2122123954
 21
618.4574849073
 31
0.0
  0
LINE
  5
6B9
  8
0
  6
CONTINUOUS
 62
     7
 10
224.3122066376
 20
617.8074850801
 30
0.0
 11
224.3122066376
 21
618.4574849073
 31
0.0
  0
LINE
  5
6BA
  8
0
  6
CONTINUOUS
 62
     7
 10
224.6372084139
 20
617.8074850801
 30
0.0
 11
224.3122066376
 21
617.8074850801
 31
0.0
  0
LINE
  5
6BB
  8
0
  6
CONTINUOUS
 62
     7
 10
224.7372101066
 20
617.7074850172
 30
0.0
 11
224.6372084139
 21
617.8074850801
 31
0.0
  0
LINE
  5
6BC
  8
0
  6
CONTINUOUS
 62
     7
 10
225.4872079013
 20
617.7074850172
 30
0.0
 11
224.7372101066
 21
617.7074850172
 31
0.0
  0
LINE
  5
6BD
  8
0
  6
CONTINUOUS
 62
     7
 10
225.587209594
 20
617.8074850801
 30
0.0
 11
225.4872079013
 21
617.7074850172
 31
0.0
  0
LINE
  5
6BE
  8
0
  6
CONTINUOUS
 62
     7
 10
225.9122113702
 20
617.8074850801
 30
0.0
 11
225.587209594
 21
617.8074850801
 31
0.0
  0
LINE
  5
6BF
  8
0
  6
CONTINUOUS
 62
     7
 10
226.0122056124
 20
618.9574849892
 30
0.0
 11
226.0122056124
 21
618.4574849073
 31
0.0
  0
LINE
  5
6C0
  8
0
  6
CONTINUOUS
 62
     7
 10
225.9122113702
 20
618.9574849892
 30
0.0
 11
226.0122056124
 21
618.9574849892
 31
0.0
  0
LINE
  5
6C1
  8
0
  6
CONTINUOUS
 62
     7
 10
225.9122113702
 20
619.4574849548
 30
0.0
 11
225.9122113702
 21
618.9574849892
 31
0.0
  0
LINE
  5
6C2
  8
0
  6
CONTINUOUS
 62
     7
 10
225.9122113702
 20
619.4574849548
 30
0.0
 11
224.3122066376
 21
619.4574849548
 31
0.0
  0
LINE
  5
6C3
  8
0
  6
CONTINUOUS
 62
     7
 10
224.3122066376
 20
618.9574849892
 30
0.0
 11
224.3122066376
 21
619.4574849548
 31
0.0
  0
LINE
  5
6C4
  8
0
  6
CONTINUOUS
 62
     7
 10
226.0122056124
 20
618.4574849073
 30
0.0
 11
225.9122113702
 21
618.4574849073
 31
0.0
  0
LINE
  5
6C5
  8
0
  6
CONTINUOUS
 62
     7
 10
224.2122123954
 20
618.9574849892
 30
0.0
 11
224.3122066376
 21
618.9574849892
 31
0.0
  0
LINE
  5
6C6
  8
0
  6
CONTINUOUS
 62
     7
 10
225.9122113702
 20
618.4574849073
 30
0.0
 11
225.9122113702
 21
617.8074850801
 31
0.0
  0
LINE
  5
6C7
  8
0
  6
CONTINUOUS
 62
     7
 10
226.6122083185
 20
628.2074851084
 30
0.0
 11
223.6122096894
 21
628.2074851084
 31
0.0
  0
LINE
  5
6C8
  8
0
  6
CONTINUOUS
 62
     7
 10
223.6122096894
 20
628.2074851084
 30
0.0
 11
223.6122096894
 21
628.9074848506
 31
0.0
  0
LINE
  5
6C9
  8
0
  6
CONTINUOUS
 62
     7
 10
226.6122083185
 20
628.9074848506
 30
0.0
 11
223.6122096894
 21
628.9074848506
 31
0.0
  0
LINE
  5
6CA
  8
0
  6
CONTINUOUS
 62
     7
 10
226.6122083185
 20
628.9074848506
 30
0.0
 11
226.6122083185
 21
628.2074851084
 31
0.0
  0
LINE
  5
6CB
  8
0
  6
CONTINUOUS
 62
     7
 10
223.6122096894
 20
626.9074849885
 30
0.0
 11
226.6122083185
 21
626.9074849885
 31
0.0
  0
LINE
  5
6CC
  8
0
  6
CONTINUOUS
 62
     7
 10
223.6122096894
 20
626.9074849885
 30
0.0
 11
223.6122096894
 21
628.2074851084
 31
0.0
  0
LINE
  5
6CD
  8
0
  6
CONTINUOUS
 62
     7
 10
226.6122083185
 20
628.2074851084
 30
0.0
 11
226.6122083185
 21
626.9074849885
 31
0.0
  0
LINE
  5
6CE
  8
0
  6
CONTINUOUS
 62
     7
 10
226.6122083185
 20
625.4074852083
 30
0.0
 11
223.6122096894
 21
625.4074852083
 31
0.0
  0
LINE
  5
6CF
  8
0
  6
CONTINUOUS
 62
     7
 10
223.6122096894
 20
626.9074849885
 30
0.0
 11
223.6122096894
 21
625.4074852083
 31
0.0
  0
LINE
  5
6D0
  8
0
  6
CONTINUOUS
 62
     7
 10
226.6122083185
 20
625.4074852083
 30
0.0
 11
226.6122083185
 21
626.9074849885
 31
0.0
  0
LINE
  5
6D1
  8
0
  6
CONTINUOUS
 62
     7
 10
220.1622108934
 20
623.6574849214
 30
0.0
 11
220.1622108934
 21
623.1574850723
 31
0.0
  0
LINE
  5
6D2
  8
0
  6
CONTINUOUS
 62
     7
 10
220.1622108934
 20
623.1574850723
 30
0.0
 11
220.112210047
 21
623.1574850723
 31
0.0
  0
LINE
  5
6D3
  8
0
  6
CONTINUOUS
 62
     7
 10
225.8622105239
 20
623.6574849214
 30
0.0
 11
225.8622105239
 21
623.1574850723
 31
0.0
  0
LINE
  5
6D4
  8
0
  6
CONTINUOUS
 62
     7
 10
225.8622105239
 20
623.1574850723
 30
0.0
 11
225.9122113702
 21
623.1574850723
 31
0.0
  0
LINE
  5
6D5
  8
0
  6
CONTINUOUS
 62
     7
 10
228.5622115252
 20
623.6574849214
 30
0.0
 11
228.5622115252
 21
623.1574850723
 31
0.0
  0
LINE
  5
6D6
  8
0
  6
CONTINUOUS
 62
     7
 10
228.5622115252
 20
623.1574850723
 30
0.0
 11
228.5122106788
 21
623.1574850723
 31
0.0
  0
LINE
  5
6D7
  8
0
  6
CONTINUOUS
 62
     7
 10
221.6622064827
 20
623.6574849214
 30
0.0
 11
221.6622064827
 21
623.1574850723
 31
0.0
  0
LINE
  5
6D8
  8
0
  6
CONTINUOUS
 62
     7
 10
221.6622064827
 20
623.1574850723
 30
0.0
 11
221.7122073291
 21
623.1574850723
 31
0.0
  0
ARC
  5
6D9
  8
0
  6
CONTINUOUS
 62
     7
 10
229.3122092841
 20
615.8074849803
 30
0.0
 40
0.2500000000000284
 50
180.0
 51
0.0
  0
LINE
  5
6DA
  8
0
  6
CONTINUOUS
 62
     7
 10
229.0122116921
 20
615.8074847523
 30
0.0
 11
229.0622125385
 21
615.8074847523
 31
0.0
  0
ARC
  5
6DB
  8
0
  6
CONTINUOUS
 62
     7
 10
228.7622092841
 20
615.8074849803
 30
0.0
 40
0.2500000000000284
 50
180.0
 51
0.0
  0
LINE
  5
6DC
  8
0
  6
CONTINUOUS
 62
     7
 10
228.5122106788
 20
615.8074847523
 30
0.0
 11
225.6372104404
 21
615.8074847523
 31
0.0
  0
ARC
  5
6DD
  8
0
  6
CONTINUOUS
 62
     7
 10
225.3872092841
 20
615.8074849803
 30
0.0
 40
0.25
 50
180.0
 51
0.0
  0
LINE
  5
6DE
  8
0
  6
CONTINUOUS
 62
     7
 10
225.0872085807
 20
615.8074847523
 30
0.0
 11
225.1372094271
 21
615.8074847523
 31
0.0
  0
ARC
  5
6DF
  8
0
  6
CONTINUOUS
 62
     7
 10
224.8372092841
 20
615.8074849803
 30
0.0
 40
0.25
 50
180.0
 51
0.0
  0
LINE
  5
6E0
  8
0
  6
CONTINUOUS
 62
     7
 10
224.5872075675
 20
615.8074847523
 30
0.0
 11
221.16221292
 21
615.8074847523
 31
0.0
  0
ARC
  5
6E1
  8
0
  6
CONTINUOUS
 62
     7
 10
220.9122092841
 20
615.8074849803
 30
0.0
 40
0.2500000000000284
 50
180.0
 51
0.0
  0
LINE
  5
6E2
  8
0
  6
CONTINUOUS
 62
     7
 10
218.2122076867
 20
615.8074847523
 30
0.0
 11
220.6622119067
 21
615.8074847523
 31
0.0
  0
LINE
  5
6E3
  8
0
  6
CONTINUOUS
 62
     7
 10
218.2122076867
 20
625.4074852083
 30
0.0
 11
223.6122096894
 21
625.4074852083
 31
0.0
  0
LINE
  5
6E4
  8
0
  6
CONTINUOUS
 62
     7
 10
226.6122083185
 20
625.4074852083
 30
0.0
 11
232.0122103212
 21
625.4074852083
 31
0.0
  0
LINE
  5
6E5
  8
0
  6
CONTINUOUS
 62
     7
 10
232.0122103212
 20
615.8074847523
 30
0.0
 11
230.1122079609
 21
615.8074847523
 31
0.0
  0
ARC
  5
6E6
  8
0
  6
CONTINUOUS
 62
     7
 10
229.8622092841
 20
615.8074849803
 30
0.0
 40
0.25
 50
180.0
 51
0.0
  0
LINE
  5
6E7
  8
0
  6
CONTINUOUS
 62
     7
 10
229.5622061012
 20
615.8074847523
 30
0.0
 11
229.6122069476
 21
615.8074847523
 31
0.0
  0
LINE
  5
6E8
  8
0
  6
CONTINUOUS
 62
     7
 10
232.0122103212
 20
625.4074852083
 30
0.0
 11
232.0122103212
 21
615.8074847523
 31
0.0
  0
LINE
  5
6E9
  8
0
  6
CONTINUOUS
 62
     7
 10
218.2122076867
 20
625.4074852083
 30
0.0
 11
218.2122076867
 21
615.8074847523
 31
0.0
  0
LINE
  5
6EA
  8
0
  6
CONTINUOUS
 62
     7
 10
230.0622071145
 20
623.6574849214
 30
0.0
 11
230.0622071145
 21
623.1574850723
 31
0.0
  0
LINE
  5
6EB
  8
0
  6
CONTINUOUS
 62
     7
 10
230.0622071145
 20
623.1574850723
 30
0.0
 11
230.1122079609
 21
623.1574850723
 31
0.0
  0
LINE
  5
6EC
  8
0
  6
CONTINUOUS
 62
     7
 10
224.362207484
 20
623.6574849214
 30
0.0
 11
224.362207484
 21
623.1574850723
 31
0.0
  0
LINE
  5
6ED
  8
0
  6
CONTINUOUS
 62
     7
 10
224.362207484
 20
623.1574850723
 30
0.0
 11
224.3122066376
 21
623.1574850723
 31
0.0
  0
LINE
  5
6EE
  8
0
  6
CONTINUOUS
 62
     7
 10
221.6622064827
 20
619.4574849548
 30
0.0
 11
221.6622064827
 21
618.9574849892
 31
0.0
  0
LINE
  5
6EF
  8
0
  6
CONTINUOUS
 62
     7
 10
221.6622064827
 20
618.9574849892
 30
0.0
 11
221.7122073291
 21
618.9574849892
 31
0.0
  0
LINE
  5
6F0
  8
0
  6
CONTINUOUS
 62
     7
 10
224.362207484
 20
619.4574849548
 30
0.0
 11
224.362207484
 21
618.9574849892
 31
0.0
  0
LINE
  5
6F1
  8
0
  6
CONTINUOUS
 62
     7
 10
224.362207484
 20
618.9574849892
 30
0.0
 11
224.3122066376
 21
618.9574849892
 31
0.0
  0
LINE
  5
6F2
  8
0
  6
CONTINUOUS
 62
     7
 10
220.1622108934
 20
618.0824850786
 30
0.0
 11
220.1622108934
 21
618.4574849073
 31
0.0
  0
LINE
  5
6F3
  8
0
  6
CONTINUOUS
 62
     7
 10
220.1622108934
 20
618.4574849073
 30
0.0
 11
220.112210047
 21
618.4574849073
 31
0.0
  0
LINE
  5
6F4
  8
0
  6
CONTINUOUS
 62
     7
 10
220.1622108934
 20
618.0824850786
 30
0.0
 11
220.4372118232
 21
617.8074850801
 31
0.0
  0
LINE
  5
6F5
  8
0
  6
CONTINUOUS
 62
     7
 10
224.362207484
 20
622.2824849289
 30
0.0
 11
224.362207484
 21
622.6574849903
 31
0.0
  0
LINE
  5
6F6
  8
0
  6
CONTINUOUS
 62
     7
 10
224.362207484
 20
622.6574849903
 30
0.0
 11
224.3122066376
 21
622.6574849903
 31
0.0
  0
LINE
  5
6F7
  8
0
  6
CONTINUOUS
 62
     7
 10
224.362207484
 20
622.2824849289
 30
0.0
 11
224.6372084139
 21
622.0074849304
 31
0.0
  0
LINE
  5
6F8
  8
0
  6
CONTINUOUS
 62
     7
 10
230.0622071145
 20
622.6574849903
 30
0.0
 11
230.0622071145
 21
622.2824849289
 31
0.0
  0
LINE
  5
6F9
  8
0
  6
CONTINUOUS
 62
     7
 10
230.1122079609
 20
622.6574849903
 30
0.0
 11
230.0622071145
 21
622.6574849903
 31
0.0
  0
LINE
  5
6FA
  8
0
  6
CONTINUOUS
 62
     7
 10
230.0622071145
 20
622.2824849289
 30
0.0
 11
229.7872061846
 21
622.0074849304
 31
0.0
  0
LINE
  5
6FB
  8
0
  6
CONTINUOUS
 62
     7
 10
230.0622071145
 20
618.4574849073
 30
0.0
 11
230.0622071145
 21
618.0824850786
 31
0.0
  0
LINE
  5
6FC
  8
0
  6
CONTINUOUS
 62
     7
 10
230.0622071145
 20
618.0824850786
 30
0.0
 11
229.7872061846
 21
617.8074850801
 31
0.0
  0
LINE
  5
6FD
  8
0
  6
CONTINUOUS
 62
     7
 10
230.1122079609
 20
618.4574849073
 30
0.0
 11
230.0622071145
 21
618.4574849073
 31
0.0
  0
LINE
  5
6FE
  8
0
  6
CONTINUOUS
 62
     7
 10
221.6622064827
 20
618.4574849073
 30
0.0
 11
221.6622064827
 21
618.0824850786
 31
0.0
  0
LINE
  5
6FF
  8
0
  6
CONTINUOUS
 62
     7
 10
221.7122073291
 20
618.4574849073
 30
0.0
 11
221.6622064827
 21
618.4574849073
 31
0.0
  0
LINE
  5
700
  8
0
  6
CONTINUOUS
 62
     7
 10
221.6622064827
 20
618.0824850786
 30
0.0
 11
221.3872130034
 21
617.8074850801
 31
0.0
  0
LINE
  5
701
  8
0
  6
CONTINUOUS
 62
     7
 10
220.1622108934
 20
622.2824849289
 30
0.0
 11
220.1622108934
 21
622.6574849903
 31
0.0
  0
LINE
  5
702
  8
0
  6
CONTINUOUS
 62
     7
 10
220.1622108934
 20
622.2824849289
 30
0.0
 11
220.4372118232
 21
622.0074849304
 31
0.0
  0
LINE
  5
703
  8
0
  6
CONTINUOUS
 62
     7
 10
220.1622108934
 20
622.6574849903
 30
0.0
 11
220.112210047
 21
622.6574849903
 31
0.0
  0
LINE
  5
704
  8
0
  6
CONTINUOUS
 62
     7
 10
221.6622064827
 20
622.6574849903
 30
0.0
 11
221.6622064827
 21
622.2824849289
 31
0.0
  0
LINE
  5
705
  8
0
  6
CONTINUOUS
 62
     7
 10
221.6622064827
 20
622.2824849289
 30
0.0
 11
221.3872130034
 21
622.0074849304
 31
0.0
  0
LINE
  5
706
  8
0
  6
CONTINUOUS
 62
     7
 10
221.7122073291
 20
622.6574849903
 30
0.0
 11
221.6622064827
 21
622.6574849903
 31
0.0
  0
LINE
  5
707
  8
0
  6
CONTINUOUS
 62
     7
 10
228.5622115252
 20
622.2824849289
 30
0.0
 11
228.5622115252
 21
622.6574849903
 31
0.0
  0
LINE
  5
708
  8
0
  6
CONTINUOUS
 62
     7
 10
228.5622115252
 20
622.6574849903
 30
0.0
 11
228.5122106788
 21
622.6574849903
 31
0.0
  0
LINE
  5
709
  8
0
  6
CONTINUOUS
 62
     7
 10
228.5622115252
 20
622.2824849289
 30
0.0
 11
228.837212455
 21
622.0074849304
 31
0.0
  0
LINE
  5
70A
  8
0
  6
CONTINUOUS
 62
     7
 10
224.362207484
 20
618.0824850786
 30
0.0
 11
224.362207484
 21
618.4574849073
 31
0.0
  0
LINE
  5
70B
  8
0
  6
CONTINUOUS
 62
     7
 10
224.362207484
 20
618.0824850786
 30
0.0
 11
224.6372084139
 21
617.8074850801
 31
0.0
  0
LINE
  5
70C
  8
0
  6
CONTINUOUS
 62
     7
 10
224.362207484
 20
618.4574849073
 30
0.0
 11
224.3122066376
 21
618.4574849073
 31
0.0
  0
LINE
  5
70D
  8
0
  6
CONTINUOUS
 62
     7
 10
220.1622108934
 20
619.4574849548
 30
0.0
 11
220.1622108934
 21
618.9574849892
 31
0.0
  0
LINE
  5
70E
  8
0
  6
CONTINUOUS
 62
     7
 10
220.1622108934
 20
618.9574849892
 30
0.0
 11
220.112210047
 21
618.9574849892
 31
0.0
  0
LINE
  5
70F
  8
0
  6
CONTINUOUS
 62
     7
 10
230.0622071145
 20
619.4574849548
 30
0.0
 11
230.0622071145
 21
618.9574849892
 31
0.0
  0
LINE
  5
710
  8
0
  6
CONTINUOUS
 62
     7
 10
230.0622071145
 20
618.9574849892
 30
0.0
 11
230.1122079609
 21
618.9574849892
 31
0.0
  0
LINE
  5
711
  8
0
  6
CONTINUOUS
 62
     7
 10
228.5622115252
 20
619.4574849548
 30
0.0
 11
228.5622115252
 21
618.9574849892
 31
0.0
  0
LINE
  5
712
  8
0
  6
CONTINUOUS
 62
     7
 10
228.5622115252
 20
618.9574849892
 30
0.0
 11
228.5122106788
 21
618.9574849892
 31
0.0
  0
LINE
  5
713
  8
0
  6
CONTINUOUS
 62
     7
 10
225.8622105239
 20
618.4574849073
 30
0.0
 11
225.8622105239
 21
618.0824850786
 31
0.0
  0
LINE
  5
714
  8
0
  6
CONTINUOUS
 62
     7
 10
225.8622105239
 20
618.0824850786
 30
0.0
 11
225.587209594
 21
617.8074850801
 31
0.0
  0
LINE
  5
715
  8
0
  6
CONTINUOUS
 62
     7
 10
225.9122113702
 20
618.4574849073
 30
0.0
 11
225.8622105239
 21
618.4574849073
 31
0.0
  0
LINE
  5
716
  8
0
  6
CONTINUOUS
 62
     7
 10
225.8622105239
 20
619.4574849548
 30
0.0
 11
225.8622105239
 21
618.9574849892
 31
0.0
  0
LINE
  5
717
  8
0
  6
CONTINUOUS
 62
     7
 10
225.8622105239
 20
618.9574849892
 30
0.0
 11
225.9122113702
 21
618.9574849892
 31
0.0
  0
LINE
  5
718
  8
0
  6
CONTINUOUS
 62
     7
 10
228.5622115252
 20
618.0824850786
 30
0.0
 11
228.5622115252
 21
618.4574849073
 31
0.0
  0
LINE
  5
719
  8
0
  6
CONTINUOUS
 62
     7
 10
228.5622115252
 20
618.0824850786
 30
0.0
 11
228.837212455
 21
617.8074850801
 31
0.0
  0
LINE
  5
71A
  8
0
  6
CONTINUOUS
 62
     7
 10
228.5622115252
 20
618.4574849073
 30
0.0
 11
228.5122106788
 21
618.4574849073
 31
0.0
  0
LINE
  5
71B
  8
0
  6
CONTINUOUS
 62
     7
 10
225.8622105239
 20
622.6574849903
 30
0.0
 11
225.8622105239
 21
622.2824849289
 31
0.0
  0
LINE
  5
71C
  8
0
  6
CONTINUOUS
 62
     7
 10
225.9122113702
 20
622.6574849903
 30
0.0
 11
225.8622105239
 21
622.6574849903
 31
0.0
  0
LINE
  5
71D
  8
0
  6
CONTINUOUS
 62
     7
 10
225.8622105239
 20
622.2824849289
 30
0.0
 11
225.587209594
 21
622.0074849304
 31
0.0
  0
LINE
  5
71E
  8
0
  6
CONTINUOUS
 62
     7
 10
226.6122083185
 20
625.7074851643
 30
0.0
 11
227.81220628
 21
625.7074851643
 31
0.0
  0
LINE
  5
71F
  8
0
  6
CONTINUOUS
 62
     7
 10
227.81220628
 20
625.4074852083
 30
0.0
 11
227.81220628
 21
625.7074851643
 31
0.0
  0
LINE
  5
720
  8
0
  6
CONTINUOUS
 62
     7
 10
222.4122117279
 20
625.7074851643
 30
0.0
 11
223.6122096894
 21
625.7074851643
 31
0.0
  0
LINE
  5
721
  8
0
  6
CONTINUOUS
 62
     7
 10
222.4122117279
 20
625.7074851643
 30
0.0
 11
222.4122117279
 21
625.4074852083
 31
0.0
  0
LINE
  5
722
  8
0
  6
CONTINUOUS
 62
     7
 10
221.6622064827
 20
623.1574850723
 30
0.0
 11
221.6622064827
 21
622.6574849903
 31
0.0
  0
LINE
  5
723
  8
0
  6
CONTINUOUS
 62
     7
 10
225.8622105239
 20
623.1574850723
 30
0.0
 11
225.8622105239
 21
622.6574849903
 31
0.0
  0
LINE
  5
724
  8
0
  6
CONTINUOUS
 62
     7
 10
228.5622115252
 20
622.6574849903
 30
0.0
 11
228.5622115252
 21
623.1574850723
 31
0.0
  0
LINE
  5
725
  8
0
  6
CONTINUOUS
 62
     7
 10
224.362207484
 20
618.4574849073
 30
0.0
 11
224.362207484
 21
618.9574849892
 31
0.0
  0
LINE
  5
726
  8
0
  6
CONTINUOUS
 62
     7
 10
230.0622071145
 20
623.1574850723
 30
0.0
 11
230.0622071145
 21
622.6574849903
 31
0.0
  0
LINE
  5
727
  8
0
  6
CONTINUOUS
 62
     7
 10
225.8622105239
 20
618.9574849892
 30
0.0
 11
225.8622105239
 21
618.4574849073
 31
0.0
  0
LINE
  5
728
  8
0
  6
CONTINUOUS
 62
     7
 10
228.5622115252
 20
618.4574849073
 30
0.0
 11
228.5622115252
 21
618.9574849892
 31
0.0
  0
LINE
  5
729
  8
0
  6
CONTINUOUS
 62
     7
 10
224.362207484
 20
622.6574849903
 30
0.0
 11
224.362207484
 21
623.1574850723
 31
0.0
  0
LINE
  5
72A
  8
0
  6
CONTINUOUS
 62
     7
 10
220.1622108934
 20
618.4574849073
 30
0.0
 11
220.1622108934
 21
618.9574849892
 31
0.0
  0
LINE
  5
72B
  8
0
  6
CONTINUOUS
 62
     7
 10
220.1622108934
 20
622.6574849903
 30
0.0
 11
220.1622108934
 21
623.1574850723
 31
0.0
  0
LINE
  5
72C
  8
0
  6
CONTINUOUS
 62
     7
 10
221.6622064827
 20
618.9574849892
 30
0.0
 11
221.6622064827
 21
618.4574849073
 31
0.0
  0
LINE
  5
72D
  8
0
  6
CONTINUOUS
 62
     7
 10
230.0622071145
 20
618.9574849892
 30
0.0
 11
230.0622071145
 21
618.4574849073
 31
0.0
  0
LINE
  5
72E
  8
0
  6
CONTINUOUS
 62
     7
 10
222.4122117279
 20
628.2074851084
 30
0.0
 11
223.6122096894
 21
628.2074851084
 31
0.0
  0
LINE
  5
72F
  8
0
  6
CONTINUOUS
 62
     7
 10
222.4122117279
 20
628.2074851084
 30
0.0
 11
222.4122117279
 21
625.7074851643
 31
0.0
  0
LINE
  5
730
  8
0
  6
CONTINUOUS
 62
     7
 10
227.81220628
 20
628.2074851084
 30
0.0
 11
226.6122083185
 21
628.2074851084
 31
0.0
  0
LINE
  5
731
  8
0
  6
CONTINUOUS
 62
     7
 10
227.81220628
 20
625.7074851643
 30
0.0
 11
227.81220628
 21
628.2074851084
 31
0.0
  0
LINE
  5
732
  8
0
  6
CONTINUOUS
 62
     7
 10
223.6122096894
 20
628.9074848506
 30
0.0
 11
222.4122117279
 21
628.9074848506
 31
0.0
  0
LINE
  5
733
  8
0
  6
CONTINUOUS
 62
     7
 10
222.4122117279
 20
628.9074848506
 30
0.0
 11
222.4122117279
 21
628.2074851084
 31
0.0
  0
LINE
  5
734
  8
0
  6
CONTINUOUS
 62
     7
 10
227.81220628
 20
628.9074848506
 30
0.0
 11
226.6122083185
 21
628.9074848506
 31
0.0
  0
LINE
  5
735
  8
0
  6
CONTINUOUS
 62
     7
 10
227.81220628
 20
628.2074851084
 30
0.0
 11
227.81220628
 21
628.9074848506
 31
0.0
  0
LINE
  5
736
  8
0
  6
CONTINUOUS
 62
     7
 10
227.81220628
 20
629.2074852723
 30
0.0
 11
222.4122117279
 21
629.2074852723
 31
0.0
  0
LINE
  5
737
  8
0
  6
CONTINUOUS
 62
     7
 10
222.4122117279
 20
628.9074848506
 30
0.0
 11
222.4122117279
 21
629.2074852723
 31
0.0
  0
LINE
  5
738
  8
0
  6
CONTINUOUS
 62
     7
 10
227.81220628
 20
629.2074852723
 30
0.0
 11
227.81220628
 21
628.9074848506
 31
0.0
  0
ARC
  5
739
  8
0
  6
CONTINUOUS
 62
     7
 10
225.2337051239
 20
622.5872752963
 30
0.0
 40
0.6293271121040545
 50
329.8472205818
 51
14.7307049861
  0
LINE
  5
73A
  8
0
  6
CONTINUOUS
 62
     7
 10
221.6122056363
 20
625.4074852083
 30
0.0
 11
221.6122056363
 21
626.4074849065
 31
0.0
  0
LINE
  5
73B
  8
0
  6
CONTINUOUS
 62
     7
 10
218.2122076867
 20
626.4074849065
 30
0.0
 11
221.6122056363
 21
626.4074849065
 31
0.0
  0
LINE
  5
73C
  8
0
  6
CONTINUOUS
 62
     7
 10
218.2122076867
 20
625.4074852083
 30
0.0
 11
218.2122076867
 21
626.4074849065
 31
0.0
  0
LINE
  5
73D
  8
0
  6
CONTINUOUS
 62
     7
 10
228.6122123716
 20
625.4074852083
 30
0.0
 11
228.6122123716
 21
626.4074849065
 31
0.0
  0
LINE
  5
73E
  8
0
  6
CONTINUOUS
 62
     7
 10
228.6122123716
 20
626.4074849065
 30
0.0
 11
232.0122103212
 21
626.4074849065
 31
0.0
  0
LINE
  5
73F
  8
0
  6
CONTINUOUS
 62
     7
 10
232.0122103212
 20
625.4074852083
 30
0.0
 11
232.0122103212
 21
626.4074849065
 31
0.0
  0
LINE
  5
740
  8
0
  6
CONTINUOUS
 62
     7
 10
232.0122103212
 20
614.807485054
 30
0.0
 11
218.2122076867
 21
614.807485054
 31
0.0
  0
LINE
  5
741
  8
0
  6
CONTINUOUS
 62
     7
 10
232.0122103212
 20
615.8074847523
 30
0.0
 11
232.0122103212
 21
614.807485054
 31
0.0
  0
LINE
  5
742
  8
0
  6
CONTINUOUS
 62
     7
 10
218.2122076867
 20
614.807485054
 30
0.0
 11
218.2122076867
 21
615.8074847523
 31
0.0
  0
ARC
  5
743
  8
0
  6
CONTINUOUS
 62
     7
 10
201.9122092841
 20
618.1074849803
 30
0.0
 40
4.999999999999962
 50
32.6836388462
 51
147.3163611538
  0
ARC
  5
744
  8
0
  6
CONTINUOUS
 62
     7
 10
201.9122092841
 20
618.1074849803
 30
0.0
 40
5.000000000000058
 50
212.6836388463
 51
327.3163611537
  0
LINE
  5
745
  8
0
  6
CONTINUOUS
 62
     7
 10
207.9122121451
 20
605.1074852336
 30
0.0
 11
195.9122101782
 21
605.1074852336
 31
0.0
  0
LINE
  5
746
  8
0
  6
CONTINUOUS
 62
     7
 10
195.9122101782
 20
631.1074848387
 30
0.0
 11
207.9122121451
 21
631.1074848387
 31
0.0
  0
LINE
  5
747
  8
0
  6
CONTINUOUS
 62
     7
 10
207.9122121451
 20
605.1074852336
 30
0.0
 11
207.9122121451
 21
631.1074848387
 31
0.0
  0
LINE
  5
748
  8
0
  6
CONTINUOUS
 62
     7
 10
195.9122101782
 20
605.1074852336
 30
0.0
 11
195.9122101782
 21
615.4074849661
 31
0.0
  0
LINE
  5
749
  8
0
  6
CONTINUOUS
 62
     7
 10
195.9122101782
 20
620.8074849752
 30
0.0
 11
195.9122101782
 21
631.1074848387
 31
0.0
  0
LINE
  5
74A
  8
0
  6
CONTINUOUS
 62
     7
 10
167.4122120259
 20
607.6074847121
 30
0.0
 11
155.4122026084
 21
607.6074847121
 31
0.0
  0
LINE
  5
74B
  8
0
  6
CONTINUOUS
 62
     7
 10
155.4122026084
 20
607.6074847121
 30
0.0
 11
155.4122026084
 21
614.507485098
 31
0.0
  0
LINE
  5
74C
  8
0
  6
CONTINUOUS
 62
     7
 10
155.4122026084
 20
626.7074848626
 30
0.0
 11
155.4122026084
 21
633.6074852485
 31
0.0
  0
LINE
  5
74D
  8
0
  6
CONTINUOUS
 62
     7
 10
155.4122026084
 20
633.6074852485
 30
0.0
 11
167.4122120259
 21
633.6074852485
 31
0.0
  0
LINE
  5
74E
  8
0
  6
CONTINUOUS
 62
     7
 10
167.4122120259
 20
607.6074847121
 30
0.0
 11
167.4122120259
 21
614.507485098
 31
0.0
  0
LINE
  5
74F
  8
0
  6
CONTINUOUS
 62
     7
 10
167.4122120259
 20
626.7074848626
 30
0.0
 11
167.4122120259
 21
633.6074852485
 31
0.0
  0
LINE
  5
750
  8
0
  6
CONTINUOUS
 62
     7
 10
165.0622094987
 20
623.7074850693
 30
0.0
 11
156.1622078536
 21
623.7074850693
 31
0.0
  0
ARC
  5
751
  8
0
  6
CONTINUOUS
 62
     7
 10
165.0622092841
 20
622.7074849803
 30
0.0
 40
1.000000000000114
 50
45.2806413896
 51
90.0
  0
LINE
  5
752
  8
0
  6
CONTINUOUS
 62
     7
 10
166.9436599133
 20
622.2517097236
 30
0.0
 11
165.7658423302
 21
623.4180467769
 31
0.0
  0
ARC
  5
753
  8
0
  6
CONTINUOUS
 62
     7
 10
166.6622092841
 20
621.9674849803
 30
0.0
 40
0.4000000000002191
 50
0.0
 51
45.2806413896
  0
LINE
  5
754
  8
0
  6
CONTINUOUS
 62
     7
 10
167.0622135518
 20
619.2474849855
 30
0.0
 11
167.0622135518
 21
621.967484975
 31
0.0
  0
ARC
  5
755
  8
0
  6
CONTINUOUS
 62
     7
 10
166.6622092841
 20
619.2474849803
 30
0.0
 40
0.3999999999999567
 50
314.7193586104
 51
0.0
  0
LINE
  5
756
  8
0
  6
CONTINUOUS
 62
     7
 10
165.7658423302
 20
617.7969231836
 30
0.0
 11
166.9436599133
 21
618.9632602369
 31
0.0
  0
ARC
  5
757
  8
0
  6
CONTINUOUS
 62
     7
 10
165.0622092841
 20
618.5074849803
 30
0.0
 40
0.9999999999999543
 50
270.0
 51
314.7193586104
  0
LINE
  5
758
  8
0
  6
CONTINUOUS
 62
     7
 10
156.1622078536
 20
617.5074848912
 30
0.0
 11
165.0622094987
 21
617.5074848912
 31
0.0
  0
ARC
  5
759
  8
0
  6
CONTINUOUS
 62
     7
 10
156.1622092841
 20
617.9074849803
 30
0.0
 40
0.4000000000000057
 50
180.0
 51
270.0
  0
LINE
  5
75A
  8
0
  6
CONTINUOUS
 62
     7
 10
155.7622159836
 20
623.3074850503
 30
0.0
 11
155.7622159836
 21
617.9074849102
 31
0.0
  0
ARC
  5
75B
  8
0
  6
CONTINUOUS
 62
     7
 10
156.1622092841
 20
623.3074849803
 30
0.0
 40
0.4000000000000909
 50
90.0000000001
 51
180.0
  0
LINE
  5
75C
  8
0
  6
CONTINUOUS
 62
     7
 10
154.5122022746
 20
620.5824849809
 30
0.0
 11
152.0122046588
 21
620.5824849809
 31
0.0
  0
LINE
  5
75D
  8
0
  6
CONTINUOUS
 62
     7
 10
154.5122022746
 20
618.1074850362
 30
0.0
 11
154.5122022746
 21
620.5824849809
 31
0.0
  0
LINE
  5
75E
  8
0
  6
CONTINUOUS
 62
     7
 10
152.0122046588
 20
618.1074850362
 30
0.0
 11
154.5122022746
 21
618.1074850362
 31
0.0
  0
LINE
  5
75F
  8
0
  6
CONTINUOUS
 62
     7
 10
152.0122046588
 20
618.1074850362
 30
0.0
 11
152.0122046588
 21
620.5824849809
 31
0.0
  0
LINE
  5
760
  8
0
  6
CONTINUOUS
 62
     7
 10
168.3122123597
 20
618.1074850362
 30
0.0
 11
168.3122123597
 21
620.5824849809
 31
0.0
  0
LINE
  5
761
  8
0
  6
CONTINUOUS
 62
     7
 10
170.8122099755
 20
620.5824849809
 30
0.0
 11
168.3122123597
 21
620.5824849809
 31
0.0
  0
LINE
  5
762
  8
0
  6
CONTINUOUS
 62
     7
 10
168.3122123597
 20
618.1074850362
 30
0.0
 11
170.8122099755
 21
618.1074850362
 31
0.0
  0
LINE
  5
763
  8
0
  6
CONTINUOUS
 62
     7
 10
170.8122099755
 20
618.1074850362
 30
0.0
 11
170.8122099755
 21
620.5824849809
 31
0.0
  0
LINE
  5
764
  8
0
  6
CONTINUOUS
 62
     7
 10
170.8122099755
 20
623.1074849244
 30
0.0
 11
168.3122123597
 21
623.1074849244
 31
0.0
  0
LINE
  5
765
  8
0
  6
CONTINUOUS
 62
     7
 10
170.8122099755
 20
620.6324849796
 30
0.0
 11
168.3122123597
 21
620.6324849796
 31
0.0
  0
LINE
  5
766
  8
0
  6
CONTINUOUS
 62
     7
 10
168.3122123597
 20
623.1074849244
 30
0.0
 11
168.3122123597
 21
620.6324849796
 31
0.0
  0
LINE
  5
767
  8
0
  6
CONTINUOUS
 62
     7
 10
170.8122099755
 20
623.1074849244
 30
0.0
 11
170.8122099755
 21
620.6324849796
 31
0.0
  0
LINE
  5
768
  8
0
  6
CONTINUOUS
 62
     7
 10
154.5122022746
 20
623.1074849244
 30
0.0
 11
152.0122046588
 21
623.1074849244
 31
0.0
  0
LINE
  5
769
  8
0
  6
CONTINUOUS
 62
     7
 10
154.5122022746
 20
620.6324849796
 30
0.0
 11
154.5122022746
 21
623.1074849244
 31
0.0
  0
LINE
  5
76A
  8
0
  6
CONTINUOUS
 62
     7
 10
154.5122022746
 20
620.6324849796
 30
0.0
 11
152.0122046588
 21
620.6324849796
 31
0.0
  0
LINE
  5
76B
  8
0
  6
CONTINUOUS
 62
     7
 10
152.0122046588
 20
620.6324849796
 30
0.0
 11
152.0122046588
 21
623.1074849244
 31
0.0
  0
LINE
  5
76C
  8
0
  6
CONTINUOUS
 62
     7
 10
152.0122046588
 20
614.507485098
 30
0.0
 11
170.8122099755
 21
614.507485098
 31
0.0
  0
LINE
  5
76D
  8
0
  6
CONTINUOUS
 62
     7
 10
152.0122046588
 20
626.7074848626
 30
0.0
 11
170.8122099755
 21
626.7074848626
 31
0.0
  0
LINE
  5
76E
  8
0
  6
CONTINUOUS
 62
     7
 10
170.8122099755
 20
618.1074850362
 30
0.0
 11
170.8122099755
 21
614.507485098
 31
0.0
  0
LINE
  5
76F
  8
0
  6
CONTINUOUS
 62
     7
 10
170.8122099755
 20
620.6324849796
 30
0.0
 11
170.8122099755
 21
620.5824849809
 31
0.0
  0
LINE
  5
770
  8
0
  6
CONTINUOUS
 62
     7
 10
170.8122099755
 20
623.1074849244
 30
0.0
 11
170.8122099755
 21
626.7074848626
 31
0.0
  0
LINE
  5
771
  8
0
  6
CONTINUOUS
 62
     7
 10
152.0122046588
 20
623.1074849244
 30
0.0
 11
152.0122046588
 21
626.7074848626
 31
0.0
  0
LINE
  5
772
  8
0
  6
CONTINUOUS
 62
     7
 10
152.0122046588
 20
620.6324849796
 30
0.0
 11
152.0122046588
 21
620.5824849809
 31
0.0
  0
LINE
  5
773
  8
0
  6
CONTINUOUS
 62
     7
 10
152.0122046588
 20
614.507485098
 30
0.0
 11
152.0122046588
 21
618.1074850362
 31
0.0
  0
ARC
  5
774
  8
0
  6
CONTINUOUS
 62
     8
 10
201.9122092841
 20
618.1074849803
 30
0.0
 40
3.666666666666634
 50
47.4225675298
 51
132.5774324702
  0
ARC
  5
775
  8
0
  6
CONTINUOUS
 62
     8
 10
201.9122092841
 20
618.1074849803
 30
0.0
 40
3.666666666666714
 50
227.4225675298
 51
312.5774324702
  0
LINE
  5
776
  8
0
  6
CONTINUOUS
 62
     8
 10
223.4039883135
 20
637.8074855644
 30
0.0
 11
217.6122124312
 21
637.8074855644
 31
0.0
  0
LINE
  5
777
  8
0
  6
CONTINUOUS
 62
     8
 10
224.612211716
 20
637.8074855644
 30
0.0
 11
223.7575407145
 21
637.8074855644
 31
0.0
  0
ENDSEC
  0
EOF
