  0
SECTION
  2
HEADER
  9
$ACADVER
  1
AC1014
  9
$ACADMAINTVER
 70
           0
  9
$DWGCODEPAGE
  3
DOS932
  9
$INSBASE
 10
0.0
 20
0.0
 30
0.0
  9
$EXTMIN
 10
1.000000000000E+20
 20
1.000000000000E+20
 30
1.000000000000E+20
  9
$EXTMAX
 10
-1.000000000000E+20
 20
-1.000000000000E+20
 30
-1.000000000000E+20
  9
$LIMMIN
 10
0.0
 20
0.0
  9
$LIMMAX
 10
0.0
 20
0.0
  9
$ORTHOMODE
 70
           0
  9
$REGENMODE
 70
           1
  9
$FILLMODE
 70
           1
  9
$QTEXTMODE
 70
           0
  9
$MIRRTEXT
 70
           1
  9
$DRAGMODE
 70
           2
  9
$LTSCALE
 40
1.0
  9
$OSMODE
 70
           0
  9
$ATTMODE
 70
           1
  9
$TEXTSIZE
 40
0.2
  9
$TRACEWID
 40
0.05
  9
$TEXTSTYLE
  7
STANDARD
  9
$CLAYER
  8
0
  9
$CELTYPE
  6
CONTINUOUS
  9
$CECOLOR
 62
         256
  9
$CELTSCALE
 40
1.0
  9
$DELOBJ
 70
           1
  9
$DISPSILH
 70
           0
  9
$DIMSCALE
 40
1.0
  9
$DIMASZ
 40
0.18
  9
$DIMEXO
 40
0.0625
  9
$DIMDLI
 40
0.38
  9
$DIMRND
 40
0.0
  9
$DIMDLE
 40
0.0
  9
$DIMEXE
 40
0.18
  9
$DIMTP
 40
0.0
  9
$DIMTM
 40
0.0
  9
$DIMTXT
 40
0.18
  9
$DIMCEN
 40
0.09
  9
$DIMTSZ
 40
0.0
  9
$DIMTOL
 70
           0
  9
$DIMLIM
 70
           0
  9
$DIMTIH
 70
           1
  9
$DIMTOH
 70
           1
  9
$DIMSE1
 70
           0
  9
$DIMSE2
 70
           0
  9
$DIMTAD
 70
           0
  9
$DIMZIN
 70
           0
  9
$DIMBLK
  1

  9
$DIMASO
 70
           1
  9
$DIMSHO
 70
           1
  9
$DIMPOST
  1

  9
$DIMAPOST
  1

  9
$DIMALT
 70
           0
  9
$DIMALTD
 70
           2
  9
$DIMALTF
 40
25.4
  9
$DIMLFAC
 40
1.0
  9
$DIMTOFL
 70
           0
  9
$DIMTVP
 40
0.0
  9
$DIMTIX
 70
           0
  9
$DIMSOXD
 70
           0
  9
$DIMSAH
 70
           0
  9
$DIMBLK1
  1

  9
$DIMBLK2
  1

  9
$DIMSTYLE
  2
STANDARD
  9
$DIMCLRD
 70
           0
  9
$DIMCLRE
 70
           0
  9
$DIMCLRT
 70
           0
  9
$DIMTFAC
 40
1.0
  9
$DIMGAP
 40
0.09
  9
$DIMJUST
 70
           0
  9
$DIMSD1
 70
           0
  9
$DIMSD2
 70
           0
  9
$DIMTOLJ
 70
           1
  9
$DIMTZIN
 70
           0
  9
$DIMALTZ
 70
           0
  9
$DIMALTTZ
 70
           0
  9
$DIMFIT
 70
           3
  9
$DIMUPT
 70
           0
  9
$DIMUNIT
 70
           2
  9
$DIMDEC
 70
           4
  9
$DIMTDEC
 70
           4
  9
$DIMALTU
 70
           2
  9
$DIMALTTD
 70
           2
  9
$DIMTXSTY
  7
STANDARD
  9
$DIMAUNIT
 70
           0
  9
$LUNITS
 70
           2
  9
$LUPREC
 70
           4
  9
$SKETCHINC
 40
0.1
  9
$FILLETRAD
 40
0.0
  9
$AUNITS
 70
           0
  9
$AUPREC
 70
           0
  9
$MENU
  1
acad
  9
$ELEVATION
 40
0.0
  9
$PELEVATION
 40
0.0
  9
$THICKNESS
 40
0.0
  9
$LIMCHECK
 70
           0
  9
$BLIPMODE
 70
           1
  9
$CHAMFERA
 40
0.0
  9
$CHAMFERB
 40
0.0
  9
$CHAMFERC
 40
0.0
  9
$CHAMFERD
 40
0.0
  9
$SKPOLY
 70
           0
  9
$TDCREATE
 40
0.000000000
  9
$TDUPDATE
 40
0.000000000
  9
$TDINDWG
 40
0.0000000000
  9
$TDUSRTIMER
 40
0.0000000000
  9
$USRTIMER
 70
           1
  9
$ANGBASE
 50
0.0
  9
$ANGDIR
 70
           0
  9
$PDMODE
 70
           0
  9
$PDSIZE
 40
0.0
  9
$PLINEWID
 40
0.0
  9
$COORDS
 70
           0
  9
$SPLFRAME
 70
           0
  9
$SPLINETYPE
 70
           6
  9
$SPLINESEGS
 70
           8
  9
$ATTDIA
 70
           0
  9
$ATTREQ
 70
           1
  9
$HANDLING
 70
           1
  9
$HANDSEED
  5
337
  9
$SURFTAB1
 70
           6
  9
$SURFTAB2
 70
           6
  9
$SURFTYPE
 70
           6
  9
$SURFU
 70
           6
  9
$SURFV
 70
           6
  9
$UCSNAME
  2

  9
$UCSORG
 10
0.0
 20
0.0
 30
0.0
  9
$UCSXDIR
 10
1.0
 20
0.0
 30
0.0
  9
$UCSYDIR
 10
0.0
 20
1.0
 30
0.0
  9
$PUCSNAME
  2

  9
$PUCSORG
 10
0.0
 20
0.0
 30
0.0
  9
$PUCSXDIR
 10
1.0
 20
0.0
 30
0.0
  9
$PUCSYDIR
 10
0.0
 20
1.0
 30
0.0
  9
$USERI1
 70
           0
  9
$USERI2
 70
           0
  9
$USERI3
 70
           0
  9
$USERI4
 70
           0
  9
$USERI5
 70
           0
  9
$USERR1
 40
0.0
  9
$USERR2
 40
0.0
  9
$USERR3
 40
0.0
  9
$USERR4
 40
0.0
  9
$USERR5
 40
0.0
  9
$WORLDVIEW
 70
           1
  9
$SHADEDGE
 70
           3
  9
$SHADEDIF
 70
          70
  9
$TILEMODE
 70
           1
  9
$MAXACTVP
 70
          16
  9
$PINSBASE
 10
0.0
 20
0.0
 30
0.0
  9
$PLIMCHECK
 70
           0
  9
$PEXTMIN
 10
1.000000000000E+20
 20
1.000000000000E+20
 30
1.000000000000E+20
  9
$PEXTMAX
 10
-1.000000000000E+20
 20
-1.000000000000E+20
 30
-1.000000000000E+20
  9
$PLIMMIN
 10
0.0
 20
0.0
  9
$PLIMMAX
 10
12.0
 20
9.0
  9
$UNITMODE
 70
           0
  9
$VISRETAIN
 70
           0
  9
$PLINEGEN
 70
           1
  9
$PSLTSCALE
 70
           0
  9
$TREEDEPTH
 70
        3020
  9
$PICKSTYLE
 70
           1
  9
$CMLSTYLE
  2
STANDARD
  9
$CMLJUST
 70
           0
  9
$CMLSCALE
 40
1.0
  9
$PROXYGRAPHICS
 70
           0
  9
$MEASUREMENT
 70
           0
  0
ENDSEC
  0
SECTION
  2
CLASSES
  0
CLASS
  1
LWPOLYLINE
  2
AcDbPolyline
  3
"AutoCAD"
 90
        0
280
           0
281
           1
  0
CLASS
  1
IMAGE
  2
AcDbRasterImage
  3
ISM
 90
      127
280
           0
281
           1
  0
CLASS
  1
OLE2FRAME
  2
AcDbOle2Frame
  3
""
 90
        0
280
           0
281
           1
  0
CLASS
  1
HATCH
  2
AcDbHatch
  3
"ACAD_SEDONA"
 90
        0
280
           0
281
           1
  0
CLASS
  1
DICTIONARYVAR
  2
AcDbDictionaryVar
  3
"AutoCAD"
 90
        0
280
           0
281
           0
  0
CLASS
  1
RASTERVARIABLES
  2
AcDbRasterVariables
  3
ISM
 90
        0
280
           0
281
           0
  0
CLASS
  1
IMAGEDEF
  2
AcDbRasterImageDef
  3
ISM
 90
        0
280
           0
281
           0
  0
CLASS
  1
IMAGEDEF_REACTOR
  2
AcDbRasterImageDefReactor
  3
ISM
 90
        1
280
           0
281
           0
  0
CLASS
  1
IDBUFFER
  2
AcDbIdBuffer
  3
"Acad"
 90
        0
280
           0
281
           0
  0
CLASS
  1
SPATIAL_FILTER
  2
AcDbSpatialFilter
  3
"Acad"
 90
        0
280
           0
281
           0
  0
CLASS
  1
XRECORD
  2
AcDbXrecord
  3
"<Built In>"
 90
        0
280
           0
281
           0
  0
CLASS
  1
SORTENTSTABLE
  2
AcDbSortentsTable
  3
"AutoCAD"
 90
        0
280
           0
281
           0
  0
CLASS
  1
LAYER_INDEX
  2
AcDbLayerIndex
  3
"Acad"
 90
        0
280
           0
281
           0
  0
CLASS
  1
SPATIAL_INDEX
  2
AcDbSpatialIndex
  3
"Acad"
 90
        0
280
           0
281
           0
  0
CLASS
  1
OBJECT_PTR
  2
CAseDLPNTableRecord
  3
"ASE-LPNTableRecord"
 90
        1
280
           0
281
           0
  0
CLASS
  1
LAYOUT
  2
AcDbLayout
  3
"AutoCAD 2000"
 90
        1
280
           0
281
           0
  0
CLASS
  1
PLOTSETTINGS
  2
AcDbPlotSettings
  3
"AutoCAD 2000"
 90
        1
280
           0
281
           0
  0
CLASS
  1
ACDBDICTIONARYWDFLT
  2
AcDbDictionaryWithDefault
  3
"AutoCAD 2000"
 90
        1
280
           0
281
           0
  0
CLASS
  1
ACDBPLACEHOLDER
  2
AcDbPlaceHolder
  3
"AutoCAD 2000"
 90
        1
280
           0
281
           0
  0
CLASS
  1
VBA_PROJECT
  2
AcDbVbaProject
  3
"acadvba"
 90
        1
280
           0
281
           0
  0
CLASS
  1
WIPEOUT
  2
AcDbWipeout
  3
WipeOut|AutoCAD Express Tool|expresstools@autodesk.com
 90
      127
280
           0
281
           1
  0
CLASS
  1
WIPEOUTVARIABLES
  2
AcDbWipeoutVariables
  3
WipeOut|AutoCAD Express Tool|expresstools@autodesk.com
 90
        0
280
           0
281
           0
  0
CLASS
  1
RTEXT
  2
RText
  3
RText|AutoCAD Express Tool|expresstools@autodesk.com
 90
        0
280
           0
281
           1
  0
CLASS
  1
ARCALIGNEDTEXT
  2
AcDbArcAlignedText
  3
ATEXT|AutoCAD Express Tool|expresstools@autodesk.com
 90
        0
280
           0
281
           1
  0
ENDSEC
  0
SECTION
  2
TABLES
  0
TABLE
  2
VPORT
  5
7
100
AcDbSymbolTable
 70
           1
  0
VPORT
  5
15
100
AcDbSymbolTableRecord
100
AcDbViewportTableRecord
  2
*ACTIVE
 70
           0
 10
0.0
 20
0.0
 11
1.0
 21
1.0
 12
6.591288
 22
4.579184
 13
0.0
 23
0.0
 14
1.0
 24
1.0
 15
0.0
 25
0.0
 16
0.0
 26
0.0
 36
1.0
 17
0.0
 27
0.0
 37
0.0
 40
9.158369
 41
0.688564
 42
50.0
 43
0.0
 44
0.0
 50
0.0
 51
0.0
 71
           0
 72
         100
 73
           1
 74
           1
 75
           0
 76
           0
 77
           0
 78
           0
  0
ENDTAB
  0
TABLE
  2
LTYPE
  5
4
100
AcDbSymbolTable
 70
          10
  0
LTYPE
  5
11
100
AcDbSymbolTableRecord
100
AcDbLinetypeTableRecord
  2
BYBLOCK
 70
          64
  3

 72
          65
 73
           0
 40
0.0
  0
LTYPE
  5
12
100
AcDbSymbolTableRecord
100
AcDbLinetypeTableRecord
  2
BYLAYER
 70
          64
  3

 72
          65
 73
           0
 40
0.0
  0
LTYPE
  5
13
100
AcDbSymbolTableRecord
100
AcDbLinetypeTableRecord
  2
CONTINUOUS
 70
          64
  3
Solid line
 72
          65
 73
           0
 40
0.0
  0
LTYPE
  5
1D
100
AcDbSymbolTableRecord
100
AcDbLinetypeTableRecord
  2
DASHED
 70
          64
  3
Dashed
 72
          65
 73
           2
 40
15.0
 49
12.0
 74
           0
 49
-3.0
 74
           0
  0
LTYPE
  5
1E
100
AcDbSymbolTableRecord
100
AcDbLinetypeTableRecord
  2
DOTTED
 70
          64
  3
Dotted
 72
          65
 73
           2
 40
3.5
 49
0.5
 74
           0
 49
-3.0
 74
           0
  0
LTYPE
  5
1F
100
AcDbSymbolTableRecord
100
AcDbLinetypeTableRecord
  2
DOT_CENTER
 70
          64
  3
Dot_Center
 72
          65
 73
           4
 40
2.0
 49
1.25
 74
           0
 49
-0.25
 74
           0
 49
0.25
 74
           0
 49
-0.25
 74
           0
  0
LTYPE
  5
20
100
AcDbSymbolTableRecord
100
AcDbLinetypeTableRecord
  2
LONG_DASHED
 70
          64
  3
Long_Dashed
 72
          65
 73
           2
 40
2.0
 49
1.5
 74
           0
 49
-0.5
 74
           0
  0
LTYPE
  5
21
100
AcDbSymbolTableRecord
100
AcDbLinetypeTableRecord
  2
DASH_CENTER
 70
          64
  3
Dash_Center
 72
          65
 73
           4
 40
36.0
 49
24.0
 74
           0
 49
-3.0
 74
           0
 49
6.0
 74
           0
 49
-3.0
 74
           0
  0
LTYPE
  5
22
100
AcDbSymbolTableRecord
100
AcDbLinetypeTableRecord
  2
PHANTOM
 70
          64
  3
Phantom
 72
          65
 73
           6
 40
2.5
 49
1.25
 74
           0
 49
-0.25
 74
           0
 49
0.25
 74
           0
 49
-0.25
 74
           0
 49
0.25
 74
           0
 49
-0.25
 74
           0
  0
LTYPE
  5
23
100
AcDbSymbolTableRecord
100
AcDbLinetypeTableRecord
  2
CENTER_DASH_DASH
 70
          64
  3
Center_Dash_Dash
 72
          65
 73
           6
 40
22.0
 49
12.0
 74
           0
 49
-3.0
 74
           0
 49
0.5
 74
           0
 49
-3.0
 74
           0
 49
0.5
 74
           0
 49
-3.0
 74
           0
  0
ENDTAB
  0
TABLE
  2
LAYER
  5
2
100
AcDbSymbolTable
 70
           2
  0
LAYER
  5
14
100
AcDbSymbolTableRecord
100
AcDbLayerTableRecord
  2
0
 70
           0
 62
           7
  6
CONTINUOUS
  0
LAYER
  5
24
100
AcDbSymbolTableRecord
100
AcDbLayerTableRecord
  2
1
 70
           0
 62
           7
  6
CONTINUOUS
  0
ENDTAB
  0
TABLE
  2
STYLE
  5
3
100
AcDbSymbolTable
 70
           3
  0
STYLE
  5
17
100
AcDbSymbolTableRecord
100
AcDbTextStyleTableRecord
  2
STANDARD
 70
           0
 40
0.0
 41
1.0
 50
0.0
 71
           0
 42
0.0
  3
txt
  4

  0
STYLE
  5
56
100
AcDbSymbolTableRecord
100
AcDbTextStyleTableRecord
  2
CONVERTER_1
 70
           0
 40
0.0
 41
0.81
 50
0.0
 71
           0
 42
0.0
  3
txt.shx
  4

  0
STYLE
  5
333
100
AcDbSymbolTableRecord
100
AcDbTextStyleTableRecord
  2
CONVERTER_2
 70
           0
 40
0.0
 41
0.9
 50
0.0
 71
           0
 42
0.0
  3
txt.shx
  4

  0
ENDTAB
  0
TABLE
  2
VIEW
  5
5
100
AcDbSymbolTable
 70
           0
  0
ENDTAB
  0
TABLE
  2
UCS
  5
6
100
AcDbSymbolTable
 70
           0
  0
ENDTAB
  0
TABLE
  2
APPID
  5
8
100
AcDbSymbolTable
 70
           1
  0
APPID
  5
16
100
AcDbSymbolTableRecord
100
AcDbRegAppTableRecord
  2
ACAD
 70
           0
  0
ENDTAB
  0
TABLE
  2
DIMSTYLE
  5
9
100
AcDbSymbolTable
 70
           1
  0
DIMSTYLE
105
18
100
AcDbSymbolTableRecord
100
AcDbDimStyleTableRecord
  2
STANDARD
 70
           0
  3

  4

  5

  6

  7

 40
1.0
 41
0.18
 42
0.0625
 43
0.38
 44
0.18
 45
0.0
 46
0.0
 47
0.0
 48
0.0
 71
           0
 72
           0
 73
           1
 74
           1
 75
           0
 76
           0
 77
           0
 78
           0
140
0.18
141
0.09
142
0.0
143
25.4
144
1.0
145
0.0
146
1.0
147
0.09
170
           0
171
           2
172
           0
173
           0
174
           0
175
           0
176
           0
177
           0
178
           0
270
           2
271
           4
272
           4
273
           2
274
           2
275
           0
280
           0
281
           0
282
           0
283
           1
284
           0
285
           0
286
           0
287
           0
288
           0
340
17
  0
ENDTAB
  0
TABLE
  2
BLOCK_RECORD
  5
1
100
AcDbSymbolTable
 70
          13
  0
BLOCK_RECORD
  5
A
100
AcDbSymbolTableRecord
100
AcDbBlockTableRecord
  2
*MODEL_SPACE
  0
BLOCK_RECORD
  5
B
100
AcDbSymbolTableRecord
100
AcDbBlockTableRecord
  2
*PAPER_SPACE
  0
BLOCK_RECORD
  5
25
100
AcDbSymbolTableRecord
100
AcDbBlockTableRecord
  2
REMARK
  0
BLOCK_RECORD
  5
27
100
AcDbSymbolTableRecord
100
AcDbBlockTableRecord
  2
000007043_SHF020XXX2UH__1
  0
BLOCK_RECORD
  5
2A
100
AcDbSymbolTableRecord
100
AcDbBlockTableRecord
  2
HPG_14A__2
  0
BLOCK_RECORD
  5
2C
100
AcDbSymbolTableRecord
100
AcDbBlockTableRecord
  2
HPG_14A__3
  0
BLOCK_RECORD
  5
2E
100
AcDbSymbolTableRecord
100
AcDbBlockTableRecord
  2
HPG_14A__4
  0
BLOCK_RECORD
  5
30
100
AcDbSymbolTableRecord
100
AcDbBlockTableRecord
  2
000007043_SHF020XXX2UH__5
  0
BLOCK_RECORD
  5
33
100
AcDbSymbolTableRecord
100
AcDbBlockTableRecord
  2
HPG_14A__6
  0
BLOCK_RECORD
  5
35
100
AcDbSymbolTableRecord
100
AcDbBlockTableRecord
  2
HPG_14A__7
  0
BLOCK_RECORD
  5
37
100
AcDbSymbolTableRecord
100
AcDbBlockTableRecord
  2
HPG_14A__8
  0
BLOCK_RECORD
  5
39
100
AcDbSymbolTableRecord
100
AcDbBlockTableRecord
  2
HPG_14A__9
  0
BLOCK_RECORD
  5
3B
100
AcDbSymbolTableRecord
100
AcDbBlockTableRecord
  2
HPG_14A__10
  0
BLOCK_RECORD
  5
3D
100
AcDbSymbolTableRecord
100
AcDbBlockTableRecord
  2
HPG_14A__11
  0
BLOCK_RECORD
  5
3F
100
AcDbSymbolTableRecord
100
AcDbBlockTableRecord
  2
HPG_14A__12
  0
ENDTAB
  0
ENDSEC
  0
SECTION
  2
BLOCKS
  0
BLOCK
  5
D
100
AcDbEntity
  8
0
100
AcDbBlockBegin
  2
*MODEL_SPACE
 70
           0
 10
0.0
 20
0.0
 30
0.0
  3
*MODEL_SPACE
  1

  0
ENDBLK
  5
E
100
AcDbEntity
  8
0
100
AcDbBlockEnd
  0
BLOCK
  5
F
100
AcDbEntity
 67
           1
  8
0
100
AcDbBlockBegin
  2
*PAPER_SPACE
 70
           0
 10
0.0
 20
0.0
 30
0.0
  3
*PAPER_SPACE
  1

  0
ENDBLK
  5
10
100
AcDbEntity
 67
           1
  8
0
100
AcDbBlockEnd
  0
BLOCK
  5
26
100
AcDbEntity
  8
0
100
AcDbBlockBegin
  2
REMARK
 70
           0
 10
0.0
 20
0.0
 30
0.0
  3
REMARK
  1

  0
TEXT
  5
5F
100
AcDbEntity
  8
1
 62
           3
100
AcDbText
 10
-369.667872568811
 20
125.230811980843
 40
1.4
  1
http://www.hds.co.jp
 41
0.81
  7
CONVERTER_1
100
AcDbText
  0
TEXT
  5
5E
100
AcDbEntity
  8
1
 62
           3
100
AcDbText
 10
-369.667872568811
 20
127.470811980843
 40
1.4
  1
Tel.03-5471-7800 Fax.03-5471-7811
 41
0.81
  7
CONVERTER_1
100
AcDbText
  0
TEXT
  5
5D
100
AcDbEntity
  8
1
 62
           3
100
AcDbText
 10
-369.667872568811
 20
129.710811980843
 40
1.4
  1
JAPAN
 41
0.81
  7
CONVERTER_1
100
AcDbText
  0
TEXT
  5
5C
100
AcDbEntity
  8
1
 62
           3
100
AcDbText
 10
-369.667872568811
 20
131.950811980843
 40
1.4
  1
Ichigo Omori Building 7F Minamiohi 6-25-3 Shinagawa-ku, Tokyo 140-0013
 41
0.81
  7
CONVERTER_1
100
AcDbText
  0
TEXT
  5
5B
100
AcDbEntity
  8
1
 62
           3
100
AcDbText
 10
-369.667872568811
 20
134.190811980843
 40
1.4
  1
Harmonic Drive Systems,Inc.
 41
0.81
  7
CONVERTER_1
100
AcDbText
  0
TEXT
  5
5A
100
AcDbEntity
  8
1
 62
           3
100
AcDbText
 10
-369.667872568811
 20
138.670811980843
 40
1.4
  1
This drawing itself is also a property of Harmonic Drive Systems,Ins.
 41
0.81
  7
CONVERTER_1
100
AcDbText
  0
TEXT
  5
59
100
AcDbEntity
  8
1
 62
           3
100
AcDbText
 10
-369.667872568811
 20
140.910811980843
 40
1.4
  1
subject to change without notification.
 41
0.81
  7
CONVERTER_1
100
AcDbText
  0
TEXT
  5
58
100
AcDbEntity
  8
1
 62
           3
100
AcDbText
 10
-369.667872568811
 20
143.150811980843
 40
1.4
  1
All speciffcations and dimensions mentioned in the drawing are
 41
0.81
  7
CONVERTER_1
100
AcDbText
  0
TEXT
  5
57
100
AcDbEntity
  8
1
 62
           7
100
AcDbText
 10
-369.290072366995
 20
145.905630899269
 40
2.5
  1
The reference drawing
 41
0.81
  7
CONVERTER_1
100
AcDbText
  0
ARC
  5
55
100
AcDbEntity
  8
1
  6
PHANTOM
 62
           7
100
AcDbCircle
 10
-368.667872568811
 20
125.483738334501
 40
3.0
100
AcDbArc
 50
180.0
 51
-90.0
  0
ARC
  5
54
100
AcDbEntity
  8
1
  6
PHANTOM
 62
           7
100
AcDbCircle
 10
-368.667872568811
 20
147.483738334501
 40
3.0
100
AcDbArc
 50
90.0
 51
180.0
  0
ARC
  5
53
100
AcDbEntity
  8
1
  6
PHANTOM
 62
           7
100
AcDbCircle
 10
-290.667872568811
 20
147.483738334501
 40
3.0
100
AcDbArc
 50
0.0
 51
90.0
  0
ARC
  5
52
100
AcDbEntity
  8
1
  6
PHANTOM
 62
           7
100
AcDbCircle
 10
-290.667872568811
 20
125.483738334501
 40
3.0
100
AcDbArc
 50
-90.0
 51
0.0
  0
LINE
  5
51
100
AcDbEntity
  8
1
  6
PHANTOM
 62
           7
100
AcDbLine
 10
-371.667872568811
 20
147.483738334501
 11
-371.667872568811
 21
125.483738334501
  0
LINE
  5
50
100
AcDbEntity
  8
1
  6
PHANTOM
 62
           7
100
AcDbLine
 10
-368.667872568811
 20
122.483738334501
 11
-290.667872568811
 21
122.483738334501
  0
LINE
  5
4F
100
AcDbEntity
  8
1
  6
PHANTOM
 62
           7
100
AcDbLine
 10
-287.667872568811
 20
125.483738334501
 11
-287.667872568811
 21
147.483738334501
  0
LINE
  5
4E
100
AcDbEntity
  8
1
  6
PHANTOM
 62
           7
100
AcDbLine
 10
-290.667872568811
 20
150.483738334501
 11
-368.667872568811
 21
150.483738334501
  0
ENDBLK
  5
60
100
AcDbEntity
  8
0
100
AcDbBlockEnd
  0
BLOCK
  5
28
100
AcDbEntity
  8
0
100
AcDbBlockBegin
  2
000007043_SHF020XXX2UH__1
 70
           0
 10
0.0
 20
0.0
 30
0.0
  3
000007043_SHF020XXX2UH__1
  1

  0
INSERT
  5
29
100
AcDbEntity
  8
0
100
AcDbBlockReference
  2
REMARK
 10
0.0
 20
0.0
  0
ENDBLK
  5
61
100
AcDbEntity
  8
0
100
AcDbBlockEnd
  0
BLOCK
  5
2B
100
AcDbEntity
  8
0
100
AcDbBlockBegin
  2
HPG_14A__2
 70
           0
 10
0.0
 20
0.0
 30
0.0
  3
HPG_14A__2
  1

  0
ENDBLK
  5
62
100
AcDbEntity
  8
0
100
AcDbBlockEnd
  0
BLOCK
  5
2D
100
AcDbEntity
  8
0
100
AcDbBlockBegin
  2
HPG_14A__3
 70
           0
 10
0.0
 20
0.0
 30
0.0
  3
HPG_14A__3
  1

  0
ENDBLK
  5
63
100
AcDbEntity
  8
0
100
AcDbBlockEnd
  0
BLOCK
  5
2F
100
AcDbEntity
  8
0
100
AcDbBlockBegin
  2
HPG_14A__4
 70
           0
 10
0.0
 20
0.0
 30
0.0
  3
HPG_14A__4
  1

  0
ENDBLK
  5
64
100
AcDbEntity
  8
0
100
AcDbBlockEnd
  0
BLOCK
  5
31
100
AcDbEntity
  8
0
100
AcDbBlockBegin
  2
000007043_SHF020XXX2UH__5
 70
           0
 10
0.0
 20
0.0
 30
0.0
  3
000007043_SHF020XXX2UH__5
  1

  0
INSERT
  5
32
100
AcDbEntity
  8
0
100
AcDbBlockReference
  2
HPG_14A__4
 10
0.0
 20
0.0
  0
ENDBLK
  5
65
100
AcDbEntity
  8
0
100
AcDbBlockEnd
  0
BLOCK
  5
34
100
AcDbEntity
  8
0
100
AcDbBlockBegin
  2
HPG_14A__6
 70
           0
 10
0.0
 20
0.0
 30
0.0
  3
HPG_14A__6
  1

  0
ENDBLK
  5
66
100
AcDbEntity
  8
0
100
AcDbBlockEnd
  0
BLOCK
  5
36
100
AcDbEntity
  8
0
100
AcDbBlockBegin
  2
HPG_14A__7
 70
           0
 10
0.0
 20
0.0
 30
0.0
  3
HPG_14A__7
  1

  0
ENDBLK
  5
67
100
AcDbEntity
  8
0
100
AcDbBlockEnd
  0
BLOCK
  5
38
100
AcDbEntity
  8
0
100
AcDbBlockBegin
  2
HPG_14A__8
 70
           0
 10
0.0
 20
0.0
 30
0.0
  3
HPG_14A__8
  1

  0
ENDBLK
  5
68
100
AcDbEntity
  8
0
100
AcDbBlockEnd
  0
BLOCK
  5
3A
100
AcDbEntity
  8
0
100
AcDbBlockBegin
  2
HPG_14A__9
 70
           0
 10
0.0
 20
0.0
 30
0.0
  3
HPG_14A__9
  1

  0
ENDBLK
  5
69
100
AcDbEntity
  8
0
100
AcDbBlockEnd
  0
BLOCK
  5
3C
100
AcDbEntity
  8
0
100
AcDbBlockBegin
  2
HPG_14A__10
 70
           0
 10
0.0
 20
0.0
 30
0.0
  3
HPG_14A__10
  1

  0
ENDBLK
  5
6A
100
AcDbEntity
  8
0
100
AcDbBlockEnd
  0
BLOCK
  5
3E
100
AcDbEntity
  8
0
100
AcDbBlockBegin
  2
HPG_14A__11
 70
           0
 10
0.0
 20
0.0
 30
0.0
  3
HPG_14A__11
  1

  0
ENDBLK
  5
6B
100
AcDbEntity
  8
0
100
AcDbBlockEnd
  0
BLOCK
  5
40
100
AcDbEntity
  8
0
100
AcDbBlockBegin
  2
HPG_14A__12
 70
           0
 10
0.0
 20
0.0
 30
0.0
  3
HPG_14A__12
  1

  0
INSERT
  5
41
100
AcDbEntity
  8
0
100
AcDbBlockReference
  2
HPG_14A__8
 10
0.0
 20
0.0
  0
INSERT
  5
42
100
AcDbEntity
  8
0
100
AcDbBlockReference
  2
HPG_14A__9
 10
0.0
 20
0.0
  0
INSERT
  5
43
100
AcDbEntity
  8
0
100
AcDbBlockReference
  2
HPG_14A__10
 10
0.0
 20
0.0
  0
INSERT
  5
44
100
AcDbEntity
  8
0
100
AcDbBlockReference
  2
HPG_14A__11
 10
0.0
 20
0.0
  0
ENDBLK
  5
6C
100
AcDbEntity
  8
0
100
AcDbBlockEnd
  0
ENDSEC
  0
SECTION
  2
ENTITIES
  0
MTEXT
  5
335
100
AcDbEntity
  8
1
 62
           3
100
AcDbMText
 10
-48.0
 20
122.0
 30
0.0
 40
4.5
 41
0.0
 71
           6
 72
           1
  1
B5B1402
  7
CONVERTER_2
  0
MTEXT
  5
334
100
AcDbEntity
  8
1
 62
           3
100
AcDbMText
 10
-72.906958863762
 20
132.389946133487
 30
0.0
 40
3.5
 41
0.0
 71
           5
 72
           1
  1
HPG-11B-09-J60CCC
  7
CONVERTER_2
  0
ARC
  5
332
100
AcDbEntity
  8
1
  6
CONTINUOUS
 62
           7
100
AcDbCircle
 10
-336.111887006168
 20
202.0
 40
4.0
100
AcDbArc
 50
0.0
 51
90.0
  0
ARC
  5
331
100
AcDbEntity
  8
1
  6
CONTINUOUS
 62
           7
100
AcDbCircle
 10
-368.111887006168
 20
202.0
 40
4.0
100
AcDbArc
 50
90.0
 51
180.0
  0
ARC
  5
330
100
AcDbEntity
  8
1
  6
CONTINUOUS
 62
           7
100
AcDbCircle
 10
-368.111887006168
 20
170.0
 40
4.0
100
AcDbArc
 50
180.0
 51
-90.0
  0
ARC
  5
32F
100
AcDbEntity
  8
1
  6
CONTINUOUS
 62
           7
100
AcDbCircle
 10
-336.111887006168
 20
170.0
 40
4.0
100
AcDbArc
 50
-90.0
 51
0.0
  0
ARC
  5
32E
100
AcDbEntity
  8
1
  6
DASHED
 62
           3
100
AcDbCircle
 10
-76.768124086713
 20
197.455129855221
 40
0.2
100
AcDbArc
 50
134.999999999977
 51
-135.000000000017
  0
ARC
  5
32D
100
AcDbEntity
  8
1
  6
DASHED
 62
           3
100
AcDbCircle
 10
-79.455129855221
 20
194.768124086714
 40
0.2
100
AcDbArc
 50
44.999999999988
 51
135.000000000023
  0
ARC
  5
32C
100
AcDbEntity
  8
1
  6
DASHED
 62
           3
100
AcDbCircle
 10
-59.231875913285
 20
197.45512985522
 40
0.2
100
AcDbArc
 50
-45.000000000023
 51
45.0
  0
ARC
  5
32B
100
AcDbEntity
  8
1
  6
DASHED
 62
           3
100
AcDbCircle
 10
-56.544870144777
 20
194.768124086712
 40
0.2
100
AcDbArc
 50
44.99999999999
 51
134.999999999995
  0
ARC
  5
32A
100
AcDbEntity
  8
1
  6
CONTINUOUS
 62
           7
100
AcDbCircle
 10
-188.858542661515
 20
177.04
 40
0.54
100
AcDbArc
 50
-90.0
 51
0.0
  0
ARC
  5
329
100
AcDbEntity
  8
1
  6
CONTINUOUS
 62
           7
100
AcDbCircle
 10
-192.778542661515
 20
180.46
 40
0.54
100
AcDbArc
 50
90.000000000012
 51
180.0
  0
ARC
  5
328
100
AcDbEntity
  8
1
  6
CONTINUOUS
 62
           7
100
AcDbCircle
 10
-188.858542661515
 20
180.46
 40
0.54
100
AcDbArc
 50
0.0
 51
90.0
  0
ARC
  5
327
100
AcDbEntity
  8
1
  6
CONTINUOUS
 62
           7
100
AcDbCircle
 10
-192.778542661516
 20
177.04
 40
0.54
100
AcDbArc
 50
180.0
 51
-90.0
  0
ARC
  5
326
100
AcDbEntity
  8
1
  6
CONTINUOUS
 62
           7
100
AcDbCircle
 10
-186.218542715715
 20
200.221999998374
 40
0.2
100
AcDbArc
 50
0.0
 51
90.0
  0
ARC
  5
325
100
AcDbEntity
  8
1
  6
CONTINUOUS
 62
           7
100
AcDbCircle
 10
-182.418542715716
 20
200.221999998374
 40
0.2
100
AcDbArc
 50
90.0
 51
180.0
  0
ARC
  5
324
100
AcDbEntity
  8
1
  6
CONTINUOUS
 62
           7
100
AcDbCircle
 10
-192.778542661515
 20
194.960000000001
 40
0.54
100
AcDbArc
 50
90.000000000012
 51
180.0
  0
ARC
  5
323
100
AcDbEntity
  8
1
  6
CONTINUOUS
 62
           7
100
AcDbCircle
 10
-188.858542661515
 20
191.540000000001
 40
0.54
100
AcDbArc
 50
-90.0
 51
0.0
  0
ARC
  5
322
100
AcDbEntity
  8
1
  6
CONTINUOUS
 62
           7
100
AcDbCircle
 10
-192.778542661516
 20
191.540000000001
 40
0.54
100
AcDbArc
 50
180.0
 51
-90.0
  0
ARC
  5
321
100
AcDbEntity
  8
1
  6
CONTINUOUS
 62
           7
100
AcDbCircle
 10
-188.858542661515
 20
194.960000000001
 40
0.54
100
AcDbArc
 50
0.0
 51
90.0
  0
SPLINE
  5
320
100
AcDbEntity
  8
1
  6
CONTINUOUS
 62
           3
100
AcDbSpline
210
0.0
220
0.0
230
1.0
 70
           0
 71
           4
 72
           8
 73
           4
 74
           4
 42
0.00000000001
 43
0.00000000001
 44
0.00000000001
 40
0.0
 40
0.0
 40
0.0
 40
0.0
 40
13.251486281900547
 40
13.251486281900547
 40
13.251486281900547
 40
13.251486281900547
 10
-205.8185427157147
 20
166.00000000000031
 30
0.0
 10
-204.16125270542861
 20
170.61816918276671
 30
0.0
 10
-203.13540158622769
 20
164.92073976259181
 30
0.0
 10
-200.8185427157147
 20
166.00000000000031
 30
0.0
 11
-205.8185427157147
 21
166.00000000000031
 31
0.0
 11
-204.30053060829414
 21
167.81268402847238
 31
0.0
 11
-202.77626739661986
 21
166.54658860176684
 31
0.0
 11
-200.8185427157147
 21
166.00000000000031
 31
0.0
  0
SPLINE
  5
31F
100
AcDbEntity
  8
1
  6
CONTINUOUS
 62
           3
100
AcDbSpline
210
0.0
220
0.0
230
1.0
 70
           0
 71
           4
 72
          26
 73
          22
 74
          39
 42
0.00000000001
 43
0.00000000001
 44
0.00000000001
 40
0.0
 40
0.0
 40
0.0
 40
0.0
 40
7.5654906239479685
 40
11.761907854291785
 40
13.389027063193883
 40
15.033979814514495
 40
16.15787920946066
 40
17.554896105806836
 40
18.782421525013959
 40
19.889942806493195
 40
20.071118228644274
 40
20.248976605053265
 40
20.369736975144438
 40
20.910223045595771
 40
21.928759528795414
 40
22.969762431065831
 40
23.66585873536399
 40
25.093075586343119
 40
28.174064440099126
 40
34.485578565572368
 40
44.376222610072858
 40
44.376222610072858
 40
44.376222610072858
 40
44.376222610072858
 10
-195.66224366400581
 20
166.50000000000011
 30
0.0
 10
-195.90426811372259
 20
169.29071756130739
 30
0.0
 10
-194.46174046725159
 20
173.8313837062301
 30
0.0
 10
-197.11885762047439
 20
177.07940556655919
 30
0.0
 10
-198.14560528866889
 20
178.34166787916911
 30
0.0
 10
-199.1666369656684
 20
179.6313825253761
 30
0.0
 10
-199.79085950144739
 20
180.56599264504419
 30
0.0
 10
-200.5202755012308
 20
181.75746589608119
 30
0.0
 10
-201.00286901392809
 20
182.88614749702191
 30
0.0
 10
-201.21751866809919
 20
183.97266897168021
 30
0.0
 10
-201.2489490363653
 20
184.15109729214049
 30
0.0
 10
-201.2744067958638
 20
184.32712429160409
 30
0.0
 10
-201.2892970166736
 20
184.44696313467591
 30
0.0
 10
-201.35210003143911
 20
184.98378803507481
 30
0.0
 10
-201.28302141946031
 20
185.9999793128251
 30
0.0
 10
-201.3525176844818
 20
187.03865987569489
 30
0.0
 10
-201.2678011950328
 20
187.72958185484521
 30
0.0
 10
-201.0439683167628
 20
189.13913738135849
 30
0.0
 10
-199.71519145352551
 20
191.91885757675479
 30
0.0
 10
-195.4971906425944
 20
196.61392730094769
 30
0.0
 10
-192.83148301070591
 20
201.02266796478881
 30
0.0
 10
-194.6139170284911
 20
205.41331483064809
 30
0.0
 11
-195.66224366400581
 21
166.50000000000011
 31
0.0
 11
-195.48942051297624
 21
170.68001702121649
 31
0.0
 11
-195.61109827745145
 21
174.43389330719197
 31
0.0
 11
-196.41659300254733
 21
176.12102469425835
 31
0.0
 11
-197.4443559262665
 21
177.48019742242673
 31
0.0
 11
-197.81373736564177
 21
177.93454849152516
 31
0.0
 11
-198.21984899088906
 21
178.43928786081682
 31
0.0
 11
-198.71429106412268
 21
179.06476720148879
 31
0.0
 11
-199.20711123139714
 21
179.71678621259204
 31
0.0
 11
-199.4954264938429
 21
180.12841971113713
 31
0.0
 11
-199.77235763581155
 21
180.55157320228574
 31
0.0
 11
-200.14374760587151
 21
181.1528749751794
 31
0.0
 11
-200.50471252524261
 21
181.79986614662641
 31
0.0
 11
-200.77205513357873
 21
182.37491125549275
 31
0.0
 11
-200.9899908781737
 21
183.00592872923824
 31
0.0
 11
-201.14433491880789
 21
183.62691424427805
 31
0.0
 11
-201.23574461746466
 21
184.07747312165819
 31
0.0
 11
-201.24335393406864
 21
184.12025170110223
 31
0.0
 11
-201.25191173339613
 21
184.17391958021031
 31
0.0
 11
-201.2631614366689
 21
184.24992704543058
 31
0.0
 11
-201.27369544026806
 21
184.32433676570923
 31
0.0
 11
-201.27847300184416
 21
184.3602684475627
 31
0.0
 11
-201.28228201867179
 21
184.39091726620615
 31
0.0
 11
-201.30350239116018
 21
184.58335026804113
 31
0.0
 11
-201.32224298912641
 21
184.84436503693246
 31
0.0
 11
-201.32215073172642
 21
185.39912435507108
 31
0.0
 11
-201.30970466256048
 21
185.98419221278641
 31
0.0
 11
-201.32118729877774
 21
186.56680699217313
 31
0.0
 11
-201.32878089627152
 21
187.06973444956239
 31
0.0
 11
-201.31305337412169
 21
187.33792445361155
 31
0.0
 11
-201.28366977872437
 21
187.58192307967292
 31
0.0
 11
-201.20071677999343
 21
188.11690061719588
 31
0.0
 11
-201.07903894700772
 21
188.68492779753046
 31
0.0
 11
-200.64637912509099
 21
189.89621546384114
 31
0.0
 11
-200.01498352207403
 21
191.07532065295894
 31
0.0
 11
-198.31676827228176
 21
193.43906067953375
 31
0.0
 11
-196.41337889676217
 21
195.81286431453367
 31
0.0
 11
-194.11225696515018
 21
199.91102623127026
 31
0.0
 11
-194.6139170284911
 21
205.41331483064809
 31
0.0
  0
SPLINE
  5
31E
100
AcDbEntity
  8
1
  6
DASHED
 62
           3
100
AcDbSpline
210
0.0
220
0.0
230
1.0
 70
           0
 71
           3
 72
           6
 73
           3
 74
           3
 42
0.00000000001
 43
0.00000000001
 44
0.00000000001
 40
0.0
 40
0.0
 40
0.0
 40
2.429072488039135
 40
2.429072488039135
 40
2.429072488039135
 10
-77.591701818504689
 20
201.24855606799889
 30
0.0
 10
-78.791908897646849
 20
201.28193593804761
 30
0.0
 10
-78.786712278709032
 20
200.0535456077931
 30
0.0
 11
-77.591701818504689
 21
201.24855606799889
 31
0.0
 11
-78.490557973126855
 21
200.96649338797181
 31
0.0
 11
-78.786712278709032
 21
200.0535456077931
 31
0.0
  0
SPLINE
  5
31D
100
AcDbEntity
  8
1
  6
DASHED
 62
           3
100
AcDbSpline
210
0.0
220
0.0
230
1.0
 70
           0
 71
           3
 72
           6
 73
           3
 74
           3
 42
0.00000000001
 43
0.00000000001
 44
0.00000000001
 40
0.0
 40
0.0
 40
0.0
 40
2.429072488039191
 40
2.429072488039191
 40
2.429072488039191
 10
-83.248556067996716
 20
195.59170181850669
 30
0.0
 10
-83.281935938045521
 20
196.79190889764891
 30
0.0
 10
-82.053545607791008
 20
196.7867122787118
 30
0.0
 11
-83.248556067996716
 21
195.59170181850669
 31
0.0
 11
-82.966493387969692
 21
196.49055797312906
 31
0.0
 11
-82.053545607791008
 21
196.7867122787118
 31
0.0
  0
SPLINE
  5
31C
100
AcDbEntity
  8
1
  6
DASHED
 62
           3
100
AcDbSpline
210
0.0
220
0.0
230
1.0
 70
           0
 71
           3
 72
           6
 73
           3
 74
           3
 42
0.00000000001
 43
0.00000000001
 44
0.00000000001
 40
0.0
 40
0.0
 40
0.0
 40
2.4290724880392203
 40
2.4290724880392203
 40
2.4290724880392203
 10
-58.408298181491993
 20
201.24855606799639
 30
0.0
 10
-57.208091102349833
 20
201.28193593804519
 30
0.0
 10
-57.213287721287017
 20
200.0535456077906
 30
0.0
 11
-58.408298181491993
 21
201.24855606799639
 31
0.0
 11
-57.509442026869664
 21
200.96649338796934
 31
0.0
 11
-57.213287721287017
 21
200.0535456077906
 31
0.0
  0
SPLINE
  5
31B
100
AcDbEntity
  8
1
  6
DASHED
 62
           3
100
AcDbSpline
210
0.0
220
0.0
230
1.0
 70
           0
 71
           3
 72
           6
 73
           3
 74
           3
 42
0.00000000001
 43
0.00000000001
 44
0.00000000001
 40
0.0
 40
0.0
 40
0.0
 40
2.4290724880392296
 40
2.4290724880392296
 40
2.4290724880392296
 10
-52.751443931999958
 20
195.59170181850419
 30
0.0
 10
-52.718064061951146
 20
196.79190889764649
 30
0.0
 10
-53.946454392205609
 20
196.78671227870871
 30
0.0
 11
-52.751443931999958
 21
195.59170181850419
 31
0.0
 11
-53.033506612026969
 21
196.49055797312647
 31
0.0
 11
-53.946454392205609
 21
196.78671227870871
 31
0.0
  0
SPLINE
  5
31A
100
AcDbEntity
  8
1
  6
CONTINUOUS
 62
           7
100
AcDbSpline
210
0.0
220
0.0
230
1.0
 70
           0
 71
           3
 72
           6
 73
           3
 74
           3
 42
0.00000000001
 43
0.00000000001
 44
0.00000000001
 40
0.0
 40
0.0
 40
0.0
 40
2.4290724880390995
 40
2.4290724880390995
 40
2.4290724880390995
 10
-188.3185427157139
 20
203.4867147963439
 30
0.0
 10
-187.49347128369101
 20
204.35899249330009
 30
0.0
 10
-186.62854271571391
 20
203.48671479634339
 30
0.0
 11
-188.3185427157139
 21
203.4867147963439
 31
0.0
 11
-187.48350699970246
 21
203.92285364482188
 31
0.0
 11
-186.62854271571391
 21
203.48671479634339
 31
0.0
  0
SPLINE
  5
319
100
AcDbEntity
  8
1
  6
CONTINUOUS
 62
           7
100
AcDbSpline
210
0.0
220
0.0
230
1.0
 70
           0
 71
           3
 72
           6
 73
           3
 74
           3
 42
0.00000000001
 43
0.00000000001
 44
0.00000000001
 40
0.0
 40
0.0
 40
0.0
 40
2.4290724880391616
 40
2.4290724880391616
 40
2.4290724880391616
 10
-180.31854271571439
 20
203.4867147963439
 30
0.0
 10
-181.14361414773731
 20
204.35899249330009
 30
0.0
 10
-182.00854271571399
 20
203.48671479634291
 30
0.0
 11
-180.31854271571439
 21
203.4867147963439
 31
0.0
 11
-181.15357843172575
 21
203.92285364482174
 31
0.0
 11
-182.00854271571399
 21
203.48671479634291
 31
0.0
  0
CIRCLE
  5
318
100
AcDbEntity
  8
1
  6
CONTINUOUS
 62
           7
100
AcDbCircle
 10
-359.906115640228
 20
181.5
 40
3.75
  0
CIRCLE
  5
317
100
AcDbEntity
  8
1
  6
CONTINUOUS
 62
           7
100
AcDbCircle
 10
-344.317658372108
 20
181.5
 40
3.75
  0
CIRCLE
  5
316
100
AcDbEntity
  8
1
  6
CONTINUOUS
 62
           7
100
AcDbCircle
 10
-352.111887006168
 20
186.0
 40
18.25
  0
CIRCLE
  5
315
100
AcDbEntity
  8
1
  6
DASH_CENTER
 62
           3
100
AcDbCircle
 10
-352.111887006168
 20
186.0
 40
9.0
  0
CIRCLE
  5
314
100
AcDbEntity
  8
1
  6
CONTINUOUS
 62
           7
100
AcDbCircle
 10
-352.111887006168
 20
186.0
 40
14.5
  0
CIRCLE
  5
313
100
AcDbEntity
  8
1
  6
CONTINUOUS
 62
           7
100
AcDbCircle
 10
-352.111887006168
 20
186.0
 40
1.2
  0
CIRCLE
  5
312
100
AcDbEntity
  8
1
  6
CONTINUOUS
 62
           3
100
AcDbCircle
 10
-352.111887006168
 20
186.0
 40
1.5
  0
CIRCLE
  5
311
100
AcDbEntity
  8
1
  6
CONTINUOUS
 62
           7
100
AcDbCircle
 10
-352.111887006168
 20
186.0
 40
20.0
  0
CIRCLE
  5
310
100
AcDbEntity
  8
1
  6
CONTINUOUS
 62
           7
100
AcDbCircle
 10
-335.848431038878
 20
169.736544032709
 40
1.7
  0
CIRCLE
  5
30F
100
AcDbEntity
  8
1
  6
CONTINUOUS
 62
           7
100
AcDbCircle
 10
-368.375342973459
 20
202.263455967291
 40
1.7
  0
CIRCLE
  5
30E
100
AcDbEntity
  8
1
  6
CONTINUOUS
 62
           7
100
AcDbCircle
 10
-368.375342973459
 20
169.736544032709
 40
1.7
  0
CIRCLE
  5
30D
100
AcDbEntity
  8
1
  6
CONTINUOUS
 62
           7
100
AcDbCircle
 10
-335.848431038878
 20
202.263455967291
 40
1.7
  0
CIRCLE
  5
30C
100
AcDbEntity
  8
1
  6
CONTINUOUS
 62
           7
100
AcDbCircle
 10
-352.111887006168
 20
186.0
 40
19.75
  0
CIRCLE
  5
30B
100
AcDbEntity
  8
1
  6
CONTINUOUS
 62
           7
100
AcDbCircle
 10
-68.000000000001
 20
186.0
 40
3.000000000001
  0
CIRCLE
  5
30A
100
AcDbEntity
  8
1
  6
CONTINUOUS
 62
           7
100
AcDbCircle
 10
-184.31854271572
 20
186.0
 40
1.2
  0
CIRCLE
  5
309
100
AcDbEntity
  8
1
  6
CONTINUOUS
 62
           3
100
AcDbCircle
 10
-184.31854271572
 20
186.0
 40
1.5
  0
CIRCLE
  5
308
100
AcDbEntity
  8
1
  6
DASH_CENTER
 62
           3
100
AcDbCircle
 10
-68.000000000001
 20
186.0
 40
17.2
  0
CIRCLE
  5
307
100
AcDbEntity
  8
1
  6
CONTINUOUS
 62
           7
100
AcDbCircle
 10
-68.000000000001
 20
186.0
 40
8.0
  0
CIRCLE
  5
306
100
AcDbEntity
  8
1
  6
CONTINUOUS
 62
           7
100
AcDbCircle
 10
-68.000000000001
 20
186.0
 40
6.0
  0
CIRCLE
  5
305
100
AcDbEntity
  8
1
  6
CONTINUOUS
 62
           7
100
AcDbCircle
 10
-68.000000000001
 20
186.0
 40
11.0
  0
CIRCLE
  5
304
100
AcDbEntity
  8
1
  6
DASH_CENTER
 62
           3
100
AcDbCircle
 10
-68.000000000001
 20
186.0
 40
21.9
  0
CIRCLE
  5
303
100
AcDbEntity
  8
1
  6
CONTINUOUS
 62
           7
100
AcDbCircle
 10
-52.514361492015
 20
170.514361492015
 40
1.7
  0
CIRCLE
  5
302
100
AcDbEntity
  8
1
  6
CONTINUOUS
 62
           7
100
AcDbCircle
 10
-52.514361492015
 20
201.485638507986
 40
1.7
  0
CIRCLE
  5
301
100
AcDbEntity
  8
1
  6
CONTINUOUS
 62
           7
100
AcDbCircle
 10
-83.485638507986
 20
201.485638507985
 40
1.7
  0
CIRCLE
  5
300
100
AcDbEntity
  8
1
  6
CONTINUOUS
 62
           7
100
AcDbCircle
 10
-83.485638507986
 20
170.514361492015
 40
1.7
  0
CIRCLE
  5
2FF
100
AcDbEntity
  8
1
  6
DASHED
 62
           3
100
AcDbCircle
 10
-68.000000000001
 20
186.0
 40
19.5
  0
CIRCLE
  5
2FE
100
AcDbEntity
  8
1
  6
CONTINUOUS
 62
           7
100
AcDbCircle
 10
-52.109272040807
 20
179.417844963321
 40
2.5
  0
CIRCLE
  5
2FD
100
AcDbEntity
  8
1
  6
CONTINUOUS
 62
           7
100
AcDbCircle
 10
-61.417844963321
 20
170.109272040806
 40
2.5
  0
CIRCLE
  5
2FC
100
AcDbEntity
  8
1
  6
CONTINUOUS
 62
           7
100
AcDbCircle
 10
-74.58215503668
 20
170.109272040806
 40
2.5
  0
CIRCLE
  5
2FB
100
AcDbEntity
  8
1
  6
CONTINUOUS
 62
           7
100
AcDbCircle
 10
-83.890727959195
 20
179.417844963321
 40
2.5
  0
CIRCLE
  5
2FA
100
AcDbEntity
  8
1
  6
CONTINUOUS
 62
           7
100
AcDbCircle
 10
-83.890727959195
 20
192.58215503668
 40
2.5
  0
CIRCLE
  5
2F9
100
AcDbEntity
  8
1
  6
CONTINUOUS
 62
           7
100
AcDbCircle
 10
-74.58215503668
 20
201.890727959194
 40
2.5
  0
CIRCLE
  5
2F8
100
AcDbEntity
  8
1
  6
CONTINUOUS
 62
           7
100
AcDbCircle
 10
-61.417844963321
 20
201.890727959194
 40
2.5
  0
CIRCLE
  5
2F7
100
AcDbEntity
  8
1
  6
CONTINUOUS
 62
           7
100
AcDbCircle
 10
-52.109272040807
 20
192.58215503668
 40
2.5
  0
CIRCLE
  5
2F6
100
AcDbEntity
  8
1
  6
CONTINUOUS
 62
           7
100
AcDbCircle
 10
-74.58215503668
 20
201.890727959194
 40
2.25
  0
CIRCLE
  5
2F5
100
AcDbEntity
  8
1
  6
CONTINUOUS
 62
           7
100
AcDbCircle
 10
-74.58215503668
 20
201.890727959194
 40
1.903589838487
  0
CIRCLE
  5
2F4
100
AcDbEntity
  8
1
  6
CONTINUOUS
 62
           7
100
AcDbCircle
 10
-83.890727959195
 20
192.58215503668
 40
1.903589838485
  0
CIRCLE
  5
2F3
100
AcDbEntity
  8
1
  6
CONTINUOUS
 62
           7
100
AcDbCircle
 10
-83.890727959195
 20
192.58215503668
 40
2.249999999999
  0
CIRCLE
  5
2F2
100
AcDbEntity
  8
1
  6
CONTINUOUS
 62
           7
100
AcDbCircle
 10
-83.890727959195
 20
179.417844963323
 40
1.903589838486
  0
CIRCLE
  5
2F1
100
AcDbEntity
  8
1
  6
CONTINUOUS
 62
           7
100
AcDbCircle
 10
-83.890727959195
 20
179.417844963323
 40
2.25
  0
CIRCLE
  5
2F0
100
AcDbEntity
  8
1
  6
CONTINUOUS
 62
           7
100
AcDbCircle
 10
-74.582155036683
 20
170.109272040808
 40
1.903589838486
  0
CIRCLE
  5
2EF
100
AcDbEntity
  8
1
  6
CONTINUOUS
 62
           7
100
AcDbCircle
 10
-74.582155036683
 20
170.109272040808
 40
2.25
  0
CIRCLE
  5
2EE
100
AcDbEntity
  8
1
  6
CONTINUOUS
 62
           7
100
AcDbCircle
 10
-61.417844963326
 20
170.109272040805
 40
1.903589838486
  0
CIRCLE
  5
2ED
100
AcDbEntity
  8
1
  6
CONTINUOUS
 62
           7
100
AcDbCircle
 10
-61.417844963326
 20
170.109272040805
 40
2.25
  0
CIRCLE
  5
2EC
100
AcDbEntity
  8
1
  6
CONTINUOUS
 62
           7
100
AcDbCircle
 10
-52.109272040809
 20
179.417844963315
 40
1.903589838486
  0
CIRCLE
  5
2EB
100
AcDbEntity
  8
1
  6
CONTINUOUS
 62
           7
100
AcDbCircle
 10
-52.109272040809
 20
179.417844963315
 40
2.25
  0
CIRCLE
  5
2EA
100
AcDbEntity
  8
1
  6
CONTINUOUS
 62
           7
100
AcDbCircle
 10
-52.109272040804
 20
192.582155036672
 40
1.903589838486
  0
CIRCLE
  5
2E9
100
AcDbEntity
  8
1
  6
CONTINUOUS
 62
           7
100
AcDbCircle
 10
-52.109272040804
 20
192.582155036672
 40
2.25
  0
CIRCLE
  5
2E8
100
AcDbEntity
  8
1
  6
CONTINUOUS
 62
           7
100
AcDbCircle
 10
-61.417844963312
 20
201.89072795919
 40
1.903589838486
  0
CIRCLE
  5
2E7
100
AcDbEntity
  8
1
  6
CONTINUOUS
 62
           7
100
AcDbCircle
 10
-61.417844963312
 20
201.89072795919
 40
2.25
  0
CIRCLE
  5
2E6
100
AcDbEntity
  8
1
  6
CONTINUOUS
 62
           7
100
AcDbCircle
 10
-359.906115640228
 20
181.5
 40
2.98038475773
  0
CIRCLE
  5
2E5
100
AcDbEntity
  8
1
  6
CONTINUOUS
 62
           7
100
AcDbCircle
 10
-359.906115640228
 20
181.5
 40
3.5
  0
CIRCLE
  5
2E4
100
AcDbEntity
  8
1
  6
CONTINUOUS
 62
           7
100
AcDbCircle
 10
-344.317658372108
 20
181.5
 40
2.980384757729
  0
CIRCLE
  5
2E3
100
AcDbEntity
  8
1
  6
CONTINUOUS
 62
           7
100
AcDbCircle
 10
-344.317658372108
 20
181.5
 40
3.5
  0
ARC
  5
2E2
100
AcDbEntity
  8
1
  6
CONTINUOUS
 62
           7
100
AcDbCircle
 10
-352.111887006168
 20
195.0
 40
3.75
100
AcDbArc
 50
-179.999999999998
 51
-122.230952635501
  0
ARC
  5
2E1
100
AcDbEntity
  8
1
  6
CONTINUOUS
 62
           7
100
AcDbCircle
 10
-352.111887006168
 20
195.0
 40
3.75
100
AcDbArc
 50
-57.769047364499
 51
-179.999999999998
  0
ARC
  5
2E0
100
AcDbEntity
  8
1
  6
CONTINUOUS
 62
           7
100
AcDbCircle
 10
-352.111887006168
 20
186.0
 40
5.0
100
AcDbArc
 50
0.0
 51
66.421821521797
  0
ARC
  5
2DF
100
AcDbEntity
  8
1
  6
CONTINUOUS
 62
           7
100
AcDbCircle
 10
-352.111887006168
 20
186.0
 40
5.0
100
AcDbArc
 50
-90.0
 51
0.0
  0
ARC
  5
2DE
100
AcDbEntity
  8
1
  6
CONTINUOUS
 62
           7
100
AcDbCircle
 10
-352.111887006168
 20
186.0
 40
5.0
100
AcDbArc
 50
113.578178478203
 51
-90.0
  0
ARC
  5
2DD
100
AcDbEntity
  8
1
  6
DASH_CENTER
 62
           3
100
AcDbCircle
 10
-352.111887006168
 20
186.0
 40
23.000000000001
100
AcDbArc
 50
-54.691498953372
 51
-33.724927456056
  0
ARC
  5
2DC
100
AcDbEntity
  8
1
  6
DASH_CENTER
 62
           3
100
AcDbCircle
 10
-352.111887006168
 20
186.0
 40
22.999999999999
100
AcDbArc
 50
124.81557357905
 51
144.9264486824
  0
ARC
  5
2DB
100
AcDbEntity
  8
1
  6
DASH_CENTER
 62
           3
100
AcDbCircle
 10
-352.111887006168
 20
186.0
 40
23.0
100
AcDbArc
 50
-146.275072543942
 51
-125.308501046627
  0
ARC
  5
2DA
100
AcDbEntity
  8
1
  6
DASH_CENTER
 62
           3
100
AcDbCircle
 10
-352.111887006168
 20
186.0
 40
23.0
100
AcDbArc
 50
35.073551317599
 51
55.184426420948
  0
ARC
  5
2D9
100
AcDbEntity
  8
1
  6
DASHED
 62
           3
100
AcDbCircle
 10
-68.000000000001
 20
186.0
 40
19.500000000002
100
AcDbArc
 50
-101.594530003273
 51
-100.3888087703
  0
ARC
  5
2D8
100
AcDbEntity
  8
1
  6
DASHED
 62
           3
100
AcDbCircle
 10
-68.000000000001
 20
186.0
 40
19.500000000001
100
AcDbArc
 50
-11.594530003273
 51
-10.3888087703
  0
ARC
  5
2D7
100
AcDbEntity
  8
1
  6
DASHED
 62
           3
100
AcDbCircle
 10
-83.443713149231
 20
175.814631859164
 40
1.000000000001
100
AcDbArc
 50
112.499999999977
 51
-146.594530003307
  0
ARC
  5
2D6
100
AcDbEntity
  8
1
  6
CONTINUOUS
 62
           7
100
AcDbCircle
 10
-51.0
 20
203.0
 40
3.000000000001
100
AcDbArc
 50
0.000000000004
 51
90.0
  0
ARC
  5
2D5
100
AcDbEntity
  8
1
  6
CONTINUOUS
 62
           7
100
AcDbCircle
 10
-85.000000000001
 20
203.0
 40
3.0
100
AcDbArc
 50
90.0
 51
179.999999999994
  0
ARC
  5
2D4
100
AcDbEntity
  8
1
  6
CONTINUOUS
 62
           7
100
AcDbCircle
 10
-85.000000000001
 20
169.0
 40
3.0
100
AcDbArc
 50
-179.999999999995
 51
-90.000000000003
  0
ARC
  5
2D3
100
AcDbEntity
  8
1
  6
CONTINUOUS
 62
           7
100
AcDbCircle
 10
-51.0
 20
169.0
 40
3.0
100
AcDbArc
 50
-90.000000000006
 51
0.0
  0
ARC
  5
2D2
100
AcDbEntity
  8
1
  6
DASHED
 62
           3
100
AcDbCircle
 10
-61.417844963321
 20
201.890727959194
 40
3.0
100
AcDbArc
 50
-152.381898796115
 51
-72.618101203894
  0
ARC
  5
2D1
100
AcDbEntity
  8
1
  6
DASHED
 62
           3
100
AcDbCircle
 10
-52.109272040807
 20
192.58215503668
 40
3.0
100
AcDbArc
 50
162.618101203892
 51
-117.618101203886
  0
ARC
  5
2D0
100
AcDbEntity
  8
1
  6
DASHED
 62
           3
100
AcDbCircle
 10
-52.109272040807
 20
179.417844963321
 40
3.0
100
AcDbArc
 50
117.618101203889
 51
-162.618101203886
  0
ARC
  5
2CF
100
AcDbEntity
  8
1
  6
DASHED
 62
           3
100
AcDbCircle
 10
-61.417844963321
 20
170.109272040806
 40
3.0
100
AcDbArc
 50
72.618101203887
 51
152.381898796109
  0
ARC
  5
2CE
100
AcDbEntity
  8
1
  6
DASHED
 62
           3
100
AcDbCircle
 10
-74.58215503668
 20
170.109272040806
 40
3.000000000001
100
AcDbArc
 50
27.618101203887
 51
107.381898796105
  0
ARC
  5
2CD
100
AcDbEntity
  8
1
  6
DASHED
 62
           3
100
AcDbCircle
 10
-83.890727959195
 20
179.417844963321
 40
3.000000000001
100
AcDbArc
 50
-17.38189879611
 51
62.381898796104
  0
ARC
  5
2CC
100
AcDbEntity
  8
1
  6
DASHED
 62
           3
100
AcDbCircle
 10
-83.890727959195
 20
192.58215503668
 40
3.000000000001
100
AcDbArc
 50
-62.381898796106
 51
17.381898796106
  0
ARC
  5
2CB
100
AcDbEntity
  8
1
  6
DASHED
 62
           3
100
AcDbCircle
 10
-74.58215503668
 20
201.890727959194
 40
3.0
100
AcDbArc
 50
-107.381898796107
 51
-27.618101203897
  0
ARC
  5
2CA
100
AcDbEntity
  8
1
  6
CONTINUOUS
 62
           3
100
AcDbCircle
 10
-68.000000000001
 20
186.0
 40
19.500000000001
100
AcDbArc
 50
78.405469996729
 51
79.611191229702
  0
ARC
  5
2C9
100
AcDbEntity
  8
1
  6
DASHED
 62
           3
100
AcDbCircle
 10
-64.281788586745
 20
204.122497175786
 40
1.0
100
AcDbArc
 50
-22.500000000003
 51
78.405469996729
  0
ARC
  5
2C8
100
AcDbEntity
  8
1
  6
DASHED
 62
           3
100
AcDbCircle
 10
-57.814631859165
 20
201.44371314923
 40
1.0
100
AcDbArc
 50
56.594530003273
 51
157.499999999997
  0
ARC
  5
2C7
100
AcDbEntity
  8
1
  6
DASHED
 62
           3
100
AcDbCircle
 10
-61.417844963321
 20
201.890727959194
 40
2.5
100
AcDbArc
 50
157.499999999992
 51
-22.499999999994
  0
ARC
  5
2C6
100
AcDbEntity
  8
1
  6
DASHED
 62
           3
100
AcDbCircle
 10
-52.556286850771
 20
196.185368140835
 40
1.0
100
AcDbArc
 50
-67.500000000004
 51
33.405469996719
  0
ARC
  5
2C5
100
AcDbEntity
  8
1
  6
DASHED
 62
           3
100
AcDbCircle
 10
-52.109272040807
 20
192.58215503668
 40
2.500000000001
100
AcDbArc
 50
112.500000000008
 51
-67.50000000002
  0
ARC
  5
2C4
100
AcDbEntity
  8
1
  6
DASHED
 62
           3
100
AcDbCircle
 10
-49.877502824216
 20
189.718211413255
 40
1.0
100
AcDbArc
 50
11.594530003258
 51
112.5
  0
ARC
  5
2C3
100
AcDbEntity
  8
1
  6
DASHED
 62
           3
100
AcDbCircle
 10
-86.122497175787
 20
189.718211413256
 40
1.0
100
AcDbArc
 50
67.499999999998
 51
168.40546999673
  0
ARC
  5
2C2
100
AcDbEntity
  8
1
  6
DASHED
 62
           3
100
AcDbCircle
 10
-68.000000000001
 20
186.0
 40
19.500000000002
100
AcDbArc
 50
168.405469996728
 51
169.611191229702
  0
ARC
  5
2C1
100
AcDbEntity
  8
1
  6
DASHED
 62
           3
100
AcDbCircle
 10
-71.718211413256
 20
167.877502824214
 40
1.0
100
AcDbArc
 50
157.499999999995
 51
-101.594530003308
  0
ARC
  5
2C0
100
AcDbEntity
  8
1
  6
DASHED
 62
           3
100
AcDbCircle
 10
-68.000000000001
 20
186.0
 40
19.500000000002
100
AcDbArc
 50
-101.594530003273
 51
-100.3888087703
  0
ARC
  5
2BF
100
AcDbEntity
  8
1
  6
DASHED
 62
           3
100
AcDbCircle
 10
-49.877502824214
 20
182.281788586744
 40
1.0
100
AcDbArc
 50
-112.500000000004
 51
-11.594530003296
  0
ARC
  5
2BE
100
AcDbEntity
  8
1
  6
DASHED
 62
           3
100
AcDbCircle
 10
-68.000000000001
 20
186.0
 40
19.500000000001
100
AcDbArc
 50
-11.594530003273
 51
-10.3888087703
  0
ARC
  5
2BD
100
AcDbEntity
  8
1
  6
DASHED
 62
           3
100
AcDbCircle
 10
-83.890727959195
 20
192.58215503668
 40
2.499999999999
100
AcDbArc
 50
-112.500000000005
 51
67.500000000002
  0
ARC
  5
2BC
100
AcDbEntity
  8
1
  6
DASHED
 62
           3
100
AcDbCircle
 10
-74.58215503668
 20
170.109272040806
 40
2.5
100
AcDbArc
 50
-22.500000000003
 51
157.500000000001
  0
ARC
  5
2BB
100
AcDbEntity
  8
1
  6
DASHED
 62
           3
100
AcDbCircle
 10
-52.109272040807
 20
179.417844963321
 40
2.499999999999
100
AcDbArc
 50
67.500000000008
 51
-112.499999999993
  0
ARC
  5
2BA
100
AcDbEntity
  8
1
  6
DASHED
 62
           3
100
AcDbCircle
 10
-83.443713149232
 20
196.185368140836
 40
0.999999999999
100
AcDbArc
 50
146.594530003246
 51
-112.499999999972
  0
ARC
  5
2B9
100
AcDbEntity
  8
1
  6
DASHED
 62
           3
100
AcDbCircle
 10
-78.185368140836
 20
170.55628685077
 40
1.0
100
AcDbArc
 50
-123.405469996731
 51
-22.499999999993
  0
ARC
  5
2B8
100
AcDbEntity
  8
1
  6
DASHED
 62
           3
100
AcDbCircle
 10
-52.55628685077
 20
175.814631859165
 40
1.0
100
AcDbArc
 50
-33.405469996732
 51
67.500000000005
  0
ARC
  5
2B7
100
AcDbEntity
  8
1
  6
DASHED
 62
           3
100
AcDbCircle
 10
-78.185368140836
 20
201.44371314923
 40
1.0
100
AcDbArc
 50
22.499999999999
 51
123.405469996716
  0
ARC
  5
2B6
100
AcDbEntity
  8
1
  6
DASHED
 62
           3
100
AcDbCircle
 10
-83.443713149231
 20
175.814631859164
 40
1.000000000001
100
AcDbArc
 50
112.499999999977
 51
-146.594530003307
  0
ARC
  5
2B5
100
AcDbEntity
  8
1
  6
DASHED
 62
           3
100
AcDbCircle
 10
-57.814631859166
 20
170.55628685077
 40
1.0
100
AcDbArc
 50
-157.500000000001
 51
-56.594530003276
  0
ARC
  5
2B4
100
AcDbEntity
  8
1
  6
DASHED
 62
           3
100
AcDbCircle
 10
-83.890727959195
 20
179.417844963321
 40
2.500000000001
100
AcDbArc
 50
-67.499999999987
 51
112.499999999975
  0
ARC
  5
2B3
100
AcDbEntity
  8
1
  6
DASHED
 62
           3
100
AcDbCircle
 10
-71.718211413256
 20
204.122497175785
 40
1.0
100
AcDbArc
 50
101.594530003259
 51
-157.500000000011
  0
ARC
  5
2B2
100
AcDbEntity
  8
1
  6
DASHED
 62
           3
100
AcDbCircle
 10
-86.122497175786
 20
182.281788586745
 40
1.0
100
AcDbArc
 50
-168.405469996736
 51
-67.500000000003
  0
ARC
  5
2B1
100
AcDbEntity
  8
1
  6
DASHED
 62
           3
100
AcDbCircle
 10
-64.281788586745
 20
167.877502824215
 40
1.0
100
AcDbArc
 50
-78.405469996737
 51
22.5
  0
ARC
  5
2B0
100
AcDbEntity
  8
1
  6
DASHED
 62
           3
100
AcDbCircle
 10
-61.417844963321
 20
170.109272040806
 40
2.500000000001
100
AcDbArc
 50
22.500000000009
 51
-157.50000000002
  0
ARC
  5
2AF
100
AcDbEntity
  8
1
  6
DASHED
 62
           3
100
AcDbCircle
 10
-74.58215503668
 20
201.890727959194
 40
2.499999999999
100
AcDbArc
 50
-157.500000000002
 51
22.499999999999
  0
ARC
  5
2AE
100
AcDbEntity
  8
1
  6
DASHED
 62
           3
100
AcDbCircle
 10
-76.23986427021
 20
194.239864270211
 40
6.347072196954
100
AcDbArc
 50
139.518241184891
 51
156.342814147241
  0
ARC
  5
2AD
100
AcDbEntity
  8
1
  6
DASHED
 62
           3
100
AcDbCircle
 10
-76.23986427021
 20
194.239864270211
 40
6.347072196954
100
AcDbArc
 50
113.657185852742
 51
130.481758815102
  0
ARC
  5
2AC
100
AcDbEntity
  8
1
  6
DASHED
 62
           3
100
AcDbCircle
 10
-59.760135729788
 20
194.239864270209
 40
6.347072196954
100
AcDbArc
 50
23.657185852742
 51
40.481758815102
  0
ARC
  5
2AB
100
AcDbEntity
  8
1
  6
DASHED
 62
           3
100
AcDbCircle
 10
-59.760135729788
 20
194.239864270209
 40
6.347072196954
100
AcDbArc
 50
49.518241184889
 51
66.342814147241
  0
ARC
  5
2AA
100
AcDbEntity
  8
1
  6
CONTINUOUS
 62
           7
100
AcDbCircle
 10
-190.818542661515
 20
178.75
 40
1.35
100
AcDbArc
 50
-119.999999999996
 51
-60.000000000008
  0
ARC
  5
2A9
100
AcDbEntity
  8
1
  6
CONTINUOUS
 62
           7
100
AcDbCircle
 10
-190.818542661515
 20
178.75
 40
1.35
100
AcDbArc
 50
119.999999999998
 51
-119.999999999996
  0
ARC
  5
2A8
100
AcDbEntity
  8
1
  6
CONTINUOUS
 62
           7
100
AcDbCircle
 10
-190.818542661515
 20
178.75
 40
1.35
100
AcDbArc
 50
-60.000000000008
 51
60.000000000006
  0
ARC
  5
2A7
100
AcDbEntity
  8
1
  6
CONTINUOUS
 62
           7
100
AcDbCircle
 10
-190.818542661515
 20
178.75
 40
1.35
100
AcDbArc
 50
60.000000000006
 51
119.999999999998
  0
ARC
  5
2A6
100
AcDbEntity
  8
1
  6
CONTINUOUS
 62
           7
100
AcDbCircle
 10
-184.318542715715
 20
197.57492780142
 40
6.347072196954
100
AcDbArc
 50
68.657185852741
 51
85.481758815102
  0
ARC
  5
2A5
100
AcDbEntity
  8
1
  6
CONTINUOUS
 62
           7
100
AcDbCircle
 10
-184.318542715715
 20
197.57492780142
 40
6.347072196954
100
AcDbArc
 50
94.51824118489
 51
111.342814147242
  0
ARC
  5
2A4
100
AcDbEntity
  8
1
  6
CONTINUOUS
 62
           7
100
AcDbCircle
 10
-190.818542661515
 20
193.250000000001
 40
1.35
100
AcDbArc
 50
-119.999999999998
 51
-60.000000000006
  0
ARC
  5
2A3
100
AcDbEntity
  8
1
  6
CONTINUOUS
 62
           7
100
AcDbCircle
 10
-190.818542661515
 20
193.250000000001
 40
1.35
100
AcDbArc
 50
-60.000000000006
 51
60.000000000008
  0
ARC
  5
2A2
100
AcDbEntity
  8
1
  6
CONTINUOUS
 62
           7
100
AcDbCircle
 10
-190.818542661515
 20
193.250000000001
 40
1.35
100
AcDbArc
 50
119.999999999996
 51
-119.999999999998
  0
ARC
  5
2A1
100
AcDbEntity
  8
1
  6
CONTINUOUS
 62
           7
100
AcDbCircle
 10
-190.818542661515
 20
193.250000000001
 40
1.35
100
AcDbArc
 50
60.000000000008
 51
119.999999999996
  0
ARC
  5
2A0
100
AcDbEntity
  8
1
  6
CONTINUOUS
 62
           3
100
AcDbCircle
 10
-201.918542661516
 20
212.4855
 40
25.0
100
AcDbArc
 50
-88.573499003812
 51
-77.474610420259
  0
ARC
  5
29F
100
AcDbEntity
  8
1
  6
DASH_CENTER
 62
           3
100
AcDbCircle
 10
-201.918542661516
 20
212.4855
 40
24.8655
100
AcDbArc
 50
-88.528023000584
 51
-78.956000340839
  0
ARC
  5
29E
100
AcDbEntity
  8
1
  6
CONTINUOUS
 62
           3
100
AcDbCircle
 10
-201.918542661516
 20
168.38
 40
16.1345
100
AcDbArc
 50
74.391465999322
 51
87.787604807827
  0
ARC
  5
29D
100
AcDbEntity
  8
1
  6
DASH_CENTER
 62
           3
100
AcDbCircle
 10
-201.918542661516
 20
168.38
 40
16.0
100
AcDbArc
 50
76.220304378628
 51
87.709968966234
  0
ARC
  5
29C
100
AcDbEntity
  8
1
  6
CONTINUOUS
 62
           7
100
AcDbCircle
 10
-352.111887006168
 20
195.0
 40
2.980384757729
100
AcDbArc
 50
-57.015499540428
 51
-179.999999999998
  0
ARC
  5
29B
100
AcDbEntity
  8
1
  6
CONTINUOUS
 62
           7
100
AcDbCircle
 10
-352.111887006168
 20
195.0
 40
2.980384757729
100
AcDbArc
 50
-179.999999999998
 51
-122.984500459572
  0
ARC
  5
29A
100
AcDbEntity
  8
1
  6
CONTINUOUS
 62
           7
100
AcDbCircle
 10
-352.111887006168
 20
195.0
 40
3.5
100
AcDbArc
 50
-179.999999999998
 51
-124.849904579045
  0
ARC
  5
299
100
AcDbEntity
  8
1
  6
CONTINUOUS
 62
           7
100
AcDbCircle
 10
-352.111887006168
 20
195.0
 40
3.5
100
AcDbArc
 50
-55.150095420954
 51
-179.999999999998
  0
LINE
  5
298
100
AcDbEntity
  8
1
  6
DASH_CENTER
 62
           3
100
AcDbLine
 10
-347.111887006168
 20
186.0
 11
-330.101856368092
 21
186.0
  0
LINE
  5
297
100
AcDbEntity
  8
1
  6
DASH_CENTER
 62
           3
100
AcDbLine
 10
-352.111887006168
 20
167.750000000001
 11
-352.111887006168
 21
166.250000000001
  0
LINE
  5
296
100
AcDbEntity
  8
1
  6
DASH_CENTER
 62
           3
100
AcDbLine
 10
-365.102268062935
 20
178.5
 11
-354.709963217521
 21
184.5
  0
LINE
  5
295
100
AcDbEntity
  8
1
  6
DASH_CENTER
 62
           3
100
AcDbLine
 10
-339.121505949401
 20
178.5
 11
-349.513810794815
 21
184.5
  0
LINE
  5
294
100
AcDbEntity
  8
1
  6
CONTINUOUS
 62
           7
100
AcDbLine
 10
-354.111887006168
 20
192.500000000001
 11
-350.111887006168
 21
192.500000000001
  0
LINE
  5
293
100
AcDbEntity
  8
1
  6
CONTINUOUS
 62
           7
100
AcDbLine
 10
-350.111887006168
 20
192.500000000001
 11
-350.111887006168
 21
188.500000000001
  0
LINE
  5
292
100
AcDbEntity
  8
1
  6
CONTINUOUS
 62
           7
100
AcDbLine
 10
-350.111887006168
 20
188.500000000001
 11
-354.111887006168
 21
188.500000000001
  0
LINE
  5
291
100
AcDbEntity
  8
1
  6
CONTINUOUS
 62
           7
100
AcDbLine
 10
-354.111887006168
 20
188.500000000001
 11
-354.111887006168
 21
192.500000000001
  0
LINE
  5
290
100
AcDbEntity
  8
1
  6
DASH_CENTER
 62
           3
100
AcDbLine
 10
-352.111887006168
 20
195.25
 11
-352.111887006168
 21
191.2
  0
LINE
  5
28F
100
AcDbEntity
  8
1
  6
DASH_CENTER
 62
           3
100
AcDbLine
 10
-352.111887006168
 20
210.042101864106
 11
-352.111887006168
 21
197.2
  0
LINE
  5
28E
100
AcDbEntity
  8
1
  6
DASH_CENTER
 62
           3
100
AcDbLine
 10
-375.102993928656
 20
186.0
 11
-347.111887006168
 21
186.0
  0
LINE
  5
28D
100
AcDbEntity
  8
1
  6
DASH_CENTER
 62
           3
100
AcDbLine
 10
-352.111887006168
 20
197.2
 11
-352.111887006168
 21
191.2
  0
LINE
  5
28C
100
AcDbEntity
  8
1
  6
DASH_CENTER
 62
           3
100
AcDbLine
 10
-352.111887006168
 20
191.2
 11
-352.111887006168
 21
190.75
  0
LINE
  5
28B
100
AcDbEntity
  8
1
  6
DASH_CENTER
 62
           3
100
AcDbLine
 10
-352.111887006168
 20
197.2
 11
-352.111887006168
 21
191.2
  0
LINE
  5
28A
100
AcDbEntity
  8
1
  6
DASH_CENTER
 62
           3
100
AcDbLine
 10
-352.111887006168
 20
191.2
 11
-352.111887006168
 21
167.750000000001
  0
LINE
  5
289
100
AcDbEntity
  8
1
  6
CONTINUOUS
 62
           7
100
AcDbLine
 10
-368.111887006168
 20
206.0
 11
-336.111887006168
 21
206.0
  0
LINE
  5
288
100
AcDbEntity
  8
1
  6
CONTINUOUS
 62
           7
100
AcDbLine
 10
-332.111887006168
 20
202.0
 11
-332.111887006168
 21
186.0
  0
LINE
  5
287
100
AcDbEntity
  8
1
  6
CONTINUOUS
 62
           7
100
AcDbLine
 10
-336.111887006168
 20
166.0
 11
-368.111887006168
 21
166.0
  0
LINE
  5
286
100
AcDbEntity
  8
1
  6
CONTINUOUS
 62
           7
100
AcDbLine
 10
-372.111887006168
 20
170.0
 11
-372.111887006168
 21
202.0
  0
LINE
  5
285
100
AcDbEntity
  8
1
  6
DASH_CENTER
 62
           3
100
AcDbLine
 10
-370.496663317018
 20
204.38477631085
 11
-366.254022629899
 21
200.142135623731
  0
LINE
  5
284
100
AcDbEntity
  8
1
  6
DASH_CENTER
 62
           3
100
AcDbLine
 10
-333.727110695318
 20
167.61522368915
 11
-337.969751382437
 21
171.857864376269
  0
LINE
  5
283
100
AcDbEntity
  8
1
  6
CONTINUOUS
 62
           7
100
AcDbLine
 10
-332.111887006168
 20
186.0
 11
-332.111887006168
 21
170.0
  0
LINE
  5
282
100
AcDbEntity
  8
1
  6
DASH_CENTER
 62
           3
100
AcDbLine
 10
-337.969751382437
 20
200.142135623731
 11
-333.727110695318
 21
204.38477631085
  0
LINE
  5
281
100
AcDbEntity
  8
1
  6
DASH_CENTER
 62
           3
100
AcDbLine
 10
-370.712660809859
 20
167.399226196308
 11
-366.254022629899
 21
171.857864376269
  0
LINE
  5
280
100
AcDbEntity
  8
1
  6
DASH_CENTER
 62
           3
100
AcDbLine
 10
-352.111887006168
 20
166.250000000001
 11
-352.111887006168
 21
162.105646302814
  0
LINE
  5
27F
100
AcDbEntity
  8
1
  6
CONTINUOUS
 62
           7
100
AcDbLine
 10
-220.818542769914
 20
197.7
 11
-220.818542769914
 21
174.3
  0
LINE
  5
27E
100
AcDbEntity
  8
1
  6
CONTINUOUS
 62
           7
100
AcDbLine
 10
-220.818542769914
 20
197.5
 11
-221.318542769914
 21
198.0
  0
LINE
  5
27D
100
AcDbEntity
  8
1
  6
CONTINUOUS
 62
           7
100
AcDbLine
 10
-221.318542769914
 20
174.0
 11
-220.818542769914
 21
174.5
  0
LINE
  5
27C
100
AcDbEntity
  8
1
  6
CONTINUOUS
 62
           7
100
AcDbLine
 10
-221.318542769914
 20
174.0
 11
-221.318542769914
 21
172.0
  0
LINE
  5
27B
100
AcDbEntity
  8
1
  6
CONTINUOUS
 62
           7
100
AcDbLine
 10
-220.818542769914
 20
197.7
 11
-220.518542769914
 21
198.0
  0
LINE
  5
27A
100
AcDbEntity
  8
1
  6
CONTINUOUS
 62
           7
100
AcDbLine
 10
-218.918542769903
 20
166.25
 11
-220.418542769911
 21
167.75
  0
LINE
  5
279
100
AcDbEntity
  8
1
  6
CONTINUOUS
 62
           7
100
AcDbLine
 10
-220.41854276991
 20
174.0
 11
-220.518542769914
 21
174.0
  0
LINE
  5
278
100
AcDbEntity
  8
1
  6
CONTINUOUS
 62
           7
100
AcDbLine
 10
-220.518542769914
 20
174.0
 11
-220.818542769914
 21
174.3
  0
LINE
  5
277
100
AcDbEntity
  8
1
  6
CONTINUOUS
 62
           7
100
AcDbLine
 10
-218.918542769911
 20
205.75
 11
-220.418542769911
 21
204.25
  0
LINE
  5
276
100
AcDbEntity
  8
1
  6
CONTINUOUS
 62
           7
100
AcDbLine
 10
-220.518542769914
 20
198.0
 11
-220.418542769911
 21
198.0
  0
LINE
  5
275
100
AcDbEntity
  8
1
  6
CONTINUOUS
 62
           7
100
AcDbLine
 10
-232.818542769914
 20
192.454990467032
 11
-247.818542769914
 21
192.454990467032
  0
LINE
  5
274
100
AcDbEntity
  8
1
  6
CONTINUOUS
 62
           7
100
AcDbLine
 10
-232.818542769914
 20
191.0
 11
-247.318542769914
 21
191.0
  0
LINE
  5
273
100
AcDbEntity
  8
1
  6
CONTINUOUS
 62
           7
100
AcDbLine
 10
-232.818542769914
 20
191.0
 11
-232.818542769914
 21
192.454990467032
  0
LINE
  5
272
100
AcDbEntity
  8
1
  6
CONTINUOUS
 62
           7
100
AcDbLine
 10
-247.818542769914
 20
190.5
 11
-247.818542769914
 21
192.454990467032
  0
LINE
  5
271
100
AcDbEntity
  8
1
  6
CONTINUOUS
 62
           7
100
AcDbLine
 10
-221.318542769914
 20
197.25
 11
-221.318542769914
 21
174.0
  0
LINE
  5
270
100
AcDbEntity
  8
1
  6
CONTINUOUS
 62
           7
100
AcDbLine
 10
-227.818542769914
 20
199.5
 11
-227.818542769914
 21
191.0
  0
LINE
  5
26F
100
AcDbEntity
  8
1
  6
CONTINUOUS
 62
           7
100
AcDbLine
 10
-247.318542769914
 20
191.0
 11
-247.818542769914
 21
190.5
  0
LINE
  5
26E
100
AcDbEntity
  8
1
  6
CONTINUOUS
 62
           7
100
AcDbLine
 10
-227.818542769914
 20
200.0
 11
-227.818542769914
 21
199.5
  0
LINE
  5
26D
100
AcDbEntity
  8
1
  6
CONTINUOUS
 62
           7
100
AcDbLine
 10
-221.318542769914
 20
200.0
 11
-221.318542769914
 21
197.25
  0
LINE
  5
26C
100
AcDbEntity
  8
1
  6
CONTINUOUS
 62
           7
100
AcDbLine
 10
-227.318542769914
 20
171.5
 11
-227.318542769914
 21
200.5
  0
LINE
  5
26B
100
AcDbEntity
  8
1
  6
CONTINUOUS
 62
           7
100
AcDbLine
 10
-227.818542769914
 20
191.0
 11
-227.818542769914
 21
172.0
  0
LINE
  5
26A
100
AcDbEntity
  8
1
  6
CONTINUOUS
 62
           7
100
AcDbLine
 10
-227.818542769914
 20
191.0
 11
-227.818542769914
 21
176.0
  0
LINE
  5
269
100
AcDbEntity
  8
1
  6
CONTINUOUS
 62
           7
100
AcDbLine
 10
-247.818542769914
 20
182.251344435862
 11
-247.818542769914
 21
181.5
  0
LINE
  5
268
100
AcDbEntity
  8
1
  6
CONTINUOUS
 62
           7
100
AcDbLine
 10
-247.818542769914
 20
188.5
 11
-247.818542769914
 21
182.251344435862
  0
LINE
  5
267
100
AcDbEntity
  8
1
  6
CONTINUOUS
 62
           7
100
AcDbLine
 10
-232.818542769914
 20
191.0
 11
-227.818542769914
 21
191.0
  0
LINE
  5
266
100
AcDbEntity
  8
1
  6
CONTINUOUS
 62
           7
100
AcDbLine
 10
-247.318542769914
 20
191.0
 11
-247.318542769914
 21
181.0
  0
LINE
  5
265
100
AcDbEntity
  8
1
  6
CONTINUOUS
 62
           7
100
AcDbLine
 10
-247.818542769914
 20
190.5
 11
-247.818542769914
 21
188.5
  0
LINE
  5
264
100
AcDbEntity
  8
1
  6
DASH_CENTER
 62
           3
100
AcDbLine
 10
-229.768542769914
 20
195.0
 11
-220.368542769914
 21
195.0
  0
LINE
  5
263
100
AcDbEntity
  8
1
  6
CONTINUOUS
 62
           7
100
AcDbLine
 10
-247.318542769914
 20
181.0
 11
-227.818542769914
 21
181.0
  0
LINE
  5
262
100
AcDbEntity
  8
1
  6
CONTINUOUS
 62
           7
100
AcDbLine
 10
-247.818542769914
 20
181.5
 11
-247.318542769914
 21
181.0
  0
LINE
  5
261
100
AcDbEntity
  8
1
  6
CONTINUOUS
 62
           7
100
AcDbLine
 10
-227.818542769914
 20
200.0
 11
-227.318542769914
 21
200.5
  0
LINE
  5
260
100
AcDbEntity
  8
1
  6
CONTINUOUS
 62
           7
100
AcDbLine
 10
-227.818542769914
 20
199.5
 11
-227.818542769914
 21
200.0
  0
LINE
  5
25F
100
AcDbEntity
  8
1
  6
CONTINUOUS
 62
           7
100
AcDbLine
 10
-227.318542769914
 20
200.5
 11
-221.818542769914
 21
200.5
  0
LINE
  5
25E
100
AcDbEntity
  8
1
  6
CONTINUOUS
 62
           7
100
AcDbLine
 10
-221.818542769914
 20
200.5
 11
-221.318542769914
 21
200.0
  0
LINE
  5
25D
100
AcDbEntity
  8
1
  6
CONTINUOUS
 62
           7
100
AcDbLine
 10
-221.318542769914
 20
200.0
 11
-221.318542769914
 21
199.7
  0
LINE
  5
25C
100
AcDbEntity
  8
1
  6
CONTINUOUS
 62
           7
100
AcDbLine
 10
-227.818542769914
 20
172.0
 11
-227.318542769914
 21
171.5
  0
LINE
  5
25B
100
AcDbEntity
  8
1
  6
CONTINUOUS
 62
           7
100
AcDbLine
 10
-227.318542769914
 20
171.5
 11
-221.818542769914
 21
171.5
  0
LINE
  5
25A
100
AcDbEntity
  8
1
  6
CONTINUOUS
 62
           7
100
AcDbLine
 10
-221.818542769914
 20
171.5
 11
-221.318542769914
 21
172.0
  0
LINE
  5
259
100
AcDbEntity
  8
1
  6
CONTINUOUS
 62
           7
100
AcDbLine
 10
-221.318542769914
 20
199.7
 11
-221.318542769914
 21
200.0
  0
LINE
  5
258
100
AcDbEntity
  8
1
  6
CONTINUOUS
 62
           7
100
AcDbLine
 10
-221.818542769914
 20
200.5
 11
-221.818542769914
 21
171.5
  0
LINE
  5
257
100
AcDbEntity
  8
1
  6
DASH_CENTER
 62
           3
100
AcDbLine
 10
-52.023032169696
 20
201.976967830305
 11
-68.000000000001
 21
186.0
  0
LINE
  5
256
100
AcDbEntity
  8
1
  6
DASH_CENTER
 62
           3
100
AcDbLine
 10
-73.070022194179
 20
191.070022194179
 11
-68.000000000001
 21
186.0
  0
LINE
  5
255
100
AcDbEntity
  8
1
  6
DASHED
 62
           3
100
AcDbLine
 10
-79.036985132334
 20
197.036985132333
 11
-73.070022194179
 21
191.070022194179
  0
LINE
  5
254
100
AcDbEntity
  8
1
  6
DASH_CENTER
 62
           3
100
AcDbLine
 10
-49.514361492015
 20
170.514361492015
 11
-86.485638507985
 21
170.514361492015
  0
LINE
  5
253
100
AcDbEntity
  8
1
  6
DASH_CENTER
 62
           3
100
AcDbLine
 10
-83.485638507986
 20
204.485638507986
 11
-83.485638507986
 21
167.514361492014
  0
LINE
  5
252
100
AcDbEntity
  8
1
  6
DASH_CENTER
 62
           3
100
AcDbLine
 10
-52.514361492015
 20
167.514361492014
 11
-52.514361492015
 21
204.485638507986
  0
LINE
  5
251
100
AcDbEntity
  8
1
  6
DASH_CENTER
 62
           3
100
AcDbLine
 10
-86.485638507985
 20
201.485638507985
 11
-49.514361492015
 21
201.485638507985
  0
LINE
  5
250
100
AcDbEntity
  8
1
  6
DASHED
 62
           7
100
AcDbLine
 10
-71.040559159103
 20
187.343502884255
 11
-70.792750346947
 21
187.095694072099
  0
LINE
  5
24F
100
AcDbEntity
  8
1
  6
DASHED
 62
           7
100
AcDbLine
 10
-69.343502884256
 20
189.040559159103
 11
-69.0956940721
 21
188.792750346947
  0
LINE
  5
24E
100
AcDbEntity
  8
1
  6
DASHED
 62
           7
100
AcDbLine
 10
-64.959440840898
 20
187.343502884255
 11
-65.207249653054
 21
187.095694072099
  0
LINE
  5
24D
100
AcDbEntity
  8
1
  6
DASHED
 62
           7
100
AcDbLine
 10
-66.656497115746
 20
189.040559159103
 11
-66.904305927901
 21
188.792750346947
  0
LINE
  5
24C
100
AcDbEntity
  8
1
  6
DASH_CENTER
 62
           3
100
AcDbLine
 10
-65.0
 20
186.0
 11
-42.500000000001
 21
186.0
  0
LINE
  5
24B
100
AcDbEntity
  8
1
  6
CONTINUOUS
 62
           7
100
AcDbLine
 10
-188.318542661515
 20
191.0
 11
-188.318542661515
 21
191.7
  0
LINE
  5
24A
100
AcDbEntity
  8
1
  6
CONTINUOUS
 62
           7
100
AcDbLine
 10
-188.318542661515
 20
181.0
 11
-188.318542661515
 21
180.3
  0
LINE
  5
249
100
AcDbEntity
  8
1
  6
CONTINUOUS
 62
           7
100
AcDbLine
 10
-199.018542769913
 20
191.000000000001
 11
-200.018542769915
 21
190.0
  0
LINE
  5
248
100
AcDbEntity
  8
1
  6
CONTINUOUS
 62
           7
100
AcDbLine
 10
-200.818542715715
 20
189.420171553198
 11
-200.818542715715
 21
205.75
  0
LINE
  5
247
100
AcDbEntity
  8
1
  6
CONTINUOUS
 62
           7
100
AcDbLine
 10
-200.818542715715
 20
166.25
 11
-200.818542715715
 21
182.572435677414
  0
LINE
  5
246
100
AcDbEntity
  8
1
  6
CONTINUOUS
 62
           7
100
AcDbLine
 10
-199.81854271571
 20
191.382386208807
 11
-199.818542715715
 21
205.75
  0
LINE
  5
245
100
AcDbEntity
  8
1
  6
CONTINUOUS
 62
           7
100
AcDbLine
 10
-200.018542769915
 20
183.9195
 11
-200.018542769915
 21
182.0
  0
LINE
  5
244
100
AcDbEntity
  8
1
  6
CONTINUOUS
 62
           7
100
AcDbLine
 10
-200.018542769915
 20
183.9195
 11
-195.518542661515
 21
183.9195
  0
LINE
  5
243
100
AcDbEntity
  8
1
  6
CONTINUOUS
 62
           7
100
AcDbLine
 10
-200.018542769915
 20
188.0805
 11
-195.518542661514
 21
188.0805
  0
LINE
  5
242
100
AcDbEntity
  8
1
  6
CONTINUOUS
 62
           7
100
AcDbLine
 10
-200.018542769915
 20
190.0
 11
-200.018542769915
 21
188.0805
  0
LINE
  5
241
100
AcDbEntity
  8
1
  6
CONTINUOUS
 62
           7
100
AcDbLine
 10
-195.518542661514
 20
188.0805
 11
-195.518542661515
 21
183.9195
  0
LINE
  5
240
100
AcDbEntity
  8
1
  6
CONTINUOUS
 62
           7
100
AcDbLine
 10
-188.318542661515
 20
191.0
 11
-199.018542769913
 21
191.000000000001
  0
LINE
  5
23F
100
AcDbEntity
  8
1
  6
CONTINUOUS
 62
           7
100
AcDbLine
 10
-199.018542769915
 20
181.000000000001
 11
-188.318542661515
 21
181.0
  0
LINE
  5
23E
100
AcDbEntity
  8
1
  6
CONTINUOUS
 62
           7
100
AcDbLine
 10
-200.018542769915
 20
182.0
 11
-199.018542769915
 21
181.000000000001
  0
LINE
  5
23D
100
AcDbEntity
  8
1
  6
CONTINUOUS
 62
           7
100
AcDbLine
 10
-195.518542769915
 20
188.325720836014
 11
-195.518542769915
 21
184.174279163987
  0
LINE
  5
23C
100
AcDbEntity
  8
1
  6
CONTINUOUS
 62
           7
100
AcDbLine
 10
-199.818542715715
 20
166.25
 11
-199.818542715715
 21
180.616682530124
  0
LINE
  5
23B
100
AcDbEntity
  8
1
  6
CONTINUOUS
 62
           7
100
AcDbLine
 10
-200.818542715715
 20
166.25
 11
-199.818542715715
 21
166.25
  0
LINE
  5
23A
100
AcDbEntity
  8
1
  6
CONTINUOUS
 62
           7
100
AcDbLine
 10
-200.818542715715
 20
205.75
 11
-200.818542715715
 21
206.0
  0
LINE
  5
239
100
AcDbEntity
  8
1
  6
CONTINUOUS
 62
           7
100
AcDbLine
 10
-200.818542715715
 20
205.75
 11
-199.818542715715
 21
205.75
  0
LINE
  5
238
100
AcDbEntity
  8
1
  6
CONTINUOUS
 62
           7
100
AcDbLine
 10
-196.118542661515
 20
195.500000000001
 11
-194.318542661514
 21
195.500000000001
  0
LINE
  5
237
100
AcDbEntity
  8
1
  6
CONTINUOUS
 62
           7
100
AcDbLine
 10
-194.318542661515
 20
176.5
 11
-196.118542661515
 21
176.5
  0
LINE
  5
236
100
AcDbEntity
  8
1
  6
DASH_CENTER
 62
           3
100
AcDbLine
 10
-184.318542661515
 20
204.32990585146
 11
-184.318542661515
 21
193.17009414854
  0
LINE
  5
235
100
AcDbEntity
  8
1
  6
CONTINUOUS
 62
           7
100
AcDbLine
 10
-194.318542769914
 20
176.0
 11
-194.318542769914
 21
176.5
  0
LINE
  5
234
100
AcDbEntity
  8
1
  6
CONTINUOUS
 62
           7
100
AcDbLine
 10
-194.318542769914
 20
176.0
 11
-194.318542769914
 21
176.5
  0
LINE
  5
233
100
AcDbEntity
  8
1
  6
CONTINUOUS
 62
           7
100
AcDbLine
 10
-194.318542769914
 20
196.000000000001
 11
-193.318542769914
 21
196.000000000001
  0
LINE
  5
232
100
AcDbEntity
  8
1
  6
CONTINUOUS
 62
           7
100
AcDbLine
 10
-194.318542769914
 20
193.500000000001
 11
-194.318542769914
 21
196.000000000001
  0
LINE
  5
231
100
AcDbEntity
  8
1
  6
CONTINUOUS
 62
           7
100
AcDbLine
 10
-193.318542769914
 20
196.000000000001
 11
-193.318542769914
 21
193.500000000001
  0
LINE
  5
230
100
AcDbEntity
  8
1
  6
CONTINUOUS
 62
           7
100
AcDbLine
 10
-194.318542769914
 20
193.500000000001
 11
-193.318542769914
 21
193.500000000001
  0
LINE
  5
22F
100
AcDbEntity
  8
1
  6
CONTINUOUS
 62
           7
100
AcDbLine
 10
-194.318542769914
 20
178.5
 11
-193.318542769914
 21
178.5
  0
LINE
  5
22E
100
AcDbEntity
  8
1
  6
CONTINUOUS
 62
           7
100
AcDbLine
 10
-194.318542769914
 20
178.5
 11
-194.318542769914
 21
176.5
  0
LINE
  5
22D
100
AcDbEntity
  8
1
  6
CONTINUOUS
 62
           7
100
AcDbLine
 10
-193.318542769914
 20
176.0
 11
-193.318542769914
 21
178.5
  0
LINE
  5
22C
100
AcDbEntity
  8
1
  6
CONTINUOUS
 62
           7
100
AcDbLine
 10
-193.318542769914
 20
176.0
 11
-194.318542769914
 21
176.0
  0
LINE
  5
22B
100
AcDbEntity
  8
1
  6
CONTINUOUS
 62
           7
100
AcDbLine
 10
-188.318542661515
 20
195.500000000001
 11
-188.318542661515
 21
194.0
  0
LINE
  5
22A
100
AcDbEntity
  8
1
  6
CONTINUOUS
 62
           7
100
AcDbLine
 10
-195.518542661515
 20
189.0
 11
-195.518542661515
 21
183.0
  0
LINE
  5
229
100
AcDbEntity
  8
1
  6
CONTINUOUS
 62
           7
100
AcDbLine
 10
-218.918542769903
 20
166.25
 11
-218.918542769903
 21
186.0
  0
LINE
  5
228
100
AcDbEntity
  8
1
  6
CONTINUOUS
 62
           7
100
AcDbLine
 10
-218.918542769911
 20
205.75
 11
-218.918542769911
 21
186.0
  0
LINE
  5
227
100
AcDbEntity
  8
1
  6
CONTINUOUS
 62
           7
100
AcDbLine
 10
-218.918542769911
 20
205.75
 11
-220.418542769911
 21
204.25
  0
LINE
  5
226
100
AcDbEntity
  8
1
  6
CONTINUOUS
 62
           7
100
AcDbLine
 10
-218.918542769903
 20
166.25
 11
-220.418542769911
 21
167.75
  0
LINE
  5
225
100
AcDbEntity
  8
1
  6
CONTINUOUS
 62
           7
100
AcDbLine
 10
-220.418542769911
 20
167.75
 11
-220.418542769911
 21
204.25
  0
LINE
  5
224
100
AcDbEntity
  8
1
  6
CONTINUOUS
 62
           7
100
AcDbLine
 10
-218.918542715704
 20
205.75
 11
-208.618542769914
 21
205.75
  0
LINE
  5
223
100
AcDbEntity
  8
1
  6
CONTINUOUS
 62
           7
100
AcDbLine
 10
-208.618542769914
 20
166.25
 11
-218.918542715704
 21
166.25
  0
LINE
  5
222
100
AcDbEntity
  8
1
  6
CONTINUOUS
 62
           7
100
AcDbLine
 10
-183.11854271572
 20
189.1
 11
-183.11854271572
 21
189.0
  0
LINE
  5
221
100
AcDbEntity
  8
1
  6
CONTINUOUS
 62
           7
100
AcDbLine
 10
-185.51854271572
 20
189.1
 11
-185.51854271572
 21
189.0
  0
LINE
  5
220
100
AcDbEntity
  8
1
  6
CONTINUOUS
 62
           7
100
AcDbLine
 10
-188.018542661515
 20
192.0
 11
-185.81854271572
 21
192.0
  0
LINE
  5
21F
100
AcDbEntity
  8
1
  6
CONTINUOUS
 62
           7
100
AcDbLine
 10
-178.818542607316
 20
191.5
 11
-178.818542607316
 21
189.4
  0
LINE
  5
21E
100
AcDbEntity
  8
1
  6
CONTINUOUS
 62
           7
100
AcDbLine
 10
-179.318542607316
 20
180.0
 11
-188.018542661515
 21
180.0
  0
LINE
  5
21D
100
AcDbEntity
  8
1
  6
CONTINUOUS
 62
           7
100
AcDbLine
 10
-178.818542607316
 20
189.4
 11
-178.818542607316
 21
187.708099243548
  0
LINE
  5
21C
100
AcDbEntity
  8
1
  6
CONTINUOUS
 62
           7
100
AcDbLine
 10
-195.518542661515
 20
183.0
 11
-179.318542607316
 21
183.0
  0
LINE
  5
21B
100
AcDbEntity
  8
1
  6
CONTINUOUS
 62
           7
100
AcDbLine
 10
-178.818542607316
 20
182.5
 11
-178.818542607316
 21
180.5
  0
LINE
  5
21A
100
AcDbEntity
  8
1
  6
CONTINUOUS
 62
           3
100
AcDbLine
 10
-185.81854271572
 20
192.0
 11
-185.81854271572
 21
189.0
  0
LINE
  5
219
100
AcDbEntity
  8
1
  6
CONTINUOUS
 62
           3
100
AcDbLine
 10
-182.81854271572
 20
192.0
 11
-182.81854271572
 21
189.0
  0
LINE
  5
218
100
AcDbEntity
  8
1
  6
DASH_CENTER
 62
           3
100
AcDbLine
 10
-184.31854271572
 20
192.904112978248
 11
-184.31854271572
 21
188.9
  0
LINE
  5
217
100
AcDbEntity
  8
1
  6
CONTINUOUS
 62
           7
100
AcDbLine
 10
-178.818542607316
 20
182.5
 11
-179.318542607316
 21
183.0
  0
LINE
  5
216
100
AcDbEntity
  8
1
  6
CONTINUOUS
 62
           7
100
AcDbLine
 10
-178.818542607316
 20
187.708099243548
 11
-178.818542607316
 21
182.5
  0
LINE
  5
215
100
AcDbEntity
  8
1
  6
CONTINUOUS
 62
           7
100
AcDbLine
 10
-179.318542607316
 20
192.0
 11
-178.818542607316
 21
191.5
  0
LINE
  5
214
100
AcDbEntity
  8
1
  6
CONTINUOUS
 62
           7
100
AcDbLine
 10
-178.818542607316
 20
180.5
 11
-179.318542607316
 21
180.0
  0
LINE
  5
213
100
AcDbEntity
  8
1
  6
CONTINUOUS
 62
           7
100
AcDbLine
 10
-188.318542661515
 20
191.7
 11
-188.018542661515
 21
192.0
  0
LINE
  5
212
100
AcDbEntity
  8
1
  6
CONTINUOUS
 62
           7
100
AcDbLine
 10
-188.318542661515
 20
180.3
 11
-188.018542661515
 21
180.0
  0
LINE
  5
211
100
AcDbEntity
  8
1
  6
DASH_CENTER
 62
           3
100
AcDbLine
 10
-184.31854271572
 20
183.6
 11
-184.31854271572
 21
188.9
  0
LINE
  5
210
100
AcDbEntity
  8
1
  6
CONTINUOUS
 62
           7
100
AcDbLine
 10
-179.318542607316
 20
189.0
 11
-195.518542661515
 21
189.0
  0
LINE
  5
20F
100
AcDbEntity
  8
1
  6
CONTINUOUS
 62
           7
100
AcDbLine
 10
-179.318542607316
 20
189.0
 11
-178.818542607316
 21
189.5
  0
LINE
  5
20E
100
AcDbEntity
  8
1
  6
CONTINUOUS
 62
           7
100
AcDbLine
 10
-196.418542661515
 20
195.800000000001
 11
-196.118542661515
 21
195.500000000001
  0
LINE
  5
20D
100
AcDbEntity
  8
1
  6
CONTINUOUS
 62
           7
100
AcDbLine
 10
-196.418542661515
 20
176.2
 11
-196.118542661515
 21
176.5
  0
LINE
  5
20C
100
AcDbEntity
  8
1
  6
CONTINUOUS
 62
           7
100
AcDbLine
 10
-182.318542553115
 20
200.401999998374
 11
-182.318542553115
 21
199.621999835774
  0
LINE
  5
20B
100
AcDbEntity
  8
1
  6
CONTINUOUS
 62
           7
100
AcDbLine
 10
-186.318542553115
 20
200.441999998374
 11
-186.318542553115
 21
199.622000160974
  0
LINE
  5
20A
100
AcDbEntity
  8
1
  6
CONTINUOUS
 62
           3
100
AcDbLine
 10
-181.818542553115
 20
200.396999998374
 11
-181.818542553115
 21
194.0
  0
LINE
  5
209
100
AcDbEntity
  8
1
  6
CONTINUOUS
 62
           3
100
AcDbLine
 10
-186.818542553115
 20
200.446999998374
 11
-186.818542553115
 21
194.0
  0
LINE
  5
208
100
AcDbEntity
  8
1
  6
CONTINUOUS
 62
           7
100
AcDbLine
 10
-188.318542661515
 20
176.5
 11
-188.318542661515
 21
178.0
  0
LINE
  5
207
100
AcDbEntity
  8
1
  6
CONTINUOUS
 62
           7
100
AcDbLine
 10
-194.318542661514
 20
195.500000000001
 11
-194.318542661515
 21
196.000000000001
  0
LINE
  5
206
100
AcDbEntity
  8
1
  6
CONTINUOUS
 62
           7
100
AcDbLine
 10
-194.318542661515
 20
196.000000000001
 11
-193.168542661514
 21
196.000000000001
  0
LINE
  5
205
100
AcDbEntity
  8
1
  6
CONTINUOUS
 62
           7
100
AcDbLine
 10
-193.168542661514
 20
196.000000000001
 11
-193.168542661515
 21
195.500000000001
  0
LINE
  5
204
100
AcDbEntity
  8
1
  6
CONTINUOUS
 62
           7
100
AcDbLine
 10
-193.168542661515
 20
195.500000000001
 11
-188.318542661515
 21
195.500000000001
  0
LINE
  5
203
100
AcDbEntity
  8
1
  6
CONTINUOUS
 62
           7
100
AcDbLine
 10
-194.318542661515
 20
176.0
 11
-194.318542661515
 21
176.5
  0
LINE
  5
202
100
AcDbEntity
  8
1
  6
CONTINUOUS
 62
           7
100
AcDbLine
 10
-194.318542661515
 20
176.0
 11
-194.318542661515
 21
176.5
  0
LINE
  5
201
100
AcDbEntity
  8
1
  6
CONTINUOUS
 62
           7
100
AcDbLine
 10
-193.168542661514
 20
176.0
 11
-194.318542661515
 21
176.0
  0
LINE
  5
200
100
AcDbEntity
  8
1
  6
CONTINUOUS
 62
           7
100
AcDbLine
 10
-193.168542661515
 20
176.5
 11
-193.168542661514
 21
176.0
  0
LINE
  5
1FF
100
AcDbEntity
  8
1
  6
CONTINUOUS
 62
           7
100
AcDbLine
 10
-188.318542661515
 20
176.5
 11
-193.168542661515
 21
176.5
  0
LINE
  5
1FE
100
AcDbEntity
  8
1
  6
CONTINUOUS
 62
           7
100
AcDbLine
 10
-199.518542715714
 20
205.5
 11
-195.662243664006
 21
205.5
  0
LINE
  5
1FD
100
AcDbEntity
  8
1
  6
CONTINUOUS
 62
           7
100
AcDbLine
 10
-199.518542715714
 20
205.5
 11
-199.818542715714
 21
205.2
  0
LINE
  5
1FC
100
AcDbEntity
  8
1
  6
CONTINUOUS
 62
           7
100
AcDbLine
 10
-186.318542553115
 20
197.221999835773
 11
-186.318542553115
 21
194.0
  0
LINE
  5
1FB
100
AcDbEntity
  8
1
  6
CONTINUOUS
 62
           7
100
AcDbLine
 10
-182.318542553115
 20
197.222000160974
 11
-182.318542553115
 21
194.0
  0
LINE
  5
1FA
100
AcDbEntity
  8
1
  6
CONTINUOUS
 62
           7
100
AcDbLine
 10
-200.818542715715
 20
166.0
 11
-200.818542715715
 21
166.25
  0
LINE
  5
1F9
100
AcDbEntity
  8
1
  6
CONTINUOUS
 62
           7
100
AcDbLine
 10
-205.818542715715
 20
206.0
 11
-200.818542715715
 21
206.0
  0
LINE
  5
1F8
100
AcDbEntity
  8
1
  6
CONTINUOUS
 62
           7
100
AcDbLine
 10
-205.818542715715
 20
166.0
 11
-205.818542715715
 21
206.0
  0
LINE
  5
1F7
100
AcDbEntity
  8
1
  6
CONTINUOUS
 62
           7
100
AcDbLine
 10
-200.818542715715
 20
164.7
 11
-200.818542715715
 21
161.3
  0
LINE
  5
1F6
100
AcDbEntity
  8
1
  6
CONTINUOUS
 62
           7
100
AcDbLine
 10
-200.818542715715
 20
161.3
 11
-200.818542715715
 21
158.960337510089
  0
LINE
  5
1F5
100
AcDbEntity
  8
1
  6
CONTINUOUS
 62
           7
100
AcDbLine
 10
-205.818542715715
 20
161.3
 11
-205.818542715715
 21
158.960337510089
  0
LINE
  5
1F4
100
AcDbEntity
  8
1
  6
CONTINUOUS
 62
           7
100
AcDbLine
 10
-205.818542715715
 20
161.3
 11
-200.818542715715
 21
161.3
  0
LINE
  5
1F3
100
AcDbEntity
  8
1
  6
DASH_CENTER
 62
           3
100
AcDbLine
 10
-207.318542715715
 20
163.0
 11
-199.818542715715
 21
163.0
  0
LINE
  5
1F2
100
AcDbEntity
  8
1
  6
CONTINUOUS
 62
           7
100
AcDbLine
 10
-205.818542715715
 20
158.960337510089
 11
-200.818542715715
 21
158.960337510089
  0
LINE
  5
1F1
100
AcDbEntity
  8
1
  6
CONTINUOUS
 62
           7
100
AcDbLine
 10
-200.818542715715
 20
166.0
 11
-200.818542715715
 21
164.7
  0
LINE
  5
1F0
100
AcDbEntity
  8
1
  6
CONTINUOUS
 62
           7
100
AcDbLine
 10
-208.318542715715
 20
170.499999999999
 11
-208.318542715715
 21
166.3
  0
LINE
  5
1EF
100
AcDbEntity
  8
1
  6
CONTINUOUS
 62
           7
100
AcDbLine
 10
-208.318542715715
 20
205.7
 11
-208.318542715715
 21
201.75
  0
LINE
  5
1EE
100
AcDbEntity
  8
1
  6
CONTINUOUS
 62
           7
100
AcDbLine
 10
-208.318542715715
 20
205.7
 11
-208.018542715715
 21
206.0
  0
LINE
  5
1ED
100
AcDbEntity
  8
1
  6
CONTINUOUS
 62
           7
100
AcDbLine
 10
-208.018542715715
 20
206.0
 11
-205.818542715715
 21
206.0
  0
LINE
  5
1EC
100
AcDbEntity
  8
1
  6
CONTINUOUS
 62
           7
100
AcDbLine
 10
-208.018542715715
 20
166.0
 11
-208.318542715715
 21
166.3
  0
LINE
  5
1EB
100
AcDbEntity
  8
1
  6
CONTINUOUS
 62
           7
100
AcDbLine
 10
-208.018542715715
 20
166.0
 11
-205.818542715715
 21
166.0
  0
LINE
  5
1EA
100
AcDbEntity
  8
1
  6
CONTINUOUS
 62
           7
100
AcDbLine
 10
-205.818542715715
 20
166.0
 11
-205.818542715715
 21
164.7
  0
LINE
  5
1E9
100
AcDbEntity
  8
1
  6
CONTINUOUS
 62
           7
100
AcDbLine
 10
-205.818542715715
 20
164.7
 11
-200.818542715715
 21
164.7
  0
LINE
  5
1E8
100
AcDbEntity
  8
1
  6
CONTINUOUS
 62
           7
100
AcDbLine
 10
-205.818542715715
 20
164.7
 11
-205.818542715715
 21
161.3
  0
LINE
  5
1E7
100
AcDbEntity
  8
1
  6
CONTINUOUS
 62
           7
100
AcDbLine
 10
-208.318542715715
 20
170.199999999999
 11
-208.318542715715
 21
166.55
  0
LINE
  5
1E6
100
AcDbEntity
  8
1
  6
CONTINUOUS
 62
           7
100
AcDbLine
 10
-208.318542715715
 20
205.45
 11
-208.318542715715
 21
202.2
  0
LINE
  5
1E5
100
AcDbEntity
  8
1
  6
CONTINUOUS
 62
           7
100
AcDbLine
 10
-208.318542769914
 20
205.45
 11
-208.318542769914
 21
170.499999999999
  0
LINE
  5
1E4
100
AcDbEntity
  8
1
  6
CONTINUOUS
 62
           7
100
AcDbLine
 10
-208.618542769914
 20
205.75
 11
-208.318542769914
 21
205.45
  0
LINE
  5
1E3
100
AcDbEntity
  8
1
  6
CONTINUOUS
 62
           7
100
AcDbLine
 10
-208.318542769914
 20
166.55
 11
-208.618542769914
 21
166.25
  0
LINE
  5
1E2
100
AcDbEntity
  8
1
  6
CONTINUOUS
 62
           7
100
AcDbLine
 10
-208.318542769914
 20
170.199999999999
 11
-208.318542769914
 21
166.55
  0
LINE
  5
1E1
100
AcDbEntity
  8
1
  6
CONTINUOUS
 62
           7
100
AcDbLine
 10
-193.168542661512
 20
195.500000000001
 11
-188.318542661515
 21
195.500000000001
  0
LINE
  5
1E0
100
AcDbEntity
  8
1
  6
CONTINUOUS
 62
           7
100
AcDbLine
 10
-188.318542661515
 20
176.5
 11
-188.318542661515
 21
178.0
  0
LINE
  5
1DF
100
AcDbEntity
  8
1
  6
CONTINUOUS
 62
           7
100
AcDbLine
 10
-188.318542661515
 20
176.5
 11
-193.168542661512
 21
176.5
  0
LINE
  5
1DE
100
AcDbEntity
  8
1
  6
CONTINUOUS
 62
           7
100
AcDbLine
 10
-171.318542498917
 20
174.5
 11
-171.318542498918
 21
197.0
  0
LINE
  5
1DD
100
AcDbEntity
  8
1
  6
CONTINUOUS
 62
           7
100
AcDbLine
 10
-171.318542498917
 20
174.5
 11
-171.818542498917
 21
175.0
  0
LINE
  5
1DC
100
AcDbEntity
  8
1
  6
CONTINUOUS
 62
           7
100
AcDbLine
 10
-171.318542498918
 20
197.0
 11
-171.318542498917
 21
197.5
  0
LINE
  5
1DB
100
AcDbEntity
  8
1
  6
CONTINUOUS
 62
           7
100
AcDbLine
 10
-171.318542498916
 20
164.352155994152
 11
-171.318542498917
 21
174.5
  0
LINE
  5
1DA
100
AcDbEntity
  8
1
  6
CONTINUOUS
 62
           7
100
AcDbLine
 10
-171.318542498917
 20
197.5
 11
-171.818542498916
 21
197.0
  0
LINE
  5
1D9
100
AcDbEntity
  8
1
  6
CONTINUOUS
 62
           7
100
AcDbLine
 10
-175.318542498916
 20
213.041630560343
 11
-175.318542498916
 21
209.6
  0
LINE
  5
1D8
100
AcDbEntity
  8
1
  6
CONTINUOUS
 62
           7
100
AcDbLine
 10
-171.318542498916
 20
201.0
 11
-171.318542498917
 21
206.2
  0
LINE
  5
1D7
100
AcDbEntity
  8
1
  6
CONTINUOUS
 62
           7
100
AcDbLine
 10
-174.818542498922
 20
197.0
 11
-174.818542498917
 21
175.0
  0
LINE
  5
1D6
100
AcDbEntity
  8
1
  6
CONTINUOUS
 62
           7
100
AcDbLine
 10
-171.818542498917
 20
175.0
 11
-174.818542498917
 21
175.0
  0
LINE
  5
1D5
100
AcDbEntity
  8
1
  6
CONTINUOUS
 62
           7
100
AcDbLine
 10
-171.818542498916
 20
197.0
 11
-174.818542498922
 21
197.0
  0
LINE
  5
1D4
100
AcDbEntity
  8
1
  6
CONTINUOUS
 62
           7
100
AcDbLine
 10
-171.318542498916
 20
211.0
 11
-171.318542498916
 21
213.041630560343
  0
LINE
  5
1D3
100
AcDbEntity
  8
1
  6
CONTINUOUS
 62
           7
100
AcDbLine
 10
-171.318542498916
 20
213.041630560343
 11
-175.318542498916
 21
213.041630560343
  0
LINE
  5
1D2
100
AcDbEntity
  8
1
  6
CONTINUOUS
 62
           7
100
AcDbLine
 10
-171.318542498917
 20
197.5
 11
-171.318542498916
 21
201.0
  0
LINE
  5
1D1
100
AcDbEntity
  8
1
  6
DASH_CENTER
 62
           3
100
AcDbLine
 10
-170.918542498917
 20
207.9
 11
-175.718542498916
 21
207.9
  0
LINE
  5
1D0
100
AcDbEntity
  8
1
  6
CONTINUOUS
 62
           7
100
AcDbLine
 10
-171.318542498917
 20
209.6
 11
-175.318542498916
 21
209.6
  0
LINE
  5
1CF
100
AcDbEntity
  8
1
  6
CONTINUOUS
 62
           7
100
AcDbLine
 10
-175.318542498916
 20
209.6
 11
-175.318542498916
 21
206.2
  0
LINE
  5
1CE
100
AcDbEntity
  8
1
  6
CONTINUOUS
 62
           7
100
AcDbLine
 10
-171.318542498917
 20
209.6
 11
-171.318542498916
 21
211.0
  0
LINE
  5
1CD
100
AcDbEntity
  8
1
  6
CONTINUOUS
 62
           7
100
AcDbLine
 10
-171.318542498917
 20
206.2
 11
-175.318542498916
 21
206.2
  0
LINE
  5
1CC
100
AcDbEntity
  8
1
  6
CONTINUOUS
 62
           7
100
AcDbLine
 10
-171.318542498917
 20
206.2
 11
-171.318542498917
 21
209.6
  0
LINE
  5
1CB
100
AcDbEntity
  8
1
  6
CONTINUOUS
 62
           7
100
AcDbLine
 10
-175.318542498916
 20
206.2
 11
-175.318542498916
 21
200.269979456196
  0
LINE
  5
1CA
100
AcDbEntity
  8
1
  6
DASHED
 62
           3
100
AcDbLine
 10
-76.838834764832
 20
197.667261889578
 11
-76.273149339883
 21
197.101576464629
  0
LINE
  5
1C9
100
AcDbEntity
  8
1
  6
DASHED
 62
           3
100
AcDbLine
 10
-76.485281374239
 20
198.020815280172
 11
-71.605779362085
 21
193.141313268018
  0
LINE
  5
1C8
100
AcDbEntity
  8
1
  6
DASHED
 62
           3
100
AcDbLine
 10
-80.020815280172
 20
194.485281374239
 11
-75.141313268018
 21
189.605779362085
  0
LINE
  5
1C7
100
AcDbEntity
  8
1
  6
DASH_CENTER
 62
           3
100
AcDbLine
 10
-52.023032169696
 20
170.023032169695
 11
-60.0998129945
 21
178.099812994499
  0
LINE
  5
1C6
100
AcDbEntity
  8
1
  6
DASH_CENTER
 62
           3
100
AcDbLine
 10
-83.976967830306
 20
170.023032169695
 11
-75.900187005502
 21
178.099812994499
  0
LINE
  5
1C5
100
AcDbEntity
  8
1
  6
DASH_CENTER
 62
           3
100
AcDbLine
 10
-48.298268969198
 20
194.160724195185
 11
-55.920275112416
 21
191.003585878174
  0
LINE
  5
1C4
100
AcDbEntity
  8
1
  6
DASH_CENTER
 62
           3
100
AcDbLine
 10
-48.298268969198
 20
177.839275804815
 11
-55.920275112416
 21
180.996414121827
  0
LINE
  5
1C3
100
AcDbEntity
  8
1
  6
DASH_CENTER
 62
           3
100
AcDbLine
 10
-59.839275804816
 20
166.298268969198
 11
-62.996414121828
 21
173.920275112416
  0
LINE
  5
1C2
100
AcDbEntity
  8
1
  6
DASH_CENTER
 62
           3
100
AcDbLine
 10
-76.160724195187
 20
166.298268969198
 11
-73.003585878174
 21
173.920275112416
  0
LINE
  5
1C1
100
AcDbEntity
  8
1
  6
DASH_CENTER
 62
           3
100
AcDbLine
 10
-87.701731030804
 20
177.839275804815
 11
-80.079724887585
 21
180.996414121826
  0
LINE
  5
1C0
100
AcDbEntity
  8
1
  6
DASH_CENTER
 62
           3
100
AcDbLine
 10
-87.701731030803
 20
194.160724195186
 11
-80.079724887585
 21
191.003585878174
  0
LINE
  5
1BF
100
AcDbEntity
  8
1
  6
DASH_CENTER
 62
           3
100
AcDbLine
 10
-76.160724195186
 20
205.701731030804
 11
-73.003585878174
 21
198.079724887585
  0
LINE
  5
1BE
100
AcDbEntity
  8
1
  6
DASH_CENTER
 62
           3
100
AcDbLine
 10
-59.839275804815
 20
205.701731030803
 11
-62.996414121827
 21
198.079724887585
  0
LINE
  5
1BD
100
AcDbEntity
  8
1
  6
DASHED
 62
           3
100
AcDbLine
 10
-79.667261889579
 20
194.838834764833
 11
-79.101576464629
 21
194.273149339883
  0
LINE
  5
1BC
100
AcDbEntity
  8
1
  6
DASHED
 62
           3
100
AcDbLine
 10
-55.979184719828
 20
194.485281374238
 11
-60.858686731983
 21
189.605779362085
  0
LINE
  5
1BB
100
AcDbEntity
  8
1
  6
DASHED
 62
           3
100
AcDbLine
 10
-56.332738110421
 20
194.838834764831
 11
-56.898423535371
 21
194.273149339881
  0
LINE
  5
1BA
100
AcDbEntity
  8
1
  6
DASHED
 62
           3
100
AcDbLine
 10
-59.161165235167
 20
197.667261889578
 11
-59.726850660117
 21
197.101576464628
  0
LINE
  5
1B9
100
AcDbEntity
  8
1
  6
DASHED
 62
           3
100
AcDbLine
 10
-59.51471862576
 20
198.02081528017
 11
-64.394220637916
 21
193.141313268018
  0
LINE
  5
1B8
100
AcDbEntity
  8
1
  6
DASHED
 62
           3
100
AcDbLine
 10
-81.012125097831
 20
193.49397155658
 11
-75.493971556581
 21
199.01212509783
  0
LINE
  5
1B7
100
AcDbEntity
  8
1
  6
DASHED
 62
           3
100
AcDbLine
 10
-60.506028443419
 20
199.01212509783
 11
-54.98787490217
 21
193.493971556579
  0
LINE
  5
1B6
100
AcDbEntity
  8
1
  6
DASHED
 62
           3
100
AcDbLine
 10
-60.506028443419
 20
199.01212509783
 11
-54.98787490217
 21
193.493971556579
  0
LINE
  5
1B5
100
AcDbEntity
  8
1
  6
DASHED
 62
           3
100
AcDbLine
 10
-61.423906934965
 20
195.40452018978
 11
-63.936987987322
 21
192.891439137425
  0
LINE
  5
1B4
100
AcDbEntity
  8
1
  6
DASHED
 62
           3
100
AcDbLine
 10
-58.595479810218
 20
192.576093065035
 11
-61.108560862576
 21
190.063012012679
  0
LINE
  5
1B3
100
AcDbEntity
  8
1
  6
DASHED
 62
           3
100
AcDbLine
 10
-74.576093065035
 20
195.404520189781
 11
-72.063012012679
 21
192.891439137425
  0
LINE
  5
1B2
100
AcDbEntity
  8
1
  6
DASHED
 62
           3
100
AcDbLine
 10
-77.404520189782
 20
192.576093065035
 11
-74.891439137425
 21
190.063012012679
  0
LINE
  5
1B1
100
AcDbEntity
  8
1
  6
DASH_CENTER
 62
           3
100
AcDbLine
 10
-82.942642822686
 20
200.942642822686
 11
-79.036985132334
 21
197.036985132333
  0
LINE
  5
1B0
100
AcDbEntity
  8
1
  6
DASH_CENTER
 62
           3
100
AcDbLine
 10
-92.617048125753
 20
186.0
 11
-65.0
 21
186.0
  0
LINE
  5
1AF
100
AcDbEntity
  8
1
  6
DASH_CENTER
 62
           3
100
AcDbLine
 10
-68.0
 20
160.991875352539
 11
-68.0
 21
210.008124647461
  0
LINE
  5
1AE
100
AcDbEntity
  8
1
  6
CONTINUOUS
 62
           7
100
AcDbLine
 10
-51.0
 20
206.0
 11
-85.000000000001
 21
206.0
  0
LINE
  5
1AD
100
AcDbEntity
  8
1
  6
CONTINUOUS
 62
           7
100
AcDbLine
 10
-88.0
 20
203.000000000001
 11
-88.000000000001
 21
169.0
  0
LINE
  5
1AC
100
AcDbEntity
  8
1
  6
CONTINUOUS
 62
           7
100
AcDbLine
 10
-85.000000000001
 20
166.0
 11
-51.000000000001
 21
166.0
  0
LINE
  5
1AB
100
AcDbEntity
  8
1
  6
CONTINUOUS
 62
           7
100
AcDbLine
 10
-48.0
 20
203.0
 11
-48.000000000001
 21
169.0
  0
LINE
  5
1AA
100
AcDbEntity
  8
1
  6
DASH_CENTER
 62
           3
100
AcDbLine
 10
-49.61522368915
 20
167.61522368915
 11
-54.317483784041
 21
172.31748378404
  0
LINE
  5
1A9
100
AcDbEntity
  8
1
  6
DASH_CENTER
 62
           3
100
AcDbLine
 10
-50.71123919999
 20
203.288760800011
 11
-54.317483784041
 21
199.68251621596
  0
LINE
  5
1A8
100
AcDbEntity
  8
1
  6
DASH_CENTER
 62
           3
100
AcDbLine
 10
-85.288760800012
 20
203.288760800011
 11
-81.68251621596
 21
199.68251621596
  0
LINE
  5
1A7
100
AcDbEntity
  8
1
  6
DASH_CENTER
 62
           3
100
AcDbLine
 10
-85.288760800011
 20
168.711239199989
 11
-81.68251621596
 21
172.31748378404
  0
LINE
  5
1A6
100
AcDbEntity
  8
1
  6
DASH_CENTER
 62
           3
100
AcDbLine
 10
-251.015228319116
 20
186.0
 11
-167.828272147428
 21
186.0
  0
LINE
  5
1A5
100
AcDbEntity
  8
1
  6
CONTINUOUS
 62
           7
100
AcDbLine
 10
-182.81854271572
 20
192.0
 11
-179.318542607316
 21
192.0
  0
LINE
  5
1A4
100
AcDbEntity
  8
1
  6
CONTINUOUS
 62
           7
100
AcDbLine
 10
-195.662243664006
 20
205.5
 11
-192.118542715714
 21
205.5
  0
LINE
  5
1A3
100
AcDbEntity
  8
1
  6
CONTINUOUS
 62
           7
100
AcDbLine
 10
-192.118542715714
 20
204.65
 11
-192.118542715714
 21
205.5
  0
LINE
  5
1A2
100
AcDbEntity
  8
1
  6
CONTINUOUS
 62
           7
100
AcDbLine
 10
-192.118542715714
 20
200.5
 11
-192.118542715714
 21
204.75
  0
LINE
  5
1A1
100
AcDbEntity
  8
1
  6
CONTINUOUS
 62
           7
100
AcDbLine
 10
-192.118542715714
 20
200.5
 11
-175.318542603962
 21
200.269979456196
  0
LINE
  5
1A0
100
AcDbEntity
  8
1
  6
CONTINUOUS
 62
           7
100
AcDbLine
 10
-174.818542498917
 20
194.0
 11
-181.818542553115
 21
194.0
  0
LINE
  5
19F
100
AcDbEntity
  8
1
  6
CONTINUOUS
 62
           7
100
AcDbLine
 10
-182.318542553115
 20
194.0
 11
-186.318542553115
 21
194.0
  0
LINE
  5
19E
100
AcDbEntity
  8
1
  6
CONTINUOUS
 62
           7
100
AcDbLine
 10
-181.818542553115
 20
194.0
 11
-182.318542553115
 21
194.0
  0
LINE
  5
19D
100
AcDbEntity
  8
1
  6
CONTINUOUS
 62
           7
100
AcDbLine
 10
-186.818542553115
 20
194.0
 11
-188.318542661515
 21
194.0
  0
LINE
  5
19C
100
AcDbEntity
  8
1
  6
CONTINUOUS
 62
           7
100
AcDbLine
 10
-186.318542553115
 20
194.0
 11
-186.818542553115
 21
194.0
  0
LINE
  5
19B
100
AcDbEntity
  8
1
  6
CONTINUOUS
 62
           7
100
AcDbLine
 10
-186.318542553115
 20
197.221999835773
 11
-186.318542553115
 21
194.0
  0
LINE
  5
19A
100
AcDbEntity
  8
1
  6
CONTINUOUS
 62
           3
100
AcDbLine
 10
-186.818542553115
 20
200.446999998374
 11
-186.818542553115
 21
194.0
  0
LINE
  5
199
100
AcDbEntity
  8
1
  6
CONTINUOUS
 62
           7
100
AcDbLine
 10
-182.318542553115
 20
197.222000160974
 11
-182.318542553115
 21
194.0
  0
LINE
  5
198
100
AcDbEntity
  8
1
  6
CONTINUOUS
 62
           3
100
AcDbLine
 10
-181.818542553115
 20
200.396999998374
 11
-181.818542553115
 21
194.0
  0
LINE
  5
197
100
AcDbEntity
  8
1
  6
CONTINUOUS
 62
           7
100
AcDbLine
 10
-188.318542661515
 20
178.0
 11
-174.818542607315
 21
178.000000000001
  0
LINE
  5
196
100
AcDbEntity
  8
1
  6
CONTINUOUS
 62
           7
100
AcDbLine
 10
-188.318542661515
 20
176.5
 11
-188.318542661515
 21
178.0
  0
LINE
  5
195
100
AcDbEntity
  8
1
  6
CONTINUOUS
 62
           7
100
AcDbLine
 10
-175.31854254596
 20
171.730020543804
 11
-192.118542715713
 21
171.5
  0
LINE
  5
194
100
AcDbEntity
  8
1
  6
CONTINUOUS
 62
           7
100
AcDbLine
 10
-175.318542603962
 20
171.730020543804
 11
-175.318542498917
 21
164.352155994152
  0
LINE
  5
193
100
AcDbEntity
  8
1
  6
DASH_CENTER
 62
           3
100
AcDbLine
 10
-176.618542616442
 20
168.8
 11
-170.518542489588
 21
168.8
  0
LINE
  5
192
100
AcDbEntity
  8
1
  6
CONTINUOUS
 62
           7
100
AcDbLine
 10
-175.31854254596
 20
171.3
 11
-171.318542498917
 21
171.3
  0
LINE
  5
191
100
AcDbEntity
  8
1
  6
CONTINUOUS
 62
           7
100
AcDbLine
 10
-175.318542545558
 20
166.3
 11
-171.318542498917
 21
166.3
  0
LINE
  5
190
100
AcDbEntity
  8
1
  6
CONTINUOUS
 62
           7
100
AcDbLine
 10
-171.318542498916
 20
164.352155994152
 11
-175.318542498917
 21
164.352155994152
  0
LINE
  5
18F
100
AcDbEntity
  8
1
  6
CONTINUOUS
 62
           7
100
AcDbLine
 10
-192.118542715714
 20
166.5
 11
-199.518542715714
 21
166.5
  0
LINE
  5
18E
100
AcDbEntity
  8
1
  6
CONTINUOUS
 62
           7
100
AcDbLine
 10
-199.818542715714
 20
166.8
 11
-199.518542715714
 21
166.5
  0
LINE
  5
18D
100
AcDbEntity
  8
1
  6
CONTINUOUS
 62
           7
100
AcDbLine
 10
-192.118542715714
 20
166.5
 11
-192.118542715713
 21
171.5
  0
LINE
  5
18C
100
AcDbEntity
  8
1
  6
CONTINUOUS
 62
           7
100
AcDbLine
 10
-192.118542715714
 20
171.3
 11
-195.435631765291
 21
171.3
  0
LINE
  5
18B
100
AcDbEntity
  8
1
  6
CONTINUOUS
 62
           3
100
AcDbLine
 10
-188.318542661515
 20
177.5
 11
-188.318542661515
 21
178.0
  0
LINE
  5
18A
100
AcDbEntity
  8
1
  6
DASH_CENTER
 62
           3
100
AcDbLine
 10
-191.118542715714
 20
168.8
 11
-195.621507813695
 21
168.8
  0
LINE
  5
189
100
AcDbEntity
  8
1
  6
DASHED
 62
           3
100
AcDbLine
 10
-71.923983532899
 20
200.5
 11
-64.076016467103
 21
200.5
  0
LINE
  5
188
100
AcDbEntity
  8
1
  6
DASHED
 62
           3
100
AcDbLine
 10
-60.521627038172
 20
199.027723692582
 11
-54.98787490217
 21
193.493971556579
  0
LINE
  5
187
100
AcDbEntity
  8
1
  6
DASHED
 62
           3
100
AcDbLine
 10
-53.5
 20
189.923983532898
 11
-53.500000000001
 21
182.098076211352
  0
LINE
  5
186
100
AcDbEntity
  8
1
  6
DASHED
 62
           3
100
AcDbLine
 10
-54.972276307419
 20
178.521627038171
 11
-60.506028443422
 21
172.987874902169
  0
LINE
  5
185
100
AcDbEntity
  8
1
  6
DASHED
 62
           3
100
AcDbLine
 10
-64.076016467103
 20
171.499999999999
 11
-71.901923788648
 21
171.5
  0
LINE
  5
184
100
AcDbEntity
  8
1
  6
DASHED
 62
           3
100
AcDbLine
 10
-75.478372961829
 20
172.972276307418
 11
-81.012125097831
 21
178.506028443421
  0
LINE
  5
183
100
AcDbEntity
  8
1
  6
DASHED
 62
           3
100
AcDbLine
 10
-82.500000000001
 20
182.076016467102
 11
-82.5
 21
189.901923788648
  0
LINE
  5
182
100
AcDbEntity
  8
1
  6
DASHED
 62
           3
100
AcDbLine
 10
-81.027723692582
 20
193.478372961829
 11
-75.49397155658
 21
199.012125097831
  0
LINE
  5
181
100
AcDbEntity
  8
1
  6
DASHED
 62
           3
100
AcDbLine
 10
-63.727543794599
 20
202.847436540107
 11
-63.357909054234
 21
203.739813743421
  0
LINE
  5
180
100
AcDbEntity
  8
1
  6
DASHED
 62
           3
100
AcDbLine
 10
-58.738511391677
 20
201.826396581596
 11
-59.108146132042
 21
200.934019378281
  0
LINE
  5
17F
100
AcDbEntity
  8
1
  6
DASHED
 62
           3
100
AcDbLine
 10
-53.06598062172
 20
194.891853867959
 11
-52.173603418406
 21
195.261488608324
  0
LINE
  5
17E
100
AcDbEntity
  8
1
  6
DASHED
 62
           3
100
AcDbLine
 10
-50.260186256581
 20
190.642090945767
 11
-51.152563459895
 21
190.272456205402
  0
LINE
  5
17D
100
AcDbEntity
  8
1
  6
DASHED
 62
           3
100
AcDbLine
 10
-84.847436540108
 20
190.272456205402
 11
-85.739813743422
 21
190.642090945767
  0
LINE
  5
17C
100
AcDbEntity
  8
1
  6
DASHED
 62
           3
100
AcDbLine
 10
-72.272456205402
 20
169.152563459893
 11
-72.642090945768
 21
168.260186256579
  0
LINE
  5
17B
100
AcDbEntity
  8
1
  6
DASHED
 62
           3
100
AcDbLine
 10
-51.152563459895
 20
181.727543794598
 11
-50.260186256579
 21
181.357909054233
  0
LINE
  5
17A
100
AcDbEntity
  8
1
  6
DASHED
 62
           3
100
AcDbLine
 10
-83.826396581597
 20
195.261488608323
 11
-82.934019378282
 21
194.891853867959
  0
LINE
  5
179
100
AcDbEntity
  8
1
  6
DASHED
 62
           3
100
AcDbLine
 10
-77.261488608325
 20
170.173603418405
 11
-76.891853867959
 21
171.065980621719
  0
LINE
  5
178
100
AcDbEntity
  8
1
  6
DASHED
 62
           3
100
AcDbLine
 10
-52.173603418405
 20
176.738511391676
 11
-53.065980621719
 21
177.108146132042
  0
LINE
  5
177
100
AcDbEntity
  8
1
  6
DASHED
 62
           3
100
AcDbLine
 10
-76.891853867959
 20
200.934019378281
 11
-77.261488608325
 21
201.826396581595
  0
LINE
  5
176
100
AcDbEntity
  8
1
  6
DASHED
 62
           3
100
AcDbLine
 10
-82.934019378281
 20
177.108146132042
 11
-83.826396581596
 21
176.738511391676
  0
LINE
  5
175
100
AcDbEntity
  8
1
  6
DASHED
 62
           3
100
AcDbLine
 10
-59.108146132042
 20
171.065980621719
 11
-58.738511391677
 21
170.173603418405
  0
LINE
  5
174
100
AcDbEntity
  8
1
  6
DASHED
 62
           3
100
AcDbLine
 10
-72.642090945768
 20
203.73981374342
 11
-72.272456205402
 21
202.847436540106
  0
LINE
  5
173
100
AcDbEntity
  8
1
  6
DASHED
 62
           3
100
AcDbLine
 10
-85.739813743421
 20
181.357909054233
 11
-84.847436540106
 21
181.727543794599
  0
LINE
  5
172
100
AcDbEntity
  8
1
  6
DASHED
 62
           3
100
AcDbLine
 10
-63.357909054234
 20
168.26018625658
 11
-63.727543794599
 21
169.152563459894
  0
LINE
  5
171
100
AcDbEntity
  8
1
  6
CONTINUOUS
 62
           7
100
AcDbLine
 10
-185.81854271572
 20
192.0
 11
-182.81854271572
 21
192.0
  0
LINE
  5
170
100
AcDbEntity
  8
1
  6
CONTINUOUS
 62
           7
100
AcDbLine
 10
-183.11854271572
 20
192.0
 11
-183.11854271572
 21
191.891825575273
  0
LINE
  5
16F
100
AcDbEntity
  8
1
  6
CONTINUOUS
 62
           7
100
AcDbLine
 10
-185.51854271572
 20
192.0
 11
-185.51854271572
 21
191.891825575273
  0
LINE
  5
16E
100
AcDbEntity
  8
1
  6
DASHED
 62
           3
100
AcDbLine
 10
-73.168579353069
 20
189.047259009509
 11
-70.897777478868
 21
186.776457135308
  0
LINE
  5
16D
100
AcDbEntity
  8
1
  6
DASHED
 62
           3
100
AcDbLine
 10
-71.04725900951
 20
191.168579353069
 11
-68.776457135309
 21
188.897777478868
  0
LINE
  5
16C
100
AcDbEntity
  8
1
  6
DASHED
 62
           3
100
AcDbLine
 10
-64.952740990492
 20
191.168579353069
 11
-67.223542864692
 21
188.897777478868
  0
LINE
  5
16B
100
AcDbEntity
  8
1
  6
DASHED
 62
           3
100
AcDbLine
 10
-62.831420646932
 20
189.047259009509
 11
-65.102222521133
 21
186.776457135308
  0
LINE
  5
16A
100
AcDbEntity
  8
1
  6
DASHED
 62
           7
100
AcDbLine
 10
-72.815025962476
 20
188.693705618916
 11
-71.464823227815
 21
187.343502884255
  0
LINE
  5
169
100
AcDbEntity
  8
1
  6
CONTINUOUS
 62
           3
100
AcDbLine
 10
-72.594995419448
 20
189.039360500837
 11
-73.020458146426
 21
189.464823227815
  0
LINE
  5
168
100
AcDbEntity
  8
1
  6
CONTINUOUS
 62
           3
100
AcDbLine
 10
-71.039360500837
 20
190.594995419447
 11
-71.464823227815
 21
191.020458146425
  0
LINE
  5
167
100
AcDbEntity
  8
1
  6
CONTINUOUS
 62
           7
100
AcDbLine
 10
-70.693705618917
 20
190.815025962476
 11
-70.899137802866
 21
191.020458146425
  0
LINE
  5
166
100
AcDbEntity
  8
1
  6
CONTINUOUS
 62
           7
100
AcDbLine
 10
-63.184974037525
 20
188.693705618917
 11
-62.979541853576
 21
188.899137802866
  0
LINE
  5
165
100
AcDbEntity
  8
1
  6
CONTINUOUS
 62
           3
100
AcDbLine
 10
-63.405004580554
 20
189.039360500837
 11
-62.979541853576
 21
189.464823227815
  0
LINE
  5
164
100
AcDbEntity
  8
1
  6
CONTINUOUS
 62
           3
100
AcDbLine
 10
-64.960639499164
 20
190.594995419447
 11
-64.535176772186
 21
191.020458146425
  0
LINE
  5
163
100
AcDbEntity
  8
1
  6
DASHED
 62
           7
100
AcDbLine
 10
-65.306294381084
 20
190.815025962476
 11
-66.656497115746
 21
189.464823227815
  0
LINE
  5
162
100
AcDbEntity
  8
1
  6
DASHED
 62
           7
100
AcDbLine
 10
-69.343502884256
 20
188.899137802866
 11
-69.343502884256
 21
189.464823227815
  0
LINE
  5
161
100
AcDbEntity
  8
1
  6
DASHED
 62
           7
100
AcDbLine
 10
-71.464823227815
 20
187.343502884255
 11
-70.899137802866
 21
187.343502884255
  0
LINE
  5
160
100
AcDbEntity
  8
1
  6
DASHED
 62
           7
100
AcDbLine
 10
-71.464823227815
 20
187.343502884255
 11
-69.343502884256
 21
189.464823227815
  0
LINE
  5
15F
100
AcDbEntity
  8
1
  6
DASHED
 62
           7
100
AcDbLine
 10
-70.899137802866
 20
187.343502884255
 11
-69.343502884256
 21
188.899137802866
  0
LINE
  5
15E
100
AcDbEntity
  8
1
  6
CONTINUOUS
 62
           7
100
AcDbLine
 10
-70.899137802866
 20
191.020458146425
 11
-73.020458146426
 21
188.899137802866
  0
LINE
  5
15D
100
AcDbEntity
  8
1
  6
CONTINUOUS
 62
           7
100
AcDbLine
 10
-73.020458146426
 20
188.899137802866
 11
-72.815025962476
 21
188.693705618916
  0
LINE
  5
15C
100
AcDbEntity
  8
1
  6
DASHED
 62
           7
100
AcDbLine
 10
-69.343502884256
 20
189.464823227815
 11
-70.693705618917
 21
190.815025962476
  0
LINE
  5
15B
100
AcDbEntity
  8
1
  6
CONTINUOUS
 62
           7
100
AcDbLine
 10
-73.020458146426
 20
189.464823227815
 11
-73.020458146426
 21
188.899137802866
  0
LINE
  5
15A
100
AcDbEntity
  8
1
  6
CONTINUOUS
 62
           7
100
AcDbLine
 10
-71.464823227815
 20
191.020458146425
 11
-73.020458146426
 21
189.464823227815
  0
LINE
  5
159
100
AcDbEntity
  8
1
  6
CONTINUOUS
 62
           7
100
AcDbLine
 10
-70.899137802866
 20
191.020458146425
 11
-71.464823227815
 21
191.020458146425
  0
LINE
  5
158
100
AcDbEntity
  8
1
  6
DASHED
 62
           3
100
AcDbLine
 10
-69.343502884256
 20
188.899137802866
 11
-71.039360500837
 21
190.594995419447
  0
LINE
  5
157
100
AcDbEntity
  8
1
  6
DASHED
 62
           3
100
AcDbLine
 10
-70.899137802866
 20
187.343502884255
 11
-72.594995419448
 21
189.039360500837
  0
LINE
  5
156
100
AcDbEntity
  8
1
  6
DASHED
 62
           7
100
AcDbLine
 10
-65.100862197135
 20
187.343502884255
 11
-64.535176772186
 21
187.343502884255
  0
LINE
  5
155
100
AcDbEntity
  8
1
  6
DASHED
 62
           7
100
AcDbLine
 10
-66.656497115746
 20
189.464823227815
 11
-66.656497115746
 21
188.899137802866
  0
LINE
  5
154
100
AcDbEntity
  8
1
  6
DASHED
 62
           7
100
AcDbLine
 10
-66.656497115746
 20
189.464823227815
 11
-64.535176772186
 21
187.343502884255
  0
LINE
  5
153
100
AcDbEntity
  8
1
  6
DASHED
 62
           7
100
AcDbLine
 10
-66.656497115746
 20
188.899137802866
 11
-65.100862197135
 21
187.343502884255
  0
LINE
  5
152
100
AcDbEntity
  8
1
  6
CONTINUOUS
 62
           7
100
AcDbLine
 10
-62.979541853576
 20
188.899137802866
 11
-65.100862197135
 21
191.020458146425
  0
LINE
  5
151
100
AcDbEntity
  8
1
  6
CONTINUOUS
 62
           7
100
AcDbLine
 10
-65.100862197135
 20
191.020458146425
 11
-65.306294381084
 21
190.815025962476
  0
LINE
  5
150
100
AcDbEntity
  8
1
  6
DASHED
 62
           7
100
AcDbLine
 10
-64.535176772186
 20
187.343502884255
 11
-63.184974037525
 21
188.693705618917
  0
LINE
  5
14F
100
AcDbEntity
  8
1
  6
CONTINUOUS
 62
           7
100
AcDbLine
 10
-64.535176772186
 20
191.020458146425
 11
-65.100862197135
 21
191.020458146425
  0
LINE
  5
14E
100
AcDbEntity
  8
1
  6
CONTINUOUS
 62
           7
100
AcDbLine
 10
-62.979541853576
 20
189.464823227815
 11
-64.535176772186
 21
191.020458146425
  0
LINE
  5
14D
100
AcDbEntity
  8
1
  6
CONTINUOUS
 62
           7
100
AcDbLine
 10
-62.979541853576
 20
188.899137802866
 11
-62.979541853576
 21
189.464823227815
  0
LINE
  5
14C
100
AcDbEntity
  8
1
  6
DASHED
 62
           3
100
AcDbLine
 10
-65.100862197135
 20
187.343502884255
 11
-63.405004580554
 21
189.039360500837
  0
LINE
  5
14B
100
AcDbEntity
  8
1
  6
DASHED
 62
           3
100
AcDbLine
 10
-66.656497115746
 20
188.899137802866
 11
-64.960639499164
 21
190.594995419447
  0
LINE
  5
14A
100
AcDbEntity
  8
1
  6
DASHED
 62
           3
100
AcDbLine
 10
-76.980256121069
 20
192.576093065034
 11
-74.576093065034
 21
194.980256121068
  0
LINE
  5
149
100
AcDbEntity
  8
1
  6
DASHED
 62
           3
100
AcDbLine
 10
-77.050966799187
 20
197.455129855221
 11
-75.424621202457
 21
199.081475451951
  0
LINE
  5
148
100
AcDbEntity
  8
1
  6
DASHED
 62
           3
100
AcDbLine
 10
-79.455129855221
 20
195.050966799188
 11
-77.050966799187
 21
197.455129855221
  0
LINE
  5
147
100
AcDbEntity
  8
1
  6
DASHED
 62
           3
100
AcDbLine
 10
-81.08147545195
 20
193.424621202459
 11
-79.674332957389
 21
194.831763697021
  0
LINE
  5
146
100
AcDbEntity
  8
1
  6
DASHED
 62
           3
100
AcDbLine
 10
-83.248556067997
 20
195.591701818507
 11
-81.435028842543
 21
193.778174593053
  0
LINE
  5
145
100
AcDbEntity
  8
1
  6
DASHED
 62
           3
100
AcDbLine
 10
-75.424621202457
 20
199.081475451951
 11
-75.778174593051
 21
199.435028842545
  0
LINE
  5
144
100
AcDbEntity
  8
1
  6
DASHED
 62
           3
100
AcDbLine
 10
-78.786712278709
 20
200.053545607793
 11
-76.973185053256
 21
198.240018382339
  0
LINE
  5
143
100
AcDbEntity
  8
1
  6
DASHED
 62
           3
100
AcDbLine
 10
-82.053545607791
 20
196.786712278712
 11
-80.240018382338
 21
194.973185053258
  0
LINE
  5
142
100
AcDbEntity
  8
1
  6
DASHED
 62
           3
100
AcDbLine
 10
-79.674332957389
 20
194.831763697021
 11
-79.455129855221
 21
195.050966799188
  0
LINE
  5
141
100
AcDbEntity
  8
1
  6
DASHED
 62
           3
100
AcDbLine
 10
-79.674332957389
 20
194.831763697021
 11
-75.424621202457
 21
199.081475451951
  0
LINE
  5
140
100
AcDbEntity
  8
1
  6
DASHED
 62
           3
100
AcDbLine
 10
-79.674332957389
 20
194.831763697021
 11
-81.08147545195
 21
193.424621202459
  0
LINE
  5
13F
100
AcDbEntity
  8
1
  6
DASHED
 62
           3
100
AcDbLine
 10
-78.463533812355
 20
200.992310310359
 11
-80.374368670763
 21
199.081475451951
  0
LINE
  5
13E
100
AcDbEntity
  8
1
  6
DASHED
 62
           3
100
AcDbLine
 10
-76.697413408594
 20
197.101576464629
 11
-74.576093065034
 21
194.980256121068
  0
LINE
  5
13D
100
AcDbEntity
  8
1
  6
DASHED
 62
           3
100
AcDbLine
 10
-79.101576464627
 20
194.697413408595
 11
-76.980256121069
 21
192.576093065034
  0
LINE
  5
13C
100
AcDbEntity
  8
1
  6
DASHED
 62
           3
100
AcDbLine
 10
-81.08147545195
 20
193.424621202459
 11
-79.674332957389
 21
194.831763697021
  0
LINE
  5
13B
100
AcDbEntity
  8
1
  6
DASHED
 62
           3
100
AcDbLine
 10
-78.111626970967
 20
192.576093065034
 11
-76.980256121069
 21
192.576093065034
  0
LINE
  5
13A
100
AcDbEntity
  8
1
  6
DASHED
 62
           3
100
AcDbLine
 10
-74.576093065034
 20
194.980256121068
 11
-74.576093065034
 21
196.111626970967
  0
LINE
  5
139
100
AcDbEntity
  8
1
  6
DASHED
 62
           3
100
AcDbLine
 10
-74.576093065034
 20
196.111626970967
 11
-75.566042558696
 21
197.101576464629
  0
LINE
  5
138
100
AcDbEntity
  8
1
  6
DASHED
 62
           3
100
AcDbLine
 10
-78.111626970967
 20
192.576093065034
 11
-74.576093065034
 21
196.111626970967
  0
LINE
  5
137
100
AcDbEntity
  8
1
  6
DASHED
 62
           3
100
AcDbLine
 10
-81.435028842543
 20
193.778174593053
 11
-75.778174593051
 21
199.435028842545
  0
LINE
  5
136
100
AcDbEntity
  8
1
  6
DASHED
 62
           3
100
AcDbLine
 10
-81.435028842543
 20
193.778174593053
 11
-81.08147545195
 21
193.424621202459
  0
LINE
  5
135
100
AcDbEntity
  8
1
  6
DASHED
 62
           3
100
AcDbLine
 10
-75.778174593051
 20
199.435028842545
 11
-77.591701818503
 21
201.248556067998
  0
LINE
  5
134
100
AcDbEntity
  8
1
  6
DASHED
 62
           3
100
AcDbLine
 10
-81.08147545195
 20
198.374368670765
 11
-80.02081528017
 21
197.313708498985
  0
LINE
  5
133
100
AcDbEntity
  8
1
  6
DASHED
 62
           3
100
AcDbLine
 10
-81.08147545195
 20
198.374368670765
 11
-82.992310310346
 21
196.463533812369
  0
LINE
  5
132
100
AcDbEntity
  8
1
  6
DASHED
 62
           3
100
AcDbLine
 10
-80.374368670763
 20
199.081475451951
 11
-79.313708498983
 21
198.020815280171
  0
LINE
  5
131
100
AcDbEntity
  8
1
  6
DASHED
 62
           3
100
AcDbLine
 10
-80.02081528017
 20
197.313708498985
 11
-79.313708498983
 21
198.020815280171
  0
LINE
  5
130
100
AcDbEntity
  8
1
  6
DASHED
 62
           3
100
AcDbLine
 10
-79.313708498983
 20
194.909545442951
 11
-79.101576464627
 21
194.697413408595
  0
LINE
  5
12F
100
AcDbEntity
  8
1
  6
DASHED
 62
           3
100
AcDbLine
 10
-76.90954544295
 20
197.313708498984
 11
-76.697413408594
 21
197.101576464629
  0
LINE
  5
12E
100
AcDbEntity
  8
1
  6
DASHED
 62
           3
100
AcDbLine
 10
-79.101576464627
 20
194.697413408595
 11
-76.697413408594
 21
197.101576464629
  0
LINE
  5
12D
100
AcDbEntity
  8
1
  6
DASHED
 62
           3
100
AcDbLine
 10
-75.566042558696
 20
197.101576464629
 11
-76.697413408594
 21
197.101576464629
  0
LINE
  5
12C
100
AcDbEntity
  8
1
  6
DASHED
 62
           3
100
AcDbLine
 10
-79.101576464627
 20
194.697413408595
 11
-79.101576464628
 21
193.566042558695
  0
LINE
  5
12B
100
AcDbEntity
  8
1
  6
DASHED
 62
           3
100
AcDbLine
 10
-79.101576464628
 20
193.566042558695
 11
-75.566042558696
 21
197.101576464629
  0
LINE
  5
12A
100
AcDbEntity
  8
1
  6
DASHED
 62
           3
100
AcDbLine
 10
-79.101576464628
 20
193.566042558695
 11
-78.111626970967
 21
192.576093065034
  0
LINE
  5
129
100
AcDbEntity
  8
1
  6
DASHED
 62
           3
100
AcDbLine
 10
-60.433957441303
 20
197.101576464628
 11
-61.423906934964
 21
196.111626970967
  0
LINE
  5
128
100
AcDbEntity
  8
1
  6
DASHED
 62
           3
100
AcDbLine
 10
-60.433957441303
 20
197.101576464628
 11
-56.89842353537
 21
193.566042558695
  0
LINE
  5
127
100
AcDbEntity
  8
1
  6
DASHED
 62
           3
100
AcDbLine
 10
-59.302586591404
 20
197.101576464627
 11
-60.433957441303
 21
197.101576464628
  0
LINE
  5
126
100
AcDbEntity
  8
1
  6
DASHED
 62
           3
100
AcDbLine
 10
-56.89842353537
 20
193.566042558695
 11
-56.89842353537
 21
194.697413408593
  0
LINE
  5
125
100
AcDbEntity
  8
1
  6
DASHED
 62
           3
100
AcDbLine
 10
-59.302586591404
 20
197.101576464627
 11
-56.89842353537
 21
194.697413408593
  0
LINE
  5
124
100
AcDbEntity
  8
1
  6
DASHED
 62
           3
100
AcDbLine
 10
-56.686291501014
 20
194.90954544295
 11
-56.89842353537
 21
194.697413408593
  0
LINE
  5
123
100
AcDbEntity
  8
1
  6
DASHED
 62
           3
100
AcDbLine
 10
-59.090454557048
 20
197.313708498983
 11
-59.302586591404
 21
197.101576464627
  0
LINE
  5
122
100
AcDbEntity
  8
1
  6
DASHED
 62
           3
100
AcDbLine
 10
-56.686291501014
 20
198.020815280169
 11
-55.979184719827
 21
197.313708498983
  0
LINE
  5
121
100
AcDbEntity
  8
1
  6
DASHED
 62
           3
100
AcDbLine
 10
-54.918524548048
 20
198.374368670763
 11
-55.979184719827
 21
197.313708498983
  0
LINE
  5
120
100
AcDbEntity
  8
1
  6
DASHED
 62
           3
100
AcDbLine
 10
-55.625631329234
 20
199.081475451949
 11
-57.53646618763
 21
200.992310310345
  0
LINE
  5
11F
100
AcDbEntity
  8
1
  6
DASHED
 62
           3
100
AcDbLine
 10
-55.625631329234
 20
199.081475451949
 11
-56.686291501014
 21
198.020815280169
  0
LINE
  5
11E
100
AcDbEntity
  8
1
  6
DASHED
 62
           3
100
AcDbLine
 10
-54.564971157454
 20
193.778174593051
 11
-52.751443932001
 21
195.591701818503
  0
LINE
  5
11D
100
AcDbEntity
  8
1
  6
DASHED
 62
           3
100
AcDbLine
 10
-60.221825406946
 20
199.435028842543
 11
-60.575378797539
 21
199.08147545195
  0
LINE
  5
11C
100
AcDbEntity
  8
1
  6
DASHED
 62
           3
100
AcDbLine
 10
-60.221825406946
 20
199.435028842543
 11
-54.564971157454
 21
193.778174593051
  0
LINE
  5
11B
100
AcDbEntity
  8
1
  6
DASHED
 62
           3
100
AcDbLine
 10
-61.423906934964
 20
196.111626970967
 11
-57.888373029032
 21
192.576093065033
  0
LINE
  5
11A
100
AcDbEntity
  8
1
  6
DASHED
 62
           3
100
AcDbLine
 10
-57.888373029032
 20
192.576093065033
 11
-56.89842353537
 21
193.566042558695
  0
LINE
  5
119
100
AcDbEntity
  8
1
  6
DASHED
 62
           3
100
AcDbLine
 10
-59.019743878931
 20
192.576093065034
 11
-57.888373029032
 21
192.576093065033
  0
LINE
  5
118
100
AcDbEntity
  8
1
  6
DASHED
 62
           3
100
AcDbLine
 10
-61.423906934964
 20
196.111626970967
 11
-61.423906934964
 21
194.980256121069
  0
LINE
  5
117
100
AcDbEntity
  8
1
  6
DASHED
 62
           3
100
AcDbLine
 10
-60.575378797539
 20
199.08147545195
 11
-59.168236302978
 21
197.674332957388
  0
LINE
  5
116
100
AcDbEntity
  8
1
  6
DASHED
 62
           3
100
AcDbLine
 10
-59.302586591404
 20
197.101576464627
 11
-61.423906934964
 21
194.980256121069
  0
LINE
  5
115
100
AcDbEntity
  8
1
  6
DASHED
 62
           3
100
AcDbLine
 10
-56.89842353537
 20
194.697413408593
 11
-59.019743878931
 21
192.576093065034
  0
LINE
  5
114
100
AcDbEntity
  8
1
  6
DASHED
 62
           3
100
AcDbLine
 10
-53.00768968964
 20
196.463533812354
 11
-54.918524548048
 21
198.374368670763
  0
LINE
  5
113
100
AcDbEntity
  8
1
  6
DASHED
 62
           3
100
AcDbLine
 10
-59.168236302978
 20
197.674332957388
 11
-60.575378797539
 21
199.08147545195
  0
LINE
  5
112
100
AcDbEntity
  8
1
  6
DASHED
 62
           3
100
AcDbLine
 10
-59.168236302978
 20
197.674332957388
 11
-54.918524548048
 21
193.424621202457
  0
LINE
  5
111
100
AcDbEntity
  8
1
  6
DASHED
 62
           3
100
AcDbLine
 10
-59.168236302978
 20
197.674332957388
 11
-58.949033200811
 21
197.45512985522
  0
LINE
  5
110
100
AcDbEntity
  8
1
  6
DASHED
 62
           3
100
AcDbLine
 10
-57.213287721287
 20
200.053545607791
 11
-59.026814946741
 21
198.240018382338
  0
LINE
  5
10F
100
AcDbEntity
  8
1
  6
DASHED
 62
           3
100
AcDbLine
 10
-53.946454392206
 20
196.786712278709
 11
-55.759981617659
 21
194.973185053255
  0
LINE
  5
10E
100
AcDbEntity
  8
1
  6
DASHED
 62
           3
100
AcDbLine
 10
-54.918524548048
 20
193.424621202457
 11
-54.564971157454
 21
193.778174593051
  0
LINE
  5
10D
100
AcDbEntity
  8
1
  6
DASHED
 62
           3
100
AcDbLine
 10
-58.408298181492
 20
201.248556067996
 11
-60.221825406946
 21
199.435028842543
  0
LINE
  5
10C
100
AcDbEntity
  8
1
  6
DASHED
 62
           3
100
AcDbLine
 10
-60.575378797539
 20
199.08147545195
 11
-59.168236302978
 21
197.674332957388
  0
LINE
  5
10B
100
AcDbEntity
  8
1
  6
DASHED
 62
           3
100
AcDbLine
 10
-58.949033200811
 20
197.45512985522
 11
-56.544870144777
 21
195.050966799187
  0
LINE
  5
10A
100
AcDbEntity
  8
1
  6
DASHED
 62
           3
100
AcDbLine
 10
-56.544870144777
 20
195.050966799187
 11
-54.918524548048
 21
193.424621202457
  0
LINE
  5
109
100
AcDbEntity
  8
1
  6
DASHED
 62
           3
100
AcDbLine
 10
-61.423906934964
 20
194.980256121069
 11
-59.019743878931
 21
192.576093065034
  0
LINE
  5
108
100
AcDbEntity
  8
1
  6
CONTINUOUS
 62
           7
100
AcDbLine
 10
-73.666069507519
 20
201.187790809375
 11
-73.515350843094
 21
202.332612724577
  0
LINE
  5
107
100
AcDbEntity
  8
1
  6
CONTINUOUS
 62
           7
100
AcDbLine
 10
-73.515350843094
 20
202.332612724577
 11
-74.431436372255
 21
203.035549874396
  0
LINE
  5
106
100
AcDbEntity
  8
1
  6
CONTINUOUS
 62
           7
100
AcDbLine
 10
-74.431436372255
 20
203.035549874396
 11
-75.498240565842
 21
202.593665109012
  0
LINE
  5
105
100
AcDbEntity
  8
1
  6
CONTINUOUS
 62
           7
100
AcDbLine
 10
-75.498240565842
 20
202.593665109012
 11
-75.648959230268
 21
201.44884319381
  0
LINE
  5
104
100
AcDbEntity
  8
1
  6
CONTINUOUS
 62
           7
100
AcDbLine
 10
-75.648959230268
 20
201.44884319381
 11
-74.732873701107
 21
200.745906043991
  0
LINE
  5
103
100
AcDbEntity
  8
1
  6
CONTINUOUS
 62
           7
100
AcDbLine
 10
-74.732873701107
 20
200.745906043991
 11
-73.666069507519
 21
201.187790809375
  0
LINE
  5
102
100
AcDbEntity
  8
1
  6
CONTINUOUS
 62
           7
100
AcDbLine
 10
-83.187790809371
 20
191.666069507523
 11
-82.745906043993
 21
192.732873701112
  0
LINE
  5
101
100
AcDbEntity
  8
1
  6
CONTINUOUS
 62
           7
100
AcDbLine
 10
-84.332612724572
 20
191.51535084309
 11
-83.187790809371
 21
191.666069507523
  0
LINE
  5
100
100
AcDbEntity
  8
1
  6
CONTINUOUS
 62
           7
100
AcDbLine
 10
-85.035549874395
 20
192.431436372248
 11
-84.332612724572
 21
191.51535084309
  0
LINE
  5
FF
100
AcDbEntity
  8
1
  6
CONTINUOUS
 62
           7
100
AcDbLine
 10
-84.593665109017
 20
193.498240565837
 11
-85.035549874395
 21
192.431436372248
  0
LINE
  5
FE
100
AcDbEntity
  8
1
  6
CONTINUOUS
 62
           7
100
AcDbLine
 10
-83.448843193816
 20
193.64895923027
 11
-84.593665109017
 21
193.498240565837
  0
LINE
  5
FD
100
AcDbEntity
  8
1
  6
CONTINUOUS
 62
           7
100
AcDbLine
 10
-82.745906043993
 20
192.732873701112
 11
-83.448843193816
 21
193.64895923027
  0
LINE
  5
FC
100
AcDbEntity
  8
1
  6
CONTINUOUS
 62
           7
100
AcDbLine
 10
-82.745906043993
 20
179.267126298897
 11
-83.187790809377
 21
180.333930492484
  0
LINE
  5
FB
100
AcDbEntity
  8
1
  6
CONTINUOUS
 62
           7
100
AcDbLine
 10
-83.448843193811
 20
178.351040769736
 11
-82.745906043993
 21
179.267126298897
  0
LINE
  5
FA
100
AcDbEntity
  8
1
  6
CONTINUOUS
 62
           7
100
AcDbLine
 10
-84.593665109013
 20
178.501759434161
 11
-83.448843193811
 21
178.351040769736
  0
LINE
  5
F9
100
AcDbEntity
  8
1
  6
CONTINUOUS
 62
           7
100
AcDbLine
 10
-85.035549874397
 20
179.568563627749
 11
-84.593665109013
 21
178.501759434161
  0
LINE
  5
F8
100
AcDbEntity
  8
1
  6
CONTINUOUS
 62
           7
100
AcDbLine
 10
-84.332612724579
 20
180.48464915691
 11
-85.035549874397
 21
179.568563627749
  0
LINE
  5
F7
100
AcDbEntity
  8
1
  6
CONTINUOUS
 62
           7
100
AcDbLine
 10
-83.187790809377
 20
180.333930492484
 11
-84.332612724579
 21
180.48464915691
  0
LINE
  5
F6
100
AcDbEntity
  8
1
  6
CONTINUOUS
 62
           7
100
AcDbLine
 10
-73.666069507526
 20
170.812209190631
 11
-74.732873701115
 21
171.254093956009
  0
LINE
  5
F5
100
AcDbEntity
  8
1
  6
CONTINUOUS
 62
           7
100
AcDbLine
 10
-73.515350843094
 20
169.66738727543
 11
-73.666069507526
 21
170.812209190631
  0
LINE
  5
F4
100
AcDbEntity
  8
1
  6
CONTINUOUS
 62
           7
100
AcDbLine
 10
-74.431436372251
 20
168.964450125607
 11
-73.515350843094
 21
169.66738727543
  0
LINE
  5
F3
100
AcDbEntity
  8
1
  6
CONTINUOUS
 62
           7
100
AcDbLine
 10
-75.498240565841
 20
169.406334890984
 11
-74.431436372251
 21
168.964450125607
  0
LINE
  5
F2
100
AcDbEntity
  8
1
  6
CONTINUOUS
 62
           7
100
AcDbLine
 10
-75.648959230273
 20
170.551156806186
 11
-75.498240565841
 21
169.406334890984
  0
LINE
  5
F1
100
AcDbEntity
  8
1
  6
CONTINUOUS
 62
           7
100
AcDbLine
 10
-74.732873701115
 20
171.254093956009
 11
-75.648959230273
 21
170.551156806186
  0
LINE
  5
F0
100
AcDbEntity
  8
1
  6
CONTINUOUS
 62
           7
100
AcDbLine
 10
-61.2671262989
 20
171.254093956006
 11
-62.333930492487
 21
170.812209190623
  0
LINE
  5
EF
100
AcDbEntity
  8
1
  6
CONTINUOUS
 62
           7
100
AcDbLine
 10
-60.351040769739
 20
170.551156806188
 11
-61.2671262989
 21
171.254093956006
  0
LINE
  5
EE
100
AcDbEntity
  8
1
  6
CONTINUOUS
 62
           7
100
AcDbLine
 10
-60.501759434165
 20
169.406334890986
 11
-60.351040769739
 21
170.551156806188
  0
LINE
  5
ED
100
AcDbEntity
  8
1
  6
CONTINUOUS
 62
           7
100
AcDbLine
 10
-61.568563627752
 20
168.964450125602
 11
-60.501759434165
 21
169.406334890986
  0
LINE
  5
EC
100
AcDbEntity
  8
1
  6
CONTINUOUS
 62
           7
100
AcDbLine
 10
-62.484649156913
 20
169.667387275421
 11
-61.568563627752
 21
168.964450125602
  0
LINE
  5
EB
100
AcDbEntity
  8
1
  6
CONTINUOUS
 62
           7
100
AcDbLine
 10
-62.333930492487
 20
170.812209190623
 11
-62.484649156913
 21
169.667387275421
  0
LINE
  5
EA
100
AcDbEntity
  8
1
  6
CONTINUOUS
 62
           7
100
AcDbLine
 10
-52.812209190633
 20
180.333930492472
 11
-53.254093956011
 21
179.267126298882
  0
LINE
  5
E9
100
AcDbEntity
  8
1
  6
CONTINUOUS
 62
           7
100
AcDbLine
 10
-51.667387275431
 20
180.484649156904
 11
-52.812209190633
 21
180.333930492472
  0
LINE
  5
E8
100
AcDbEntity
  8
1
  6
CONTINUOUS
 62
           7
100
AcDbLine
 10
-50.964450125608
 20
179.568563627747
 11
-51.667387275431
 21
180.484649156904
  0
LINE
  5
E7
100
AcDbEntity
  8
1
  6
CONTINUOUS
 62
           7
100
AcDbLine
 10
-51.406334890986
 20
178.501759434157
 11
-50.964450125608
 21
179.568563627747
  0
LINE
  5
E6
100
AcDbEntity
  8
1
  6
CONTINUOUS
 62
           7
100
AcDbLine
 10
-52.551156806188
 20
178.351040769725
 11
-51.406334890986
 21
178.501759434157
  0
LINE
  5
E5
100
AcDbEntity
  8
1
  6
CONTINUOUS
 62
           7
100
AcDbLine
 10
-53.254093956011
 20
179.267126298882
 11
-52.551156806188
 21
178.351040769725
  0
LINE
  5
E4
100
AcDbEntity
  8
1
  6
CONTINUOUS
 62
           7
100
AcDbLine
 10
-53.254093956006
 20
192.732873701098
 11
-52.812209190622
 21
191.666069507511
  0
LINE
  5
E3
100
AcDbEntity
  8
1
  6
CONTINUOUS
 62
           7
100
AcDbLine
 10
-52.551156806187
 20
193.648959230259
 11
-53.254093956006
 21
192.732873701098
  0
LINE
  5
E2
100
AcDbEntity
  8
1
  6
CONTINUOUS
 62
           7
100
AcDbLine
 10
-51.406334890985
 20
193.498240565833
 11
-52.551156806187
 21
193.648959230259
  0
LINE
  5
E1
100
AcDbEntity
  8
1
  6
CONTINUOUS
 62
           7
100
AcDbLine
 10
-50.964450125602
 20
192.431436372246
 11
-51.406334890985
 21
193.498240565833
  0
LINE
  5
E0
100
AcDbEntity
  8
1
  6
CONTINUOUS
 62
           7
100
AcDbLine
 10
-51.66738727542
 20
191.515350843085
 11
-50.964450125602
 21
192.431436372246
  0
LINE
  5
DF
100
AcDbEntity
  8
1
  6
CONTINUOUS
 62
           7
100
AcDbLine
 10
-52.812209190622
 20
191.666069507511
 11
-51.66738727542
 21
191.515350843085
  0
LINE
  5
DE
100
AcDbEntity
  8
1
  6
CONTINUOUS
 62
           7
100
AcDbLine
 10
-62.33393049247
 20
201.187790809367
 11
-61.267126298881
 21
200.745906043989
  0
LINE
  5
DD
100
AcDbEntity
  8
1
  6
CONTINUOUS
 62
           7
100
AcDbLine
 10
-62.484649156902
 20
202.332612724568
 11
-62.33393049247
 21
201.187790809367
  0
LINE
  5
DC
100
AcDbEntity
  8
1
  6
CONTINUOUS
 62
           7
100
AcDbLine
 10
-61.568563627744
 20
203.035549874391
 11
-62.484649156902
 21
202.332612724568
  0
LINE
  5
DB
100
AcDbEntity
  8
1
  6
CONTINUOUS
 62
           7
100
AcDbLine
 10
-60.501759434155
 20
202.593665109013
 11
-61.568563627744
 21
203.035549874391
  0
LINE
  5
DA
100
AcDbEntity
  8
1
  6
CONTINUOUS
 62
           7
100
AcDbLine
 10
-60.351040769723
 20
201.448843193812
 11
-60.501759434155
 21
202.593665109013
  0
LINE
  5
D9
100
AcDbEntity
  8
1
  6
CONTINUOUS
 62
           7
100
AcDbLine
 10
-61.267126298881
 20
200.745906043989
 11
-60.351040769723
 21
201.448843193812
  0
LINE
  5
D8
100
AcDbEntity
  8
1
  6
CONTINUOUS
 62
           7
100
AcDbLine
 10
-193.618542715715
 20
170.85
 11
-193.818542715715
 21
171.05
  0
LINE
  5
D7
100
AcDbEntity
  8
1
  6
CONTINUOUS
 62
           7
100
AcDbLine
 10
-193.618542715715
 20
166.75
 11
-193.618542715715
 21
170.85
  0
LINE
  5
D6
100
AcDbEntity
  8
1
  6
CONTINUOUS
 62
           7
100
AcDbLine
 10
-193.818542715715
 20
166.55
 11
-193.618542715715
 21
166.75
  0
LINE
  5
D5
100
AcDbEntity
  8
1
  6
CONTINUOUS
 62
           7
100
AcDbLine
 10
-195.666397870133
 20
166.55
 11
-193.818542715715
 21
166.55
  0
LINE
  5
D4
100
AcDbEntity
  8
1
  6
CONTINUOUS
 62
           7
100
AcDbLine
 10
-193.818542715715
 20
166.55
 11
-193.818542715715
 21
171.05
  0
LINE
  5
D3
100
AcDbEntity
  8
1
  6
CONTINUOUS
 62
           7
100
AcDbLine
 10
-193.818542715715
 20
171.05
 11
-195.448655622683
 21
171.05
  0
LINE
  5
D2
100
AcDbEntity
  8
1
  6
CONTINUOUS
 62
           7
100
AcDbLine
 10
-183.21854271572
 20
189.0
 11
-182.81854271572
 21
189.4
  0
LINE
  5
D1
100
AcDbEntity
  8
1
  6
CONTINUOUS
 62
           7
100
AcDbLine
 10
-185.81854271572
 20
189.4
 11
-185.41854271572
 21
189.0
  0
LINE
  5
D0
100
AcDbEntity
  8
1
  6
CONTINUOUS
 62
           7
100
AcDbLine
 10
-185.81854271572
 20
189.4
 11
-182.81854271572
 21
189.4
  0
LINE
  5
CF
100
AcDbEntity
  8
1
  6
CONTINUOUS
 62
           7
100
AcDbLine
 10
-185.41854271572
 20
189.0
 11
-183.21854271572
 21
189.0
  0
LINE
  5
CE
100
AcDbEntity
  8
1
  6
CONTINUOUS
 62
           7
100
AcDbLine
 10
-182.81854271572
 20
191.6
 11
-185.81854271572
 21
191.6
  0
LINE
  5
CD
100
AcDbEntity
  8
1
  6
CONTINUOUS
 62
           7
100
AcDbLine
 10
-185.81854271572
 20
191.6
 11
-185.81854271572
 21
189.4
  0
LINE
  5
CC
100
AcDbEntity
  8
1
  6
CONTINUOUS
 62
           7
100
AcDbLine
 10
-182.81854271572
 20
189.4
 11
-182.81854271572
 21
191.6
  0
LINE
  5
CB
100
AcDbEntity
  8
1
  6
CONTINUOUS
 62
           7
100
AcDbLine
 10
-185.41854271572
 20
192.0
 11
-185.81854271572
 21
191.6
  0
LINE
  5
CA
100
AcDbEntity
  8
1
  6
CONTINUOUS
 62
           7
100
AcDbLine
 10
-183.21854271572
 20
192.0
 11
-185.41854271572
 21
192.0
  0
LINE
  5
C9
100
AcDbEntity
  8
1
  6
CONTINUOUS
 62
           7
100
AcDbLine
 10
-182.81854271572
 20
191.6
 11
-183.21854271572
 21
192.0
  0
LINE
  5
C8
100
AcDbEntity
  8
1
  6
CONTINUOUS
 62
           3
100
AcDbLine
 10
-183.21854271572
 20
189.0
 11
-183.21854271572
 21
192.0
  0
LINE
  5
C7
100
AcDbEntity
  8
1
  6
CONTINUOUS
 62
           3
100
AcDbLine
 10
-185.41854271572
 20
189.0
 11
-185.41854271572
 21
192.0
  0
LINE
  5
C6
100
AcDbEntity
  8
1
  6
CONTINUOUS
 62
           7
100
AcDbLine
 10
-188.318542661515
 20
177.580865704891
 11
-188.318542661515
 21
179.919134295109
  0
LINE
  5
C5
100
AcDbEntity
  8
1
  6
CONTINUOUS
 62
           7
100
AcDbLine
 10
-190.143542661516
 20
177.580865704891
 11
-188.318542661515
 21
177.580865704891
  0
LINE
  5
C4
100
AcDbEntity
  8
1
  6
CONTINUOUS
 62
           7
100
AcDbLine
 10
-193.318542661515
 20
177.580865704891
 11
-193.318542661515
 21
177.04
  0
LINE
  5
C3
100
AcDbEntity
  8
1
  6
CONTINUOUS
 62
           7
100
AcDbLine
 10
-191.493542661516
 20
177.580865704891
 11
-193.318542661515
 21
177.580865704891
  0
LINE
  5
C2
100
AcDbEntity
  8
1
  6
CONTINUOUS
 62
           7
100
AcDbLine
 10
-193.318542661515
 20
179.919134295109
 11
-193.318542661515
 21
177.580865704891
  0
LINE
  5
C1
100
AcDbEntity
  8
1
  6
CONTINUOUS
 62
           7
100
AcDbLine
 10
-191.493542661516
 20
179.919134295109
 11
-193.318542661515
 21
179.919134295109
  0
LINE
  5
C0
100
AcDbEntity
  8
1
  6
CONTINUOUS
 62
           7
100
AcDbLine
 10
-188.318542661515
 20
179.919134295109
 11
-188.318542661515
 21
180.46
  0
LINE
  5
BF
100
AcDbEntity
  8
1
  6
CONTINUOUS
 62
           7
100
AcDbLine
 10
-190.143542661516
 20
179.919134295109
 11
-188.318542661515
 21
179.919134295109
  0
LINE
  5
BE
100
AcDbEntity
  8
1
  6
CONTINUOUS
 62
           7
100
AcDbLine
 10
-188.818542661515
 20
180.1
 11
-188.818542661515
 21
177.4
  0
LINE
  5
BD
100
AcDbEntity
  8
1
  6
CONTINUOUS
 62
           7
100
AcDbLine
 10
-192.818542661515
 20
177.4
 11
-192.818542661515
 21
180.1
  0
LINE
  5
BC
100
AcDbEntity
  8
1
  6
CONTINUOUS
 62
           7
100
AcDbLine
 10
-193.318542661515
 20
180.46
 11
-193.318542661515
 21
179.919134295109
  0
LINE
  5
BB
100
AcDbEntity
  8
1
  6
CONTINUOUS
 62
           7
100
AcDbLine
 10
-188.858542661515
 20
181.0
 11
-192.778542661516
 21
181.0
  0
LINE
  5
BA
100
AcDbEntity
  8
1
  6
CONTINUOUS
 62
           7
100
AcDbLine
 10
-188.318542661515
 20
177.04
 11
-188.318542661515
 21
177.580865704891
  0
LINE
  5
B9
100
AcDbEntity
  8
1
  6
CONTINUOUS
 62
           7
100
AcDbLine
 10
-192.778542661516
 20
176.5
 11
-188.858542661515
 21
176.5
  0
LINE
  5
B8
100
AcDbEntity
  8
1
  6
CONTINUOUS
 62
           7
100
AcDbLine
 10
-186.818542715716
 20
199.121999998374
 11
-186.818542715716
 21
197.721999998373
  0
LINE
  5
B7
100
AcDbEntity
  8
1
  6
CONTINUOUS
 62
           7
100
AcDbLine
 10
-186.818542715716
 20
199.121999998374
 11
-181.818542715716
 21
199.121999998374
  0
LINE
  5
B6
100
AcDbEntity
  8
1
  6
CONTINUOUS
 62
           7
100
AcDbLine
 10
-186.018542715714
 20
199.921999998374
 11
-186.818542715716
 21
199.121999998374
  0
LINE
  5
B5
100
AcDbEntity
  8
1
  6
CONTINUOUS
 62
           7
100
AcDbLine
 10
-181.818542715716
 20
199.121999998374
 11
-182.618542715716
 21
199.921999998374
  0
LINE
  5
B4
100
AcDbEntity
  8
1
  6
CONTINUOUS
 62
           7
100
AcDbLine
 10
-186.018542715714
 20
199.921999998374
 11
-182.618542715716
 21
199.921999998374
  0
LINE
  5
B3
100
AcDbEntity
  8
1
  6
CONTINUOUS
 62
           7
100
AcDbLine
 10
-182.618542715716
 20
200.221999998374
 11
-182.618542715716
 21
199.921999998374
  0
LINE
  5
B2
100
AcDbEntity
  8
1
  6
CONTINUOUS
 62
           7
100
AcDbLine
 10
-186.018542715714
 20
200.221999998374
 11
-186.018542715714
 21
199.921999998374
  0
LINE
  5
B1
100
AcDbEntity
  8
1
  6
CONTINUOUS
 62
           7
100
AcDbLine
 10
-184.818542715714
 20
202.421999998374
 11
-183.818542715714
 21
202.421999998374
  0
LINE
  5
B0
100
AcDbEntity
  8
1
  6
CONTINUOUS
 62
           7
100
AcDbLine
 10
-183.818542715714
 20
203.921999998374
 11
-183.818542715714
 21
202.421999998374
  0
LINE
  5
AF
100
AcDbEntity
  8
1
  6
CONTINUOUS
 62
           7
100
AcDbLine
 10
-184.818542715714
 20
203.921999998374
 11
-187.520871287913
 21
203.921999998374
  0
LINE
  5
AE
100
AcDbEntity
  8
1
  6
CONTINUOUS
 62
           7
100
AcDbLine
 10
-184.818542715714
 20
203.921999998374
 11
-184.818542715714
 21
202.421999998374
  0
LINE
  5
AD
100
AcDbEntity
  8
1
  6
CONTINUOUS
 62
           7
100
AcDbLine
 10
-180.318542715714
 20
200.921999998375
 11
-180.318542715714
 21
203.486714796343
  0
LINE
  5
AC
100
AcDbEntity
  8
1
  6
CONTINUOUS
 62
           7
100
AcDbLine
 10
-188.318542715714
 20
200.921999998375
 11
-188.318542715714
 21
200.421999998375
  0
LINE
  5
AB
100
AcDbEntity
  8
1
  6
CONTINUOUS
 62
           7
100
AcDbLine
 10
-188.318542715714
 20
200.921999998375
 11
-180.318542715714
 21
200.921999998375
  0
LINE
  5
AA
100
AcDbEntity
  8
1
  6
CONTINUOUS
 62
           7
100
AcDbLine
 10
-186.818542715716
 20
197.721999998373
 11
-181.818542715716
 21
197.721999998373
  0
LINE
  5
A9
100
AcDbEntity
  8
1
  6
CONTINUOUS
 62
           7
100
AcDbLine
 10
-181.818542715716
 20
197.721999998373
 11
-181.818542715716
 21
199.121999998374
  0
LINE
  5
A8
100
AcDbEntity
  8
1
  6
CONTINUOUS
 62
           7
100
AcDbLine
 10
-182.618542715716
 20
196.921999998374
 11
-181.818542715716
 21
197.721999998373
  0
LINE
  5
A7
100
AcDbEntity
  8
1
  6
CONTINUOUS
 62
           7
100
AcDbLine
 10
-186.818542715716
 20
197.721999998373
 11
-186.018542715716
 21
196.921999998374
  0
LINE
  5
A6
100
AcDbEntity
  8
1
  6
CONTINUOUS
 62
           7
100
AcDbLine
 10
-188.318542715714
 20
200.421999998375
 11
-186.328542715715
 21
200.421999998375
  0
LINE
  5
A5
100
AcDbEntity
  8
1
  6
CONTINUOUS
 62
           3
100
AcDbLine
 10
-186.018542715714
 20
199.921999998374
 11
-186.018542715716
 21
196.921999998374
  0
LINE
  5
A4
100
AcDbEntity
  8
1
  6
CONTINUOUS
 62
           3
100
AcDbLine
 10
-182.618542715716
 20
199.921999998374
 11
-182.618542715716
 21
196.921999998374
  0
LINE
  5
A3
100
AcDbEntity
  8
1
  6
CONTINUOUS
 62
           7
100
AcDbLine
 10
-181.116214143499
 20
203.921999998373
 11
-183.818542715714
 21
203.921999998374
  0
LINE
  5
A2
100
AcDbEntity
  8
1
  6
CONTINUOUS
 62
           3
100
AcDbLine
 10
-186.328542715715
 20
200.421999998375
 11
-188.318542715714
 21
200.421999998375
  0
LINE
  5
A1
100
AcDbEntity
  8
1
  6
CONTINUOUS
 62
           7
100
AcDbLine
 10
-186.328542715715
 20
200.421999998375
 11
-180.318542715714
 21
200.421999998373
  0
LINE
  5
A0
100
AcDbEntity
  8
1
  6
CONTINUOUS
 62
           7
100
AcDbLine
 10
-186.328542715715
 20
200.421999998375
 11
-186.018542715714
 21
200.421999998374
  0
LINE
  5
9F
100
AcDbEntity
  8
1
  6
CONTINUOUS
 62
           7
100
AcDbLine
 10
-186.628542715714
 20
203.486714796343
 11
-186.628542715714
 21
200.921999998374
  0
LINE
  5
9E
100
AcDbEntity
  8
1
  6
CONTINUOUS
 62
           7
100
AcDbLine
 10
-182.008542715714
 20
203.486714796343
 11
-182.008542715714
 21
200.921999998374
  0
LINE
  5
9D
100
AcDbEntity
  8
1
  6
CONTINUOUS
 62
           7
100
AcDbLine
 10
-180.318542715714
 20
200.421999998373
 11
-180.318542715714
 21
200.921999998375
  0
LINE
  5
9C
100
AcDbEntity
  8
1
  6
CONTINUOUS
 62
           7
100
AcDbLine
 10
-188.318542715714
 20
203.486714796344
 11
-188.318542715714
 21
200.921999998375
  0
LINE
  5
9B
100
AcDbEntity
  8
1
  6
CONTINUOUS
 62
           7
100
AcDbLine
 10
-188.318542715714
 20
200.421999998375
 11
-186.328542715715
 21
200.421999998375
  0
LINE
  5
9A
100
AcDbEntity
  8
1
  6
CONTINUOUS
 62
           7
100
AcDbLine
 10
-186.018542715714
 20
200.421999998374
 11
-182.618542715716
 21
200.421999998374
  0
LINE
  5
99
100
AcDbEntity
  8
1
  6
CONTINUOUS
 62
           7
100
AcDbLine
 10
-182.618542715716
 20
200.421999998374
 11
-180.318542715714
 21
200.421999998373
  0
LINE
  5
98
100
AcDbEntity
  8
1
  6
CONTINUOUS
 62
           7
100
AcDbLine
 10
-186.018542715716
 20
196.921999998374
 11
-182.618542715716
 21
196.921999998374
  0
LINE
  5
97
100
AcDbEntity
  8
1
  6
CONTINUOUS
 62
           7
100
AcDbLine
 10
-188.858542661515
 20
195.500000000001
 11
-192.778542661516
 21
195.500000000001
  0
LINE
  5
96
100
AcDbEntity
  8
1
  6
CONTINUOUS
 62
           7
100
AcDbLine
 10
-188.318542661515
 20
194.41913429511
 11
-188.318542661515
 21
194.960000000001
  0
LINE
  5
95
100
AcDbEntity
  8
1
  6
CONTINUOUS
 62
           7
100
AcDbLine
 10
-192.778542661516
 20
191.000000000001
 11
-188.858542661515
 21
191.000000000001
  0
LINE
  5
94
100
AcDbEntity
  8
1
  6
CONTINUOUS
 62
           7
100
AcDbLine
 10
-193.318542661515
 20
192.080865704892
 11
-193.318542661515
 21
191.540000000001
  0
LINE
  5
93
100
AcDbEntity
  8
1
  6
CONTINUOUS
 62
           7
100
AcDbLine
 10
-192.818542661515
 20
191.900000000001
 11
-192.818542661515
 21
194.600000000001
  0
LINE
  5
92
100
AcDbEntity
  8
1
  6
CONTINUOUS
 62
           7
100
AcDbLine
 10
-188.818542661515
 20
194.600000000001
 11
-188.818542661515
 21
191.900000000001
  0
LINE
  5
91
100
AcDbEntity
  8
1
  6
CONTINUOUS
 62
           7
100
AcDbLine
 10
-188.318542661515
 20
192.080865704892
 11
-190.143542661516
 21
192.080865704892
  0
LINE
  5
90
100
AcDbEntity
  8
1
  6
CONTINUOUS
 62
           7
100
AcDbLine
 10
-188.318542661515
 20
191.540000000001
 11
-188.318542661515
 21
192.080865704892
  0
LINE
  5
8F
100
AcDbEntity
  8
1
  6
CONTINUOUS
 62
           7
100
AcDbLine
 10
-193.318542661515
 20
192.080865704892
 11
-191.493542661516
 21
192.080865704892
  0
LINE
  5
8E
100
AcDbEntity
  8
1
  6
CONTINUOUS
 62
           7
100
AcDbLine
 10
-193.318542661515
 20
194.41913429511
 11
-193.318542661515
 21
192.080865704892
  0
LINE
  5
8D
100
AcDbEntity
  8
1
  6
CONTINUOUS
 62
           7
100
AcDbLine
 10
-193.318542661515
 20
194.41913429511
 11
-191.493542661516
 21
194.41913429511
  0
LINE
  5
8C
100
AcDbEntity
  8
1
  6
CONTINUOUS
 62
           7
100
AcDbLine
 10
-193.318542661515
 20
194.960000000001
 11
-193.318542661515
 21
194.41913429511
  0
LINE
  5
8B
100
AcDbEntity
  8
1
  6
CONTINUOUS
 62
           7
100
AcDbLine
 10
-188.318542661515
 20
194.41913429511
 11
-190.143542661516
 21
194.41913429511
  0
LINE
  5
8A
100
AcDbEntity
  8
1
  6
CONTINUOUS
 62
           7
100
AcDbLine
 10
-188.318542661515
 20
192.080865704892
 11
-188.318542661515
 21
194.41913429511
  0
LINE
  5
89
100
AcDbEntity
  8
1
  6
CONTINUOUS
 62
           7
100
AcDbLine
 10
-195.518542661514
 20
187.898514882867
 11
-196.018542661514
 21
188.0805
  0
LINE
  5
88
100
AcDbEntity
  8
1
  6
CONTINUOUS
 62
           7
100
AcDbLine
 10
-195.518542661515
 20
184.101485117133
 11
-195.764862895401
 21
184.011831883901
  0
LINE
  5
87
100
AcDbEntity
  8
1
  6
CONTINUOUS
 62
           7
100
AcDbLine
 10
-196.018542661514
 20
183.9195
 11
-196.491929617179
 21
183.9195
  0
LINE
  5
86
100
AcDbEntity
  8
1
  6
CONTINUOUS
 62
           7
100
AcDbLine
 10
-196.018542661514
 20
188.0805
 11
-196.496737150433
 21
188.0805
  0
LINE
  5
85
100
AcDbEntity
  8
1
  6
CONTINUOUS
 62
           7
100
AcDbLine
 10
-196.018542661514
 20
188.0805
 11
-196.018542661514
 21
183.9195
  0
LINE
  5
84
100
AcDbEntity
  8
1
  6
CONTINUOUS
 62
           7
100
AcDbLine
 10
-196.491929617179
 20
183.9195
 11
-201.206883289719
 21
183.9195
  0
LINE
  5
83
100
AcDbEntity
  8
1
  6
CONTINUOUS
 62
           7
100
AcDbLine
 10
-195.764862895401
 20
184.011831883901
 11
-196.018542661514
 21
183.9195
  0
LINE
  5
82
100
AcDbEntity
  8
1
  6
CONTINUOUS
 62
           7
100
AcDbLine
 10
-195.518542661514
 20
187.898514882867
 11
-195.518542661515
 21
184.101485117133
  0
LINE
  5
81
100
AcDbEntity
  8
1
  6
CONTINUOUS
 62
           7
100
AcDbLine
 10
-196.496737150433
 20
188.0805
 11
-197.155238634896
 21
188.0805
  0
LINE
  5
80
100
AcDbEntity
  8
1
  6
CONTINUOUS
 62
           7
100
AcDbLine
 10
-197.155238634896
 20
188.0805
 11
-201.206883289719
 21
188.0805
  0
LINE
  5
7F
100
AcDbEntity
  8
1
  6
CONTINUOUS
 62
           7
100
AcDbLine
 10
-351.245861602384
 20
193.5
 11
-350.379836198599
 21
195.0
  0
LINE
  5
7E
100
AcDbEntity
  8
1
  6
CONTINUOUS
 62
           7
100
AcDbLine
 10
-350.379836198599
 20
195.0
 11
-351.245861602384
 21
196.5
  0
LINE
  5
7D
100
AcDbEntity
  8
1
  6
CONTINUOUS
 62
           7
100
AcDbLine
 10
-351.245861602384
 20
196.5
 11
-352.977912409953
 21
196.5
  0
LINE
  5
7C
100
AcDbEntity
  8
1
  6
CONTINUOUS
 62
           7
100
AcDbLine
 10
-352.977912409953
 20
196.5
 11
-353.843937813737
 21
195.0
  0
LINE
  5
7B
100
AcDbEntity
  8
1
  6
CONTINUOUS
 62
           7
100
AcDbLine
 10
-353.843937813737
 20
195.0
 11
-352.977912409953
 21
193.5
  0
LINE
  5
7A
100
AcDbEntity
  8
1
  6
CONTINUOUS
 62
           7
100
AcDbLine
 10
-352.977912409953
 20
193.5
 11
-351.245861602384
 21
193.5
  0
LINE
  5
79
100
AcDbEntity
  8
1
  6
CONTINUOUS
 62
           7
100
AcDbLine
 10
-358.174064832659
 20
181.5
 11
-359.040090236444
 21
183.0
  0
LINE
  5
78
100
AcDbEntity
  8
1
  6
CONTINUOUS
 62
           7
100
AcDbLine
 10
-359.040090236444
 20
180.0
 11
-358.174064832659
 21
181.5
  0
LINE
  5
77
100
AcDbEntity
  8
1
  6
CONTINUOUS
 62
           7
100
AcDbLine
 10
-360.772141044013
 20
180.0
 11
-359.040090236444
 21
180.0
  0
LINE
  5
76
100
AcDbEntity
  8
1
  6
CONTINUOUS
 62
           7
100
AcDbLine
 10
-361.638166447797
 20
181.5
 11
-360.772141044013
 21
180.0
  0
LINE
  5
75
100
AcDbEntity
  8
1
  6
CONTINUOUS
 62
           7
100
AcDbLine
 10
-360.772141044013
 20
183.0
 11
-361.638166447797
 21
181.5
  0
LINE
  5
74
100
AcDbEntity
  8
1
  6
CONTINUOUS
 62
           7
100
AcDbLine
 10
-359.040090236444
 20
183.0
 11
-360.772141044013
 21
183.0
  0
LINE
  5
73
100
AcDbEntity
  8
1
  6
CONTINUOUS
 62
           7
100
AcDbLine
 10
-345.183683775893
 20
183.0
 11
-346.049709179677
 21
181.5
  0
LINE
  5
72
100
AcDbEntity
  8
1
  6
CONTINUOUS
 62
           7
100
AcDbLine
 10
-343.451632968324
 20
183.0
 11
-345.183683775893
 21
183.0
  0
LINE
  5
71
100
AcDbEntity
  8
1
  6
CONTINUOUS
 62
           7
100
AcDbLine
 10
-342.585607564539
 20
181.5
 11
-343.451632968324
 21
183.0
  0
LINE
  5
70
100
AcDbEntity
  8
1
  6
CONTINUOUS
 62
           7
100
AcDbLine
 10
-343.451632968324
 20
180.0
 11
-342.585607564539
 21
181.5
  0
LINE
  5
6F
100
AcDbEntity
  8
1
  6
CONTINUOUS
 62
           7
100
AcDbLine
 10
-345.183683775893
 20
180.0
 11
-343.451632968324
 21
180.0
  0
LINE
  5
6E
100
AcDbEntity
  8
1
  6
CONTINUOUS
 62
           7
100
AcDbLine
 10
-346.049709179677
 20
181.5
 11
-345.183683775893
 21
180.0
  0
INSERT
  5
47
100
AcDbEntity
  8
0
100
AcDbBlockReference
  2
000007043_SHF020XXX2UH__1
 10
0.0
 20
0.0
  0
INSERT
  5
48
100
AcDbEntity
  8
0
100
AcDbBlockReference
  2
HPG_14A__2
 10
0.0
 20
0.0
  0
INSERT
  5
49
100
AcDbEntity
  8
0
100
AcDbBlockReference
  2
HPG_14A__3
 10
0.0
 20
0.0
  0
INSERT
  5
4A
100
AcDbEntity
  8
0
100
AcDbBlockReference
  2
000007043_SHF020XXX2UH__5
 10
0.0
 20
0.0
  0
INSERT
  5
4B
100
AcDbEntity
  8
0
100
AcDbBlockReference
  2
HPG_14A__6
 10
0.0
 20
0.0
  0
INSERT
  5
4C
100
AcDbEntity
  8
0
100
AcDbBlockReference
  2
HPG_14A__7
 10
0.0
 20
0.0
  0
INSERT
  5
4D
100
AcDbEntity
  8
0
100
AcDbBlockReference
  2
HPG_14A__12
 10
0.0
 20
0.0
  0
ENDSEC
  0
SECTION
  2
OBJECTS
  0
DICTIONARY
  5
19
100
AcDbDictionary
  3
ACAD_GROUP
350
1A
  3
ACAD_MLINESTYLE
350
1B
  0
DICTIONARY
  5
1A
102
{ACAD_REACTORS
330
19
102
}
100
AcDbDictionary
  0
DICTIONARY
  5
1B
102
{ACAD_REACTORS
330
19
102
}
100
AcDbDictionary
  3
STANDARD
350
1C
  0
MLINESTYLE
  5
1C
102
{ACAD_REACTORS
330
1B
102
}
100
AcDbMlineStyle
  2
STANDARD
 70
           0
  3

 62
           0
 51
90.0
 52
90.0
 71
           2
 49
0.5
 62
         256
  6
BYLAYER
 49
-0.5
 62
         256
  6
BYLAYER
  0
ENDSEC
  0
EOF
