  0
SECTION
  2
HEADER
  9
$ACADVER
  1
AC1014
  9
$ACADMAINTVER
 70
           0
  9
$DWGCODEPAGE
  3
DOS932
  9
$INSBASE
 10
0.0
 20
0.0
 30
0.0
  9
$EXTMIN
 10
1.000000000000E+20
 20
1.000000000000E+20
 30
1.000000000000E+20
  9
$EXTMAX
 10
-1.000000000000E+20
 20
-1.000000000000E+20
 30
-1.000000000000E+20
  9
$LIMMIN
 10
0.0
 20
0.0
  9
$LIMMAX
 10
0.0
 20
0.0
  9
$ORTHOMODE
 70
           0
  9
$REGENMODE
 70
           1
  9
$FILLMODE
 70
           1
  9
$QTEXTMODE
 70
           0
  9
$MIRRTEXT
 70
           1
  9
$DRAGMODE
 70
           2
  9
$LTSCALE
 40
1.0
  9
$OSMODE
 70
           0
  9
$ATTMODE
 70
           1
  9
$TEXTSIZE
 40
0.2
  9
$TRACEWID
 40
0.05
  9
$TEXTSTYLE
  7
STANDARD
  9
$CLAYER
  8
0
  9
$CELTYPE
  6
CONTINUOUS
  9
$CECOLOR
 62
         256
  9
$CELTSCALE
 40
1.0
  9
$DELOBJ
 70
           1
  9
$DISPSILH
 70
           0
  9
$DIMSCALE
 40
1.0
  9
$DIMASZ
 40
0.18
  9
$DIMEXO
 40
0.0625
  9
$DIMDLI
 40
0.38
  9
$DIMRND
 40
0.0
  9
$DIMDLE
 40
0.0
  9
$DIMEXE
 40
0.18
  9
$DIMTP
 40
0.0
  9
$DIMTM
 40
0.0
  9
$DIMTXT
 40
0.18
  9
$DIMCEN
 40
0.09
  9
$DIMTSZ
 40
0.0
  9
$DIMTOL
 70
           0
  9
$DIMLIM
 70
           0
  9
$DIMTIH
 70
           1
  9
$DIMTOH
 70
           1
  9
$DIMSE1
 70
           0
  9
$DIMSE2
 70
           0
  9
$DIMTAD
 70
           0
  9
$DIMZIN
 70
           0
  9
$DIMBLK
  1

  9
$DIMASO
 70
           1
  9
$DIMSHO
 70
           1
  9
$DIMPOST
  1

  9
$DIMAPOST
  1

  9
$DIMALT
 70
           0
  9
$DIMALTD
 70
           2
  9
$DIMALTF
 40
25.4
  9
$DIMLFAC
 40
1.0
  9
$DIMTOFL
 70
           0
  9
$DIMTVP
 40
0.0
  9
$DIMTIX
 70
           0
  9
$DIMSOXD
 70
           0
  9
$DIMSAH
 70
           0
  9
$DIMBLK1
  1

  9
$DIMBLK2
  1

  9
$DIMSTYLE
  2
STANDARD
  9
$DIMCLRD
 70
           0
  9
$DIMCLRE
 70
           0
  9
$DIMCLRT
 70
           0
  9
$DIMTFAC
 40
1.0
  9
$DIMGAP
 40
0.09
  9
$DIMJUST
 70
           0
  9
$DIMSD1
 70
           0
  9
$DIMSD2
 70
           0
  9
$DIMTOLJ
 70
           1
  9
$DIMTZIN
 70
           0
  9
$DIMALTZ
 70
           0
  9
$DIMALTTZ
 70
           0
  9
$DIMFIT
 70
           3
  9
$DIMUPT
 70
           0
  9
$DIMUNIT
 70
           2
  9
$DIMDEC
 70
           4
  9
$DIMTDEC
 70
           4
  9
$DIMALTU
 70
           2
  9
$DIMALTTD
 70
           2
  9
$DIMTXSTY
  7
STANDARD
  9
$DIMAUNIT
 70
           0
  9
$LUNITS
 70
           2
  9
$LUPREC
 70
           4
  9
$SKETCHINC
 40
0.1
  9
$FILLETRAD
 40
0.0
  9
$AUNITS
 70
           0
  9
$AUPREC
 70
           0
  9
$MENU
  1
acad
  9
$ELEVATION
 40
0.0
  9
$PELEVATION
 40
0.0
  9
$THICKNESS
 40
0.0
  9
$LIMCHECK
 70
           0
  9
$BLIPMODE
 70
           1
  9
$CHAMFERA
 40
0.0
  9
$CHAMFERB
 40
0.0
  9
$CHAMFERC
 40
0.0
  9
$CHAMFERD
 40
0.0
  9
$SKPOLY
 70
           0
  9
$TDCREATE
 40
0.000000000
  9
$TDUPDATE
 40
0.000000000
  9
$TDINDWG
 40
0.0000000000
  9
$TDUSRTIMER
 40
0.0000000000
  9
$USRTIMER
 70
           1
  9
$ANGBASE
 50
0.0
  9
$ANGDIR
 70
           0
  9
$PDMODE
 70
           0
  9
$PDSIZE
 40
0.0
  9
$PLINEWID
 40
0.0
  9
$COORDS
 70
           0
  9
$SPLFRAME
 70
           0
  9
$SPLINETYPE
 70
           6
  9
$SPLINESEGS
 70
           8
  9
$ATTDIA
 70
           0
  9
$ATTREQ
 70
           1
  9
$HANDLING
 70
           1
  9
$HANDSEED
  5
2F6
  9
$SURFTAB1
 70
           6
  9
$SURFTAB2
 70
           6
  9
$SURFTYPE
 70
           6
  9
$SURFU
 70
           6
  9
$SURFV
 70
           6
  9
$UCSNAME
  2

  9
$UCSORG
 10
0.0
 20
0.0
 30
0.0
  9
$UCSXDIR
 10
1.0
 20
0.0
 30
0.0
  9
$UCSYDIR
 10
0.0
 20
1.0
 30
0.0
  9
$PUCSNAME
  2

  9
$PUCSORG
 10
0.0
 20
0.0
 30
0.0
  9
$PUCSXDIR
 10
1.0
 20
0.0
 30
0.0
  9
$PUCSYDIR
 10
0.0
 20
1.0
 30
0.0
  9
$USERI1
 70
           0
  9
$USERI2
 70
           0
  9
$USERI3
 70
           0
  9
$USERI4
 70
           0
  9
$USERI5
 70
           0
  9
$USERR1
 40
0.0
  9
$USERR2
 40
0.0
  9
$USERR3
 40
0.0
  9
$USERR4
 40
0.0
  9
$USERR5
 40
0.0
  9
$WORLDVIEW
 70
           1
  9
$SHADEDGE
 70
           3
  9
$SHADEDIF
 70
          70
  9
$TILEMODE
 70
           1
  9
$MAXACTVP
 70
          16
  9
$PINSBASE
 10
0.0
 20
0.0
 30
0.0
  9
$PLIMCHECK
 70
           0
  9
$PEXTMIN
 10
1.000000000000E+20
 20
1.000000000000E+20
 30
1.000000000000E+20
  9
$PEXTMAX
 10
-1.000000000000E+20
 20
-1.000000000000E+20
 30
-1.000000000000E+20
  9
$PLIMMIN
 10
0.0
 20
0.0
  9
$PLIMMAX
 10
12.0
 20
9.0
  9
$UNITMODE
 70
           0
  9
$VISRETAIN
 70
           0
  9
$PLINEGEN
 70
           1
  9
$PSLTSCALE
 70
           0
  9
$TREEDEPTH
 70
        3020
  9
$PICKSTYLE
 70
           1
  9
$CMLSTYLE
  2
STANDARD
  9
$CMLJUST
 70
           0
  9
$CMLSCALE
 40
1.0
  9
$PROXYGRAPHICS
 70
           0
  9
$MEASUREMENT
 70
           0
  0
ENDSEC
  0
SECTION
  2
CLASSES
  0
CLASS
  1
LWPOLYLINE
  2
AcDbPolyline
  3
"AutoCAD"
 90
        0
280
           0
281
           1
  0
CLASS
  1
IMAGE
  2
AcDbRasterImage
  3
ISM
 90
      127
280
           0
281
           1
  0
CLASS
  1
OLE2FRAME
  2
AcDbOle2Frame
  3
""
 90
        0
280
           0
281
           1
  0
CLASS
  1
HATCH
  2
AcDbHatch
  3
"ACAD_SEDONA"
 90
        0
280
           0
281
           1
  0
CLASS
  1
DICTIONARYVAR
  2
AcDbDictionaryVar
  3
"AutoCAD"
 90
        0
280
           0
281
           0
  0
CLASS
  1
RASTERVARIABLES
  2
AcDbRasterVariables
  3
ISM
 90
        0
280
           0
281
           0
  0
CLASS
  1
IMAGEDEF
  2
AcDbRasterImageDef
  3
ISM
 90
        0
280
           0
281
           0
  0
CLASS
  1
IMAGEDEF_REACTOR
  2
AcDbRasterImageDefReactor
  3
ISM
 90
        1
280
           0
281
           0
  0
CLASS
  1
IDBUFFER
  2
AcDbIdBuffer
  3
"Acad"
 90
        0
280
           0
281
           0
  0
CLASS
  1
SPATIAL_FILTER
  2
AcDbSpatialFilter
  3
"Acad"
 90
        0
280
           0
281
           0
  0
CLASS
  1
XRECORD
  2
AcDbXrecord
  3
"<Built In>"
 90
        0
280
           0
281
           0
  0
CLASS
  1
SORTENTSTABLE
  2
AcDbSortentsTable
  3
"AutoCAD"
 90
        0
280
           0
281
           0
  0
CLASS
  1
LAYER_INDEX
  2
AcDbLayerIndex
  3
"Acad"
 90
        0
280
           0
281
           0
  0
CLASS
  1
SPATIAL_INDEX
  2
AcDbSpatialIndex
  3
"Acad"
 90
        0
280
           0
281
           0
  0
CLASS
  1
OBJECT_PTR
  2
CAseDLPNTableRecord
  3
"ASE-LPNTableRecord"
 90
        1
280
           0
281
           0
  0
CLASS
  1
LAYOUT
  2
AcDbLayout
  3
"AutoCAD 2000"
 90
        1
280
           0
281
           0
  0
CLASS
  1
PLOTSETTINGS
  2
AcDbPlotSettings
  3
"AutoCAD 2000"
 90
        1
280
           0
281
           0
  0
CLASS
  1
ACDBDICTIONARYWDFLT
  2
AcDbDictionaryWithDefault
  3
"AutoCAD 2000"
 90
        1
280
           0
281
           0
  0
CLASS
  1
ACDBPLACEHOLDER
  2
AcDbPlaceHolder
  3
"AutoCAD 2000"
 90
        1
280
           0
281
           0
  0
CLASS
  1
VBA_PROJECT
  2
AcDbVbaProject
  3
"acadvba"
 90
        1
280
           0
281
           0
  0
CLASS
  1
WIPEOUT
  2
AcDbWipeout
  3
WipeOut|AutoCAD Express Tool|expresstools@autodesk.com
 90
      127
280
           0
281
           1
  0
CLASS
  1
WIPEOUTVARIABLES
  2
AcDbWipeoutVariables
  3
WipeOut|AutoCAD Express Tool|expresstools@autodesk.com
 90
        0
280
           0
281
           0
  0
CLASS
  1
RTEXT
  2
RText
  3
RText|AutoCAD Express Tool|expresstools@autodesk.com
 90
        0
280
           0
281
           1
  0
CLASS
  1
ARCALIGNEDTEXT
  2
AcDbArcAlignedText
  3
ATEXT|AutoCAD Express Tool|expresstools@autodesk.com
 90
        0
280
           0
281
           1
  0
ENDSEC
  0
SECTION
  2
TABLES
  0
TABLE
  2
VPORT
  5
7
100
AcDbSymbolTable
 70
           1
  0
VPORT
  5
15
100
AcDbSymbolTableRecord
100
AcDbViewportTableRecord
  2
*ACTIVE
 70
           0
 10
0.0
 20
0.0
 11
1.0
 21
1.0
 12
6.591288
 22
4.579184
 13
0.0
 23
0.0
 14
1.0
 24
1.0
 15
0.0
 25
0.0
 16
0.0
 26
0.0
 36
1.0
 17
0.0
 27
0.0
 37
0.0
 40
9.158369
 41
0.688564
 42
50.0
 43
0.0
 44
0.0
 50
0.0
 51
0.0
 71
           0
 72
         100
 73
           1
 74
           1
 75
           0
 76
           0
 77
           0
 78
           0
  0
ENDTAB
  0
TABLE
  2
LTYPE
  5
4
100
AcDbSymbolTable
 70
          10
  0
LTYPE
  5
11
100
AcDbSymbolTableRecord
100
AcDbLinetypeTableRecord
  2
BYBLOCK
 70
          64
  3

 72
          65
 73
           0
 40
0.0
  0
LTYPE
  5
12
100
AcDbSymbolTableRecord
100
AcDbLinetypeTableRecord
  2
BYLAYER
 70
          64
  3

 72
          65
 73
           0
 40
0.0
  0
LTYPE
  5
13
100
AcDbSymbolTableRecord
100
AcDbLinetypeTableRecord
  2
CONTINUOUS
 70
          64
  3
Solid line
 72
          65
 73
           0
 40
0.0
  0
LTYPE
  5
1D
100
AcDbSymbolTableRecord
100
AcDbLinetypeTableRecord
  2
DASHED
 70
          64
  3
Dashed
 72
          65
 73
           2
 40
15.0
 49
12.0
 74
           0
 49
-3.0
 74
           0
  0
LTYPE
  5
1E
100
AcDbSymbolTableRecord
100
AcDbLinetypeTableRecord
  2
DOTTED
 70
          64
  3
Dotted
 72
          65
 73
           2
 40
3.5
 49
0.5
 74
           0
 49
-3.0
 74
           0
  0
LTYPE
  5
1F
100
AcDbSymbolTableRecord
100
AcDbLinetypeTableRecord
  2
DOT_CENTER
 70
          64
  3
Dot_Center
 72
          65
 73
           4
 40
2.0
 49
1.25
 74
           0
 49
-0.25
 74
           0
 49
0.25
 74
           0
 49
-0.25
 74
           0
  0
LTYPE
  5
20
100
AcDbSymbolTableRecord
100
AcDbLinetypeTableRecord
  2
LONG_DASHED
 70
          64
  3
Long_Dashed
 72
          65
 73
           2
 40
2.0
 49
1.5
 74
           0
 49
-0.5
 74
           0
  0
LTYPE
  5
21
100
AcDbSymbolTableRecord
100
AcDbLinetypeTableRecord
  2
DASH_CENTER
 70
          64
  3
Dash_Center
 72
          65
 73
           4
 40
36.0
 49
24.0
 74
           0
 49
-3.0
 74
           0
 49
6.0
 74
           0
 49
-3.0
 74
           0
  0
LTYPE
  5
22
100
AcDbSymbolTableRecord
100
AcDbLinetypeTableRecord
  2
PHANTOM
 70
          64
  3
Phantom
 72
          65
 73
           6
 40
2.5
 49
1.25
 74
           0
 49
-0.25
 74
           0
 49
0.25
 74
           0
 49
-0.25
 74
           0
 49
0.25
 74
           0
 49
-0.25
 74
           0
  0
LTYPE
  5
23
100
AcDbSymbolTableRecord
100
AcDbLinetypeTableRecord
  2
CENTER_DASH_DASH
 70
          64
  3
Center_Dash_Dash
 72
          65
 73
           6
 40
22.0
 49
12.0
 74
           0
 49
-3.0
 74
           0
 49
0.5
 74
           0
 49
-3.0
 74
           0
 49
0.5
 74
           0
 49
-3.0
 74
           0
  0
ENDTAB
  0
TABLE
  2
LAYER
  5
2
100
AcDbSymbolTable
 70
           3
  0
LAYER
  5
14
100
AcDbSymbolTableRecord
100
AcDbLayerTableRecord
  2
0
 70
           0
 62
           7
  6
CONTINUOUS
  0
LAYER
  5
24
100
AcDbSymbolTableRecord
100
AcDbLayerTableRecord
  2
1
 70
           0
 62
           7
  6
CONTINUOUS
  0
LAYER
  5
25
100
AcDbSymbolTableRecord
100
AcDbLayerTableRecord
  2
2
 70
           0
 62
           7
  6
CONTINUOUS
  0
ENDTAB
  0
TABLE
  2
STYLE
  5
3
100
AcDbSymbolTable
 70
           3
  0
STYLE
  5
17
100
AcDbSymbolTableRecord
100
AcDbTextStyleTableRecord
  2
STANDARD
 70
           0
 40
0.0
 41
1.0
 50
0.0
 71
           0
 42
0.0
  3
txt
  4

  0
STYLE
  5
2E8
100
AcDbSymbolTableRecord
100
AcDbTextStyleTableRecord
  2
CONVERTER_1
 70
           0
 40
0.0
 41
0.9
 50
0.0
 71
           0
 42
0.0
  3
txt.shx
  4

  0
STYLE
  5
2EB
100
AcDbSymbolTableRecord
100
AcDbTextStyleTableRecord
  2
CONVERTER_2
 70
           0
 40
0.0
 41
0.81
 50
0.0
 71
           0
 42
0.0
  3
txt.shx
  4

  0
ENDTAB
  0
TABLE
  2
VIEW
  5
5
100
AcDbSymbolTable
 70
           0
  0
ENDTAB
  0
TABLE
  2
UCS
  5
6
100
AcDbSymbolTable
 70
           0
  0
ENDTAB
  0
TABLE
  2
APPID
  5
8
100
AcDbSymbolTable
 70
           1
  0
APPID
  5
16
100
AcDbSymbolTableRecord
100
AcDbRegAppTableRecord
  2
ACAD
 70
           0
  0
ENDTAB
  0
TABLE
  2
DIMSTYLE
  5
9
100
AcDbSymbolTable
 70
           1
  0
DIMSTYLE
105
18
100
AcDbSymbolTableRecord
100
AcDbDimStyleTableRecord
  2
STANDARD
 70
           0
  3

  4

  5

  6

  7

 40
1.0
 41
0.18
 42
0.0625
 43
0.38
 44
0.18
 45
0.0
 46
0.0
 47
0.0
 48
0.0
 71
           0
 72
           0
 73
           1
 74
           1
 75
           0
 76
           0
 77
           0
 78
           0
140
0.18
141
0.09
142
0.0
143
25.4
144
1.0
145
0.0
146
1.0
147
0.09
170
           0
171
           2
172
           0
173
           0
174
           0
175
           0
176
           0
177
           0
178
           0
270
           2
271
           4
272
           4
273
           2
274
           2
275
           0
280
           0
281
           0
282
           0
283
           1
284
           0
285
           0
286
           0
287
           0
288
           0
340
17
  0
ENDTAB
  0
TABLE
  2
BLOCK_RECORD
  5
1
100
AcDbSymbolTable
 70
           2
  0
BLOCK_RECORD
  5
A
100
AcDbSymbolTableRecord
100
AcDbBlockTableRecord
  2
*MODEL_SPACE
  0
BLOCK_RECORD
  5
B
100
AcDbSymbolTableRecord
100
AcDbBlockTableRecord
  2
*PAPER_SPACE
  0
BLOCK_RECORD
  5
26
100
AcDbSymbolTableRecord
100
AcDbBlockTableRecord
  2
RETAINER
  0
BLOCK_RECORD
  5
28
100
AcDbSymbolTableRecord
100
AcDbBlockTableRecord
  2
WBG_025_F
  0
ENDTAB
  0
ENDSEC
  0
SECTION
  2
BLOCKS
  0
BLOCK
  5
D
100
AcDbEntity
  8
0
100
AcDbBlockBegin
  2
*MODEL_SPACE
 70
           0
 10
0.0
 20
0.0
 30
0.0
  3
*MODEL_SPACE
  1

  0
ENDBLK
  5
E
100
AcDbEntity
  8
0
100
AcDbBlockEnd
  0
BLOCK
  5
F
100
AcDbEntity
 67
           1
  8
0
100
AcDbBlockBegin
  2
*PAPER_SPACE
 70
           0
 10
0.0
 20
0.0
 30
0.0
  3
*PAPER_SPACE
  1

  0
ENDBLK
  5
10
100
AcDbEntity
 67
           1
  8
0
100
AcDbBlockEnd
  0
BLOCK
  5
27
100
AcDbEntity
  8
0
100
AcDbBlockBegin
  2
RETAINER
 70
           0
 10
0.0
 20
0.0
 30
0.0
  3
RETAINER
  1

  0
ENDBLK
  5
2E
100
AcDbEntity
  8
0
100
AcDbBlockEnd
  0
BLOCK
  5
29
100
AcDbEntity
  8
0
100
AcDbBlockBegin
  2
WBG_025_F
 70
           0
 10
0.0
 20
0.0
 30
0.0
  3
WBG_025_F
  1

  0
INSERT
  5
2A
100
AcDbEntity
  8
0
100
AcDbBlockReference
  2
RETAINER
 10
0.0
 20
0.0
  0
ENDBLK
  5
2F
100
AcDbEntity
  8
0
100
AcDbBlockEnd
  0
ENDSEC
  0
SECTION
  2
ENTITIES
  0
TEXT
  5
2F4
100
AcDbEntity
  8
1
 62
           7
100
AcDbText
 10
-474.813214124662
 20
311.577818596133
 40
5.0
  1
The reference drawing
 41
0.81
  7
CONVERTER_2
100
AcDbText
  0
TEXT
  5
2F3
100
AcDbEntity
  8
1
 62
           3
100
AcDbText
 10
-476.324414931926
 20
303.558542922429
 40
3.5
  1
All speciffcations and dimensions mentioned in the drawing are
 41
0.81
  7
CONVERTER_2
100
AcDbText
  0
TEXT
  5
2F2
100
AcDbEntity
  8
1
 62
           3
100
AcDbText
 10
-476.324414931926
 20
296.598542922429
 40
3.5
  1
subject to change without notification.
 41
0.81
  7
CONVERTER_2
100
AcDbText
  0
TEXT
  5
2F1
100
AcDbEntity
  8
1
 62
           3
100
AcDbText
 10
-476.324414931926
 20
289.638542922429
 40
3.5
  1
This drawing itself is also a property of Harmonic Drive Systems,Ins.
 41
0.81
  7
CONVERTER_2
100
AcDbText
  0
TEXT
  5
2F0
100
AcDbEntity
  8
1
 62
           3
100
AcDbText
 10
-476.324414931926
 20
278.718542922429
 40
3.5
  1
Harmonic Drive Systems,Inc.
 41
0.81
  7
CONVERTER_2
100
AcDbText
  0
TEXT
  5
2EF
100
AcDbEntity
  8
1
 62
           3
100
AcDbText
 10
-476.324414931926
 20
271.758542922429
 40
3.5
  1
Ichigo Omori Bldg.,4F 6-25-3 Minami-Oi, Shinagawa-ku, Tokyo 140-0013
 41
0.81
  7
CONVERTER_2
100
AcDbText
  0
TEXT
  5
2EE
100
AcDbEntity
  8
1
 62
           3
100
AcDbText
 10
-476.324414931926
 20
264.798542922429
 40
3.5
  1
JAPAN
 41
0.81
  7
CONVERTER_2
100
AcDbText
  0
TEXT
  5
2ED
100
AcDbEntity
  8
1
 62
           3
100
AcDbText
 10
-476.324414931926
 20
257.838542922429
 40
3.5
  1
Tel.03-5471-7800 Fax.03-5471-7811
 41
0.81
  7
CONVERTER_2
100
AcDbText
  0
TEXT
  5
2EC
100
AcDbEntity
  8
1
 62
           3
100
AcDbText
 10
-476.324414931926
 20
250.878542922429
 40
3.5
  1
http://www.hds.co.jp
 41
0.81
  7
CONVERTER_2
100
AcDbText
  0
MTEXT
  5
2EA
100
AcDbEntity
  8
1
 62
           3
100
AcDbMText
 10
-232.456600471171
 20
319.471297045902
 30
0.0
 40
3.5
 41
0.0
 71
           5
 72
           1
  1
CSG-25-50-2UH-LW-SP-B
  7
CONVERTER_1
  0
MTEXT
  5
2E9
100
AcDbEntity
  8
1
 62
           3
100
AcDbMText
 10
-238.706600471171
 20
310.846297045902
 30
0.0
 40
4.5
 41
0.0
 71
           6
 72
           1
  1
C007682
  7
CONVERTER_1
  0
LEADER
  5
2E7
100
AcDbEntity
  8
1
  6
CONTINUOUS
 62
           7
100
AcDbLeader
  3
Standard
 71
           0
 73
           3
 74
           0
 75
           0
 40
0.0
 76
           2
 10
-412.196166687259
 20
414.312985091296
 30
0.0
 10
-412.096166687259
 20
414.312985091295
 30
0.0
 77
           7
  0
LEADER
  5
2E4
100
AcDbEntity
  8
1
  6
CONTINUOUS
 62
           7
100
AcDbLeader
  3
Standard
 71
           0
 73
           3
 74
           0
 75
           0
 40
0.0
 76
           2
 10
-419.23171590789
 20
407.277435870664
 30
0.0
 10
-419.131715907891
 20
407.277435870664
 30
0.0
 77
           7
  0
LEADER
  5
2E1
100
AcDbEntity
  8
1
  6
CONTINUOUS
 62
           7
100
AcDbLeader
  3
Standard
 71
           0
 73
           3
 74
           0
 75
           0
 40
0.0
 76
           2
 10
-429.181485034451
 20
407.277435870664
 30
0.0
 10
-429.081485034451
 20
407.277435870664
 30
0.0
 77
           7
  0
LEADER
  5
2DE
100
AcDbEntity
  8
1
  6
CONTINUOUS
 62
           7
100
AcDbLeader
  3
Standard
 71
           0
 73
           3
 74
           0
 75
           0
 40
0.0
 76
           2
 10
-419.231715907891
 20
431.298303438488
 30
0.0
 10
-419.131715907891
 20
431.298303438488
 30
0.0
 77
           7
  0
LEADER
  5
2DB
100
AcDbEntity
  8
1
  6
CONTINUOUS
 62
           7
100
AcDbLeader
  3
Standard
 71
           0
 73
           3
 74
           0
 75
           0
 40
0.0
 76
           2
 10
-429.181485034452
 20
431.298303438488
 30
0.0
 10
-429.081485034451
 20
431.298303438488
 30
0.0
 77
           7
  0
LEADER
  5
2D8
100
AcDbEntity
  8
1
  6
CONTINUOUS
 62
           7
100
AcDbLeader
  3
Standard
 71
           0
 73
           3
 74
           0
 75
           0
 40
0.0
 76
           2
 10
-436.217034255083
 20
424.262754217856
 30
0.0
 10
-436.117034255083
 20
424.262754217856
 30
0.0
 77
           7
  0
LEADER
  5
2D5
100
AcDbEntity
  8
1
  6
CONTINUOUS
 62
           7
100
AcDbLeader
  3
Standard
 71
           0
 73
           3
 74
           0
 75
           0
 40
0.0
 76
           2
 10
-434.813202188969
 20
429.894471372374
 30
0.0
 10
-434.713202188969
 20
429.894471372374
 30
0.0
 77
           7
  0
LEADER
  5
2D2
100
AcDbEntity
  8
1
  6
CONTINUOUS
 62
           7
100
AcDbLeader
  3
Standard
 71
           0
 73
           3
 74
           0
 75
           0
 40
0.0
 76
           2
 10
-439.206600471171
 20
419.287869654576
 30
0.0
 10
-439.106600471171
 20
419.287869654576
 30
0.0
 77
           7
  0
LEADER
  5
2CF
100
AcDbEntity
  8
1
  6
CONTINUOUS
 62
           7
100
AcDbLeader
  3
Standard
 71
           0
 73
           3
 74
           0
 75
           0
 40
0.0
 76
           2
 10
-434.813202188969
 20
408.681267936778
 30
0.0
 10
-434.713202188969
 20
408.681267936778
 30
0.0
 77
           7
  0
LEADER
  5
2CC
100
AcDbEntity
  8
1
  6
CONTINUOUS
 62
           7
100
AcDbLeader
  3
Standard
 71
           0
 73
           3
 74
           0
 75
           0
 40
0.0
 76
           2
 10
-424.206600471171
 20
404.287869654576
 30
0.0
 10
-424.106600471171
 20
404.287869654576
 30
0.0
 77
           7
  0
LEADER
  5
2C9
100
AcDbEntity
  8
1
  6
CONTINUOUS
 62
           7
100
AcDbLeader
  3
Standard
 71
           0
 73
           3
 74
           0
 75
           0
 40
0.0
 76
           2
 10
-413.599998753373
 20
408.681267936777
 30
0.0
 10
-413.499998753373
 20
408.681267936777
 30
0.0
 77
           7
  0
LEADER
  5
2C6
100
AcDbEntity
  8
1
  6
CONTINUOUS
 62
           7
100
AcDbLeader
  3
Standard
 71
           0
 73
           3
 74
           0
 75
           0
 40
0.0
 76
           2
 10
-409.206600471171
 20
419.287869654576
 30
0.0
 10
-409.106600471171
 20
419.287869654576
 30
0.0
 77
           7
  0
LEADER
  5
2C3
100
AcDbEntity
  8
1
  6
CONTINUOUS
 62
           7
100
AcDbLeader
  3
Standard
 71
           0
 73
           3
 74
           0
 75
           0
 40
0.0
 76
           2
 10
-413.599998753373
 20
429.894471372374
 30
0.0
 10
-413.499998753373
 20
429.894471372374
 30
0.0
 77
           7
  0
LEADER
  5
2C0
100
AcDbEntity
  8
1
  6
CONTINUOUS
 62
           7
100
AcDbLeader
  3
Standard
 71
           0
 73
           3
 74
           0
 75
           0
 40
0.0
 76
           2
 10
-424.206600471171
 20
434.287869654576
 30
0.0
 10
-424.106600471171
 20
434.287869654576
 30
0.0
 77
           7
  0
LEADER
  5
2BD
100
AcDbEntity
  8
1
  6
CONTINUOUS
 62
           7
100
AcDbLeader
  3
Standard
 71
           0
 73
           3
 74
           0
 75
           0
 40
0.0
 76
           2
 10
-412.196166687259
 20
424.262754217856
 30
0.0
 10
-412.12545600914
 20
424.333464895975
 30
0.0
 77
           7
  0
LEADER
  5
2BA
100
AcDbEntity
  8
1
  6
CONTINUOUS
 62
           7
100
AcDbLeader
  3
Standard
 71
           0
 73
           3
 74
           0
 75
           0
 40
0.0
 76
           2
 10
-436.217034255083
 20
414.312985091295
 30
0.0
 10
-436.146323576964
 20
414.383695769414
 30
0.0
 77
           7
  0
LEADER
  5
2B7
100
AcDbEntity
  8
1
  6
DASH_CENTER
 62
           7
100
AcDbLeader
  3
Standard
 71
           0
 73
           3
 74
           0
 75
           0
 40
0.0
 76
           2
 10
-385.373784741174
 20
447.501561764614
 30
0.0
 10
-385.307118074507
 20
447.501561764614
 30
0.0
 77
           7
  0
LEADER
  5
2B4
100
AcDbEntity
  8
1
  6
DASH_CENTER
 62
           7
100
AcDbLeader
  3
Standard
 71
           0
 73
           3
 74
           0
 75
           0
 40
0.0
 76
           2
 10
-409.373784741173
 20
464.938582436743
 30
0.0
 10
-409.319850274882
 20
464.977768120229
 30
0.0
 77
           7
  0
LEADER
  5
2B1
100
AcDbEntity
  8
1
  6
DASH_CENTER
 62
           7
100
AcDbLeader
  3
Standard
 71
           0
 73
           3
 74
           0
 75
           0
 40
0.0
 76
           2
 10
-439.039416201168
 20
464.938582436743
 30
0.0
 10
-439.01881506821
 20
465.001986204496
 30
0.0
 77
           7
  0
LEADER
  5
2AE
100
AcDbEntity
  8
1
  6
DASH_CENTER
 62
           7
100
AcDbLeader
  3
Standard
 71
           0
 73
           3
 74
           0
 75
           0
 40
0.0
 76
           2
 10
-463.039416201168
 20
447.501561764615
 30
0.0
 10
-463.060017334127
 20
447.564965532368
 30
0.0
 77
           7
  0
LEADER
  5
2AB
100
AcDbEntity
  8
1
  6
DASH_CENTER
 62
           7
100
AcDbLeader
  3
Standard
 71
           0
 73
           3
 74
           0
 75
           0
 40
0.0
 76
           2
 10
-472.206600471171
 20
419.287869654576
 30
0.0
 10
-472.260534937463
 20
419.327055338062
 30
0.0
 77
           7
  0
LEADER
  5
2A8
100
AcDbEntity
  8
1
  6
DASH_CENTER
 62
           7
100
AcDbLeader
  3
Standard
 71
           0
 73
           3
 74
           0
 75
           0
 40
0.0
 76
           2
 10
-463.039416201168
 20
391.074177544537
 30
0.0
 10
-463.106082867835
 20
391.074177544537
 30
0.0
 77
           7
  0
LEADER
  5
2A5
100
AcDbEntity
  8
1
  6
DASH_CENTER
 62
           7
100
AcDbLeader
  3
Standard
 71
           0
 73
           3
 74
           0
 75
           0
 40
0.0
 76
           2
 10
-439.039416201169
 20
373.637156872409
 30
0.0
 10
-439.09335066746
 20
373.597971188922
 30
0.0
 77
           7
  0
LEADER
  5
2A2
100
AcDbEntity
  8
1
  6
DASH_CENTER
 62
           7
100
AcDbLeader
  3
Standard
 71
           0
 73
           3
 74
           0
 75
           0
 40
0.0
 76
           2
 10
-409.373784741174
 20
373.637156872409
 30
0.0
 10
-409.394385874132
 20
373.573753104655
 30
0.0
 77
           7
  0
LEADER
  5
29F
100
AcDbEntity
  8
1
  6
DASH_CENTER
 62
           7
100
AcDbLeader
  3
Standard
 71
           0
 73
           3
 74
           0
 75
           0
 40
0.0
 76
           2
 10
-385.373784741174
 20
391.074177544537
 30
0.0
 10
-385.353183608215
 20
391.010773776784
 30
0.0
 77
           7
  0
LEADER
  5
29C
100
AcDbEntity
  8
1
  6
DASH_CENTER
 62
           7
100
AcDbLeader
  3
Standard
 71
           0
 73
           3
 74
           0
 75
           0
 40
0.0
 76
           2
 10
-376.206600471171
 20
419.287869654576
 30
0.0
 10
-376.152666004879
 20
419.24868397109
 30
0.0
 77
           7
  0
ARC
  5
299
100
AcDbEntity
  8
1
  6
CONTINUOUS
 62
           7
100
AcDbCircle
 10
-344.406600471156
 20
377.487869654576
 40
0.707106781186
100
AcDbArc
 50
-171.86989764585
 51
-81.869897645837
  0
ARC
  5
298
100
AcDbEntity
  8
1
  6
CONTINUOUS
 62
           7
100
AcDbCircle
 10
-348.706600471156
 20
384.587869654576
 40
0.8
100
AcDbArc
 50
-179.999999999996
 51
-89.999999999988
  0
ARC
  5
297
100
AcDbEntity
  8
1
  6
CONTINUOUS
 62
           7
100
AcDbCircle
 10
-348.706600471156
 20
453.987869654576
 40
0.8
100
AcDbArc
 50
89.999999999988
 51
179.999999999991
  0
ARC
  5
296
100
AcDbEntity
  8
1
  6
CONTINUOUS
 62
           7
100
AcDbCircle
 10
-344.406600471156
 20
461.087869654576
 40
0.707106781186
100
AcDbArc
 50
81.869897645836
 51
171.86989764585
  0
ARC
  5
295
100
AcDbEntity
  8
1
  6
CONTINUOUS
 62
           7
100
AcDbCircle
 10
-328.456600471156
 20
431.037869654576
 40
0.25
100
AcDbArc
 50
0.0
 51
90.0
  0
ARC
  5
294
100
AcDbEntity
  8
1
  6
CONTINUOUS
 62
           7
100
AcDbCircle
 10
-328.456600471156
 20
437.537869654576
 40
0.25
100
AcDbArc
 50
-90.0
 51
0.0
  0
ARC
  5
293
100
AcDbEntity
  8
1
  6
CONTINUOUS
 62
           7
100
AcDbCircle
 10
-315.006600471101
 20
464.587869654576
 40
0.2
100
AcDbArc
 50
90.0
 51
180.0
  0
ARC
  5
292
100
AcDbEntity
  8
1
  6
CONTINUOUS
 62
           7
100
AcDbCircle
 10
-315.006600471101
 20
469.987869654576
 40
0.2
100
AcDbArc
 50
180.0
 51
-90.0
  0
CIRCLE
  5
291
100
AcDbEntity
  8
1
  6
DASH_CENTER
 62
           3
100
AcDbCircle
 10
-424.206600471171
 20
419.287869654576
 40
12.999999849835
  0
CIRCLE
  5
290
100
AcDbEntity
  8
1
  6
CONTINUOUS
 62
           7
100
AcDbCircle
 10
-424.206600471171
 20
419.287869654576
 40
7.499999849835
  0
CIRCLE
  5
28F
100
AcDbEntity
  8
1
  6
CONTINUOUS
 62
           7
100
AcDbCircle
 10
-404.805130288434
 20
411.251517574909
 40
3.2
  0
CIRCLE
  5
28E
100
AcDbEntity
  8
1
  6
CONTINUOUS
 62
           3
100
AcDbCircle
 10
-404.805130288434
 20
411.251517574909
 40
4.0
  0
CIRCLE
  5
28D
100
AcDbEntity
  8
1
  6
CONTINUOUS
 62
           7
100
AcDbCircle
 10
-416.170248391504
 20
399.886399471839
 40
3.2
  0
CIRCLE
  5
28C
100
AcDbEntity
  8
1
  6
CONTINUOUS
 62
           3
100
AcDbCircle
 10
-416.170248391504
 20
399.886399471839
 40
4.0
  0
CIRCLE
  5
28B
100
AcDbEntity
  8
1
  6
CONTINUOUS
 62
           7
100
AcDbCircle
 10
-432.242952550838
 20
399.886399471839
 40
3.2
  0
CIRCLE
  5
28A
100
AcDbEntity
  8
1
  6
CONTINUOUS
 62
           3
100
AcDbCircle
 10
-432.242952550838
 20
399.886399471839
 40
4.0
  0
CIRCLE
  5
289
100
AcDbEntity
  8
1
  6
CONTINUOUS
 62
           7
100
AcDbCircle
 10
-443.608070653908
 20
411.251517574909
 40
3.2
  0
CIRCLE
  5
288
100
AcDbEntity
  8
1
  6
CONTINUOUS
 62
           3
100
AcDbCircle
 10
-443.608070653908
 20
411.251517574909
 40
4.0
  0
CIRCLE
  5
287
100
AcDbEntity
  8
1
  6
CONTINUOUS
 62
           7
100
AcDbCircle
 10
-443.608070653908
 20
427.324221734243
 40
3.2
  0
CIRCLE
  5
286
100
AcDbEntity
  8
1
  6
CONTINUOUS
 62
           3
100
AcDbCircle
 10
-443.608070653908
 20
427.324221734243
 40
4.0
  0
CIRCLE
  5
285
100
AcDbEntity
  8
1
  6
CONTINUOUS
 62
           7
100
AcDbCircle
 10
-432.242952550838
 20
438.689339837313
 40
3.2
  0
CIRCLE
  5
284
100
AcDbEntity
  8
1
  6
CONTINUOUS
 62
           3
100
AcDbCircle
 10
-432.242952550838
 20
438.689339837313
 40
4.0
  0
CIRCLE
  5
283
100
AcDbEntity
  8
1
  6
CONTINUOUS
 62
           7
100
AcDbCircle
 10
-416.170248391504
 20
438.689339837313
 40
3.2
  0
CIRCLE
  5
282
100
AcDbEntity
  8
1
  6
CONTINUOUS
 62
           3
100
AcDbCircle
 10
-416.170248391504
 20
438.689339837313
 40
4.0
  0
CIRCLE
  5
281
100
AcDbEntity
  8
1
  6
CONTINUOUS
 62
           7
100
AcDbCircle
 10
-404.805130288434
 20
427.324221734243
 40
3.2
  0
CIRCLE
  5
280
100
AcDbEntity
  8
1
  6
CONTINUOUS
 62
           3
100
AcDbCircle
 10
-404.805130288434
 20
427.324221734243
 40
4.0
  0
CIRCLE
  5
27F
100
AcDbEntity
  8
1
  6
DASH_CENTER
 62
           3
100
AcDbCircle
 10
-424.206600471171
 20
419.287869654576
 40
21.0
  0
CIRCLE
  5
27E
100
AcDbEntity
  8
1
  6
CONTINUOUS
 62
           7
100
AcDbCircle
 10
-424.206600471171
 20
419.287869654576
 40
9.999999849835
  0
CIRCLE
  5
27D
100
AcDbEntity
  8
1
  6
CONTINUOUS
 62
           7
100
AcDbCircle
 10
-424.206600471171
 20
419.287869654576
 40
26.3
  0
CIRCLE
  5
27C
100
AcDbEntity
  8
1
  6
DASH_CENTER
 62
           3
100
AcDbCircle
 10
-424.206600471171
 20
419.287869654576
 40
15.0
  0
CIRCLE
  5
27B
100
AcDbEntity
  8
1
  6
CONTINUOUS
 62
           7
100
AcDbCircle
 10
-424.206600471171
 20
419.287869654576
 40
42.999999361668
  0
CIRCLE
  5
27A
100
AcDbEntity
  8
1
  6
DASH_CENTER
 62
           3
100
AcDbCircle
 10
-424.206600471171
 20
419.287869654576
 40
38.74999936157
  0
CIRCLE
  5
279
100
AcDbEntity
  8
1
  6
CONTINUOUS
 62
           7
100
AcDbCircle
 10
-424.206600471171
 20
419.287869654576
 40
29.0
  0
CIRCLE
  5
278
100
AcDbEntity
  8
1
  6
CONTINUOUS
 62
           7
100
AcDbCircle
 10
-424.206600471171
 20
419.287869654576
 40
35.654178710096
  0
CIRCLE
  5
277
100
AcDbEntity
  8
1
  6
CONTINUOUS
 62
           7
100
AcDbCircle
 10
-424.206600471171
 20
419.287869654576
 40
27.65
  0
CIRCLE
  5
276
100
AcDbEntity
  8
1
  6
CONTINUOUS
 62
           7
100
AcDbCircle
 10
-192.206600471171
 20
419.287869654576
 40
67.5
  0
CIRCLE
  5
275
100
AcDbEntity
  8
1
  6
CONTINUOUS
 62
           7
100
AcDbCircle
 10
-192.206600471171
 20
419.287869654576
 40
37.0
  0
CIRCLE
  5
274
100
AcDbEntity
  8
1
  6
CONTINUOUS
 62
           7
100
AcDbCircle
 10
-192.206600471171
 20
419.287869654576
 40
34.3
  0
CIRCLE
  5
273
100
AcDbEntity
  8
1
  6
CONTINUOUS
 62
           7
100
AcDbCircle
 10
-192.206600471171
 20
419.287869654576
 40
29.99999932945
  0
CIRCLE
  5
272
100
AcDbEntity
  8
1
  6
CONTINUOUS
 62
           7
100
AcDbCircle
 10
-192.206600471171
 20
419.287869654576
 40
9.0
  0
CIRCLE
  5
271
100
AcDbEntity
  8
1
  6
CONTINUOUS
 62
           7
100
AcDbCircle
 10
-192.206600471171
 20
419.287869654576
 40
7.0
  0
CIRCLE
  5
270
100
AcDbEntity
  8
1
  6
CONTINUOUS
 62
           7
100
AcDbCircle
 10
-216.124314993989
 20
477.030340436531
 40
2.75
  0
CIRCLE
  5
26F
100
AcDbEntity
  8
1
  6
CONTINUOUS
 62
           7
100
AcDbCircle
 10
-249.949071253126
 20
443.205584177394
 40
2.75
  0
CIRCLE
  5
26E
100
AcDbEntity
  8
1
  6
CONTINUOUS
 62
           7
100
AcDbCircle
 10
-249.949071253126
 20
395.370155131758
 40
2.75
  0
CIRCLE
  5
26D
100
AcDbEntity
  8
1
  6
CONTINUOUS
 62
           7
100
AcDbCircle
 10
-216.124314993989
 20
361.54539887262
 40
2.75
  0
CIRCLE
  5
26C
100
AcDbEntity
  8
1
  6
CONTINUOUS
 62
           7
100
AcDbCircle
 10
-168.288885948353
 20
361.54539887262
 40
2.75
  0
CIRCLE
  5
26B
100
AcDbEntity
  8
1
  6
CONTINUOUS
 62
           7
100
AcDbCircle
 10
-134.464129689216
 20
395.370155131758
 40
2.75
  0
CIRCLE
  5
26A
100
AcDbEntity
  8
1
  6
CONTINUOUS
 62
           7
100
AcDbCircle
 10
-134.464129689216
 20
443.205584177394
 40
2.75
  0
CIRCLE
  5
269
100
AcDbEntity
  8
1
  6
CONTINUOUS
 62
           7
100
AcDbCircle
 10
-168.288885948353
 20
477.030340436531
 40
2.75
  0
CIRCLE
  5
268
100
AcDbEntity
  8
1
  6
DASH_CENTER
 62
           3
100
AcDbCircle
 10
-192.206600471171
 20
419.287869654576
 40
62.5
  0
CIRCLE
  5
267
100
AcDbEntity
  8
1
  6
CONTINUOUS
 62
           3
100
AcDbCircle
 10
-227.208386139905
 20
384.286083985842
 40
3.0
  0
CIRCLE
  5
266
100
AcDbEntity
  8
1
  6
CONTINUOUS
 62
           7
100
AcDbCircle
 10
-227.208386139905
 20
384.286083985842
 40
2.4
  0
CIRCLE
  5
265
100
AcDbEntity
  8
1
  6
CONTINUOUS
 62
           7
100
AcDbCircle
 10
-157.204814802437
 20
384.286083985842
 40
2.4
  0
CIRCLE
  5
264
100
AcDbEntity
  8
1
  6
CONTINUOUS
 62
           3
100
AcDbCircle
 10
-157.204814802437
 20
384.286083985842
 40
3.0
  0
CIRCLE
  5
263
100
AcDbEntity
  8
1
  6
CONTINUOUS
 62
           7
100
AcDbCircle
 10
-157.204814802437
 20
454.28965532331
 40
2.4
  0
CIRCLE
  5
262
100
AcDbEntity
  8
1
  6
CONTINUOUS
 62
           3
100
AcDbCircle
 10
-157.204814802437
 20
454.28965532331
 40
3.0
  0
CIRCLE
  5
261
100
AcDbEntity
  8
1
  6
CONTINUOUS
 62
           7
100
AcDbCircle
 10
-227.208386139905
 20
454.28965532331
 40
2.4
  0
CIRCLE
  5
260
100
AcDbEntity
  8
1
  6
CONTINUOUS
 62
           3
100
AcDbCircle
 10
-227.208386139905
 20
454.28965532331
 40
3.0
  0
CIRCLE
  5
25F
100
AcDbEntity
  8
1
  6
DASHED
 62
           3
100
AcDbCircle
 10
-237.857313253339
 20
434.120685384573
 40
2.5
  0
CIRCLE
  5
25E
100
AcDbEntity
  8
1
  6
DASHED
 62
           4
100
AcDbCircle
 10
-237.857313253339
 20
434.120685384573
 40
2.0
  0
CIRCLE
  5
25D
100
AcDbEntity
  8
1
  6
DASHED
 62
           4
100
AcDbCircle
 10
-237.857313253338
 20
404.455053924578
 40
2.0
  0
CIRCLE
  5
25C
100
AcDbEntity
  8
1
  6
DASHED
 62
           3
100
AcDbCircle
 10
-237.857313253338
 20
404.455053924578
 40
2.5
  0
CIRCLE
  5
25B
100
AcDbEntity
  8
1
  6
DASHED
 62
           3
100
AcDbCircle
 10
-220.42029258121
 20
380.455053924578
 40
2.5
  0
CIRCLE
  5
25A
100
AcDbEntity
  8
1
  6
DASHED
 62
           4
100
AcDbCircle
 10
-220.42029258121
 20
380.455053924578
 40
2.0
  0
CIRCLE
  5
259
100
AcDbEntity
  8
1
  6
DASHED
 62
           4
100
AcDbCircle
 10
-192.206600471171
 20
371.287869654576
 40
2.0
  0
CIRCLE
  5
258
100
AcDbEntity
  8
1
  6
DASHED
 62
           3
100
AcDbCircle
 10
-192.206600471171
 20
371.287869654576
 40
2.5
  0
CIRCLE
  5
257
100
AcDbEntity
  8
1
  6
DASHED
 62
           4
100
AcDbCircle
 10
-163.992908361132
 20
380.455053924578
 40
2.0
  0
CIRCLE
  5
256
100
AcDbEntity
  8
1
  6
DASHED
 62
           3
100
AcDbCircle
 10
-163.992908361132
 20
380.455053924578
 40
2.5
  0
CIRCLE
  5
255
100
AcDbEntity
  8
1
  6
DASHED
 62
           3
100
AcDbCircle
 10
-146.555887689004
 20
404.455053924578
 40
2.5
  0
CIRCLE
  5
254
100
AcDbEntity
  8
1
  6
DASHED
 62
           4
100
AcDbCircle
 10
-146.555887689004
 20
404.455053924578
 40
2.0
  0
CIRCLE
  5
253
100
AcDbEntity
  8
1
  6
DASHED
 62
           3
100
AcDbCircle
 10
-146.555887689004
 20
434.120685384573
 40
2.5
  0
CIRCLE
  5
252
100
AcDbEntity
  8
1
  6
DASHED
 62
           4
100
AcDbCircle
 10
-146.555887689004
 20
434.120685384573
 40
2.0
  0
CIRCLE
  5
251
100
AcDbEntity
  8
1
  6
DASHED
 62
           3
100
AcDbCircle
 10
-163.992908361132
 20
458.120685384573
 40
2.5
  0
CIRCLE
  5
250
100
AcDbEntity
  8
1
  6
DASHED
 62
           4
100
AcDbCircle
 10
-163.992908361132
 20
458.120685384573
 40
2.0
  0
CIRCLE
  5
24F
100
AcDbEntity
  8
1
  6
DASHED
 62
           4
100
AcDbCircle
 10
-192.206600471171
 20
467.287869654576
 40
2.0
  0
CIRCLE
  5
24E
100
AcDbEntity
  8
1
  6
DASHED
 62
           3
100
AcDbCircle
 10
-192.206600471171
 20
467.287869654576
 40
2.5
  0
CIRCLE
  5
24D
100
AcDbEntity
  8
1
  6
DASHED
 62
           3
100
AcDbCircle
 10
-220.42029258121
 20
458.120685384573
 40
2.5
  0
CIRCLE
  5
24C
100
AcDbEntity
  8
1
  6
DASHED
 62
           4
100
AcDbCircle
 10
-220.42029258121
 20
458.120685384573
 40
2.0
  0
CIRCLE
  5
24B
100
AcDbEntity
  8
1
  6
DASH_CENTER
 62
           3
100
AcDbCircle
 10
-424.206600471171
 20
419.287869654576
 40
48.0
  0
CIRCLE
  5
24A
100
AcDbEntity
  8
1
  6
CONTINUOUS
 62
           3
100
AcDbCircle
 10
-315.706600471156
 20
419.287869654576
 40
2.5
  0
CIRCLE
  5
249
100
AcDbEntity
  8
1
  6
CONTINUOUS
 62
           7
100
AcDbCircle
 10
-315.706600471156
 20
419.287869654576
 40
2.0
  0
CIRCLE
  5
248
100
AcDbEntity
  8
1
  6
CONTINUOUS
 62
           7
100
AcDbCircle
 10
-378.555887689004
 20
434.120685384573
 40
3.730384757729
  0
CIRCLE
  5
247
100
AcDbEntity
  8
1
  6
CONTINUOUS
 62
           7
100
AcDbCircle
 10
-378.555887689004
 20
434.120685384573
 40
4.25
  0
CIRCLE
  5
246
100
AcDbEntity
  8
1
  6
CONTINUOUS
 62
           7
100
AcDbCircle
 10
-395.992908361132
 20
458.120685384573
 40
3.73038475773
  0
CIRCLE
  5
245
100
AcDbEntity
  8
1
  6
CONTINUOUS
 62
           7
100
AcDbCircle
 10
-395.992908361132
 20
458.120685384573
 40
4.25
  0
CIRCLE
  5
244
100
AcDbEntity
  8
1
  6
CONTINUOUS
 62
           7
100
AcDbCircle
 10
-404.831600790386
 20
452.846353498326
 40
2.75
  0
CIRCLE
  5
243
100
AcDbEntity
  8
1
  6
CONTINUOUS
 62
           7
100
AcDbCircle
 10
-404.831600790386
 20
452.846353498326
 40
2.403589838486
  0
CIRCLE
  5
242
100
AcDbEntity
  8
1
  6
CONTINUOUS
 62
           7
100
AcDbCircle
 10
-424.206600471171
 20
458.037869016145
 40
2.403589838486
  0
CIRCLE
  5
241
100
AcDbEntity
  8
1
  6
CONTINUOUS
 62
           7
100
AcDbCircle
 10
-424.206600471171
 20
458.037869016145
 40
2.75
  0
CIRCLE
  5
240
100
AcDbEntity
  8
1
  6
CONTINUOUS
 62
           7
100
AcDbCircle
 10
-424.206600471171
 20
467.287869654576
 40
4.25
  0
CIRCLE
  5
23F
100
AcDbEntity
  8
1
  6
CONTINUOUS
 62
           7
100
AcDbCircle
 10
-424.206600471171
 20
467.287869654576
 40
3.730384757729
  0
CIRCLE
  5
23E
100
AcDbEntity
  8
1
  6
CONTINUOUS
 62
           7
100
AcDbCircle
 10
-443.581600151956
 20
452.846353498326
 40
2.75
  0
CIRCLE
  5
23D
100
AcDbEntity
  8
1
  6
CONTINUOUS
 62
           7
100
AcDbCircle
 10
-443.581600151956
 20
452.846353498326
 40
2.403589838486
  0
CIRCLE
  5
23C
100
AcDbEntity
  8
1
  6
CONTINUOUS
 62
           7
100
AcDbCircle
 10
-452.42029258121
 20
458.120685384573
 40
3.730384757729
  0
CIRCLE
  5
23B
100
AcDbEntity
  8
1
  6
CONTINUOUS
 62
           7
100
AcDbCircle
 10
-452.42029258121
 20
458.120685384573
 40
4.25
  0
CIRCLE
  5
23A
100
AcDbEntity
  8
1
  6
CONTINUOUS
 62
           7
100
AcDbCircle
 10
-457.765084314921
 20
438.66286933536
 40
2.75
  0
CIRCLE
  5
239
100
AcDbEntity
  8
1
  6
CONTINUOUS
 62
           7
100
AcDbCircle
 10
-457.765084314921
 20
438.66286933536
 40
2.403589838486
  0
CIRCLE
  5
238
100
AcDbEntity
  8
1
  6
CONTINUOUS
 62
           7
100
AcDbCircle
 10
-469.857313253338
 20
434.120685384573
 40
3.730384757729
  0
CIRCLE
  5
237
100
AcDbEntity
  8
1
  6
CONTINUOUS
 62
           7
100
AcDbCircle
 10
-469.857313253338
 20
434.120685384573
 40
4.25
  0
CIRCLE
  5
236
100
AcDbEntity
  8
1
  6
CONTINUOUS
 62
           7
100
AcDbCircle
 10
-462.95659983274
 20
419.287869654576
 40
2.75
  0
CIRCLE
  5
235
100
AcDbEntity
  8
1
  6
CONTINUOUS
 62
           7
100
AcDbCircle
 10
-462.95659983274
 20
419.287869654576
 40
2.403589838486
  0
CIRCLE
  5
234
100
AcDbEntity
  8
1
  6
CONTINUOUS
 62
           7
100
AcDbCircle
 10
-469.857313253338
 20
404.455053924579
 40
3.73038475773
  0
CIRCLE
  5
233
100
AcDbEntity
  8
1
  6
CONTINUOUS
 62
           7
100
AcDbCircle
 10
-469.857313253338
 20
404.455053924579
 40
4.25
  0
CIRCLE
  5
232
100
AcDbEntity
  8
1
  6
CONTINUOUS
 62
           7
100
AcDbCircle
 10
-457.765084314921
 20
399.912869973791
 40
2.75
  0
CIRCLE
  5
231
100
AcDbEntity
  8
1
  6
CONTINUOUS
 62
           7
100
AcDbCircle
 10
-457.765084314921
 20
399.912869973791
 40
2.403589838486
  0
CIRCLE
  5
230
100
AcDbEntity
  8
1
  6
CONTINUOUS
 62
           7
100
AcDbCircle
 10
-443.581600151956
 20
385.729385810826
 40
2.75
  0
CIRCLE
  5
22F
100
AcDbEntity
  8
1
  6
CONTINUOUS
 62
           7
100
AcDbCircle
 10
-443.581600151956
 20
385.729385810826
 40
2.403589838486
  0
CIRCLE
  5
22E
100
AcDbEntity
  8
1
  6
CONTINUOUS
 62
           7
100
AcDbCircle
 10
-452.42029258121
 20
380.455053924578
 40
3.730384757729
  0
CIRCLE
  5
22D
100
AcDbEntity
  8
1
  6
CONTINUOUS
 62
           7
100
AcDbCircle
 10
-452.42029258121
 20
380.455053924578
 40
4.25
  0
CIRCLE
  5
22C
100
AcDbEntity
  8
1
  6
CONTINUOUS
 62
           7
100
AcDbCircle
 10
-424.206600471171
 20
371.287869654576
 40
3.730384757729
  0
CIRCLE
  5
22B
100
AcDbEntity
  8
1
  6
CONTINUOUS
 62
           7
100
AcDbCircle
 10
-424.206600471171
 20
371.287869654576
 40
4.25
  0
CIRCLE
  5
22A
100
AcDbEntity
  8
1
  6
CONTINUOUS
 62
           7
100
AcDbCircle
 10
-424.206600471171
 20
380.537870293006
 40
2.75
  0
CIRCLE
  5
229
100
AcDbEntity
  8
1
  6
CONTINUOUS
 62
           7
100
AcDbCircle
 10
-424.206600471171
 20
380.537870293006
 40
2.403589838486
  0
CIRCLE
  5
228
100
AcDbEntity
  8
1
  6
CONTINUOUS
 62
           7
100
AcDbCircle
 10
-404.831600790386
 20
385.729385810826
 40
2.75
  0
CIRCLE
  5
227
100
AcDbEntity
  8
1
  6
CONTINUOUS
 62
           7
100
AcDbCircle
 10
-404.831600790386
 20
385.729385810826
 40
2.403589838486
  0
CIRCLE
  5
226
100
AcDbEntity
  8
1
  6
CONTINUOUS
 62
           7
100
AcDbCircle
 10
-395.992908361132
 20
380.455053924579
 40
3.730384757729
  0
CIRCLE
  5
225
100
AcDbEntity
  8
1
  6
CONTINUOUS
 62
           7
100
AcDbCircle
 10
-395.992908361132
 20
380.455053924579
 40
4.25
  0
CIRCLE
  5
224
100
AcDbEntity
  8
1
  6
CONTINUOUS
 62
           7
100
AcDbCircle
 10
-378.555887689004
 20
404.455053924579
 40
3.730384757729
  0
CIRCLE
  5
223
100
AcDbEntity
  8
1
  6
CONTINUOUS
 62
           7
100
AcDbCircle
 10
-378.555887689004
 20
404.455053924579
 40
4.25
  0
CIRCLE
  5
222
100
AcDbEntity
  8
1
  6
CONTINUOUS
 62
           7
100
AcDbCircle
 10
-390.648116627421
 20
399.912869973791
 40
2.75
  0
CIRCLE
  5
221
100
AcDbEntity
  8
1
  6
CONTINUOUS
 62
           7
100
AcDbCircle
 10
-390.648116627421
 20
399.912869973791
 40
2.403589838486
  0
CIRCLE
  5
220
100
AcDbEntity
  8
1
  6
CONTINUOUS
 62
           7
100
AcDbCircle
 10
-385.456601109601
 20
419.287869654576
 40
2.75
  0
CIRCLE
  5
21F
100
AcDbEntity
  8
1
  6
CONTINUOUS
 62
           7
100
AcDbCircle
 10
-385.456601109601
 20
419.287869654576
 40
2.403589838486
  0
CIRCLE
  5
21E
100
AcDbEntity
  8
1
  6
CONTINUOUS
 62
           7
100
AcDbCircle
 10
-390.648116627421
 20
438.66286933536
 40
2.75
  0
CIRCLE
  5
21D
100
AcDbEntity
  8
1
  6
CONTINUOUS
 62
           7
100
AcDbCircle
 10
-390.648116627421
 20
438.66286933536
 40
2.403589838486
  0
ARC
  5
21C
100
AcDbEntity
  8
1
  6
PHANTOM
 62
           7
100
AcDbCircle
 10
-300.324414931926
 20
252.890248337061
 40
12.0
100
AcDbArc
 50
-90.0
 51
0.0
  0
ARC
  5
21B
100
AcDbEntity
  8
1
  6
PHANTOM
 62
           7
100
AcDbCircle
 10
-300.324414931926
 20
312.890248337061
 40
12.0
100
AcDbArc
 50
0.0
 51
90.0
  0
ARC
  5
21A
100
AcDbEntity
  8
1
  6
PHANTOM
 62
           7
100
AcDbCircle
 10
-472.324414931926
 20
312.890248337061
 40
12.0
100
AcDbArc
 50
90.0
 51
180.0
  0
ARC
  5
219
100
AcDbEntity
  8
1
  6
PHANTOM
 62
           7
100
AcDbCircle
 10
-472.324414931926
 20
252.890248337061
 40
12.0
100
AcDbArc
 50
180.0
 51
-90.0
  0
ARC
  5
218
100
AcDbEntity
  8
1
  6
CONTINUOUS
 62
           3
100
AcDbCircle
 10
-308.895034270214
 20
453.903936206495
 40
4.000000000001
100
AcDbArc
 50
22.763708485684
 51
83.590440698081
  0
ARC
  5
217
100
AcDbEntity
  8
1
  6
CONTINUOUS
 62
           3
100
AcDbCircle
 10
-306.908766154426
 20
466.74624610975
 40
8.999999999999
100
AcDbArc
 50
-157.217518089033
 51
-99.850677827856
  0
ARC
  5
216
100
AcDbEntity
  8
1
  6
CONTINUOUS
 62
           3
100
AcDbCircle
 10
-313.63402803876
 20
456.984242424795
 40
17.0
100
AcDbArc
 50
-73.658404933926
 51
-47.762784732614
  0
ARC
  5
215
100
AcDbEntity
  8
1
  6
CONTINUOUS
 62
           3
100
AcDbCircle
 10
-311.364125800795
 20
448.265982345646
 40
8.0
100
AcDbArc
 50
-135.17213875681
 51
-71.689918984561
  0
ARC
  5
214
100
AcDbEntity
  8
1
  6
CONTINUOUS
 62
           3
100
AcDbCircle
 10
-336.446034192607
 20
448.137258532779
 40
13.0
100
AcDbArc
 50
-131.850939234012
 51
-33.31735002348
  0
ARC
  5
213
100
AcDbEntity
  8
1
  6
CONTINUOUS
 62
           3
100
AcDbCircle
 10
-333.054985164757
 20
451.812139376784
 40
17.999999999999
100
AcDbArc
 50
-168.708961724173
 51
-132.086722013713
  0
ARC
  5
212
100
AcDbEntity
  8
1
  6
CONTINUOUS
 62
           3
100
AcDbCircle
 10
-320.536087133191
 20
437.751414557047
 40
6.0
100
AcDbArc
 50
54.336562307982
 51
147.256691833112
  0
ARC
  5
211
100
AcDbEntity
  8
1
  6
CONTINUOUS
 62
           3
100
AcDbCircle
 10
-313.63402803876
 20
381.591496884357
 40
17.0
100
AcDbArc
 50
47.762784732614
 51
73.658404933926
  0
ARC
  5
210
100
AcDbEntity
  8
1
  6
CONTINUOUS
 62
           3
100
AcDbCircle
 10
-311.364125800795
 20
390.309756963505
 40
8.0
100
AcDbArc
 50
71.689918984561
 51
135.17213875681
  0
ARC
  5
20F
100
AcDbEntity
  8
1
  6
CONTINUOUS
 62
           3
100
AcDbCircle
 10
-320.536087133191
 20
400.824324752104
 40
5.999999999999
100
AcDbArc
 50
-147.256691833111
 51
-54.336562307984
  0
ARC
  5
20E
100
AcDbEntity
  8
1
  6
CONTINUOUS
 62
           3
100
AcDbCircle
 10
-333.054985164757
 20
386.763599932367
 40
17.999999999999
100
AcDbArc
 50
132.086722013712
 51
168.708961724172
  0
ARC
  5
20D
100
AcDbEntity
  8
1
  6
CONTINUOUS
 62
           3
100
AcDbCircle
 10
-336.446034192607
 20
390.438480776373
 40
13.0
100
AcDbArc
 50
33.31735002348
 51
131.850939234012
  0
ARC
  5
20C
100
AcDbEntity
  8
1
  6
DASH_CENTER
 62
           3
100
AcDbCircle
 10
-192.206600471171
 20
419.287869654576
 40
49.5
100
AcDbArc
 50
93.448070095279
 51
122.558679119477
  0
ARC
  5
20B
100
AcDbEntity
  8
1
  6
DASH_CENTER
 62
           3
100
AcDbCircle
 10
-192.206600471171
 20
419.287869654576
 40
49.5
100
AcDbArc
 50
-14.195122258573
 51
14.25306426856
  0
ARC
  5
20A
100
AcDbEntity
  8
1
  6
DASH_CENTER
 62
           3
100
AcDbCircle
 10
-192.206600471171
 20
419.287869654576
 40
49.5
100
AcDbArc
 50
57.495227208272
 51
86.504681726841
  0
ARC
  5
209
100
AcDbEntity
  8
1
  6
DASH_CENTER
 62
           3
100
AcDbCircle
 10
-192.206600471171
 20
419.287869654576
 40
49.5
100
AcDbArc
 50
21.544963151205
 51
50.283430219382
  0
ARC
  5
208
100
AcDbEntity
  8
1
  6
DASH_CENTER
 62
           3
100
AcDbCircle
 10
-192.206600471171
 20
419.287869654576
 40
49.5
100
AcDbArc
 50
-50.592062323833
 51
-21.697792474645
  0
ARC
  5
207
100
AcDbEntity
  8
1
  6
DASH_CENTER
 62
           3
100
AcDbCircle
 10
-192.206600471171
 20
419.287869654576
 40
49.5
100
AcDbArc
 50
-86.496717467444
 51
-57.685750016204
  0
ARC
  5
206
100
AcDbEntity
  8
1
  6
DASH_CENTER
 62
           3
100
AcDbCircle
 10
-192.206600471171
 20
419.287869654576
 40
49.5
100
AcDbArc
 50
-122.36866976748
 51
-93.627013776791
  0
ARC
  5
205
100
AcDbEntity
  8
1
  6
DASH_CENTER
 62
           3
100
AcDbCircle
 10
-192.206600471171
 20
419.287869654576
 40
49.5
100
AcDbArc
 50
-158.573094255331
 51
-129.475239920665
  0
ARC
  5
204
100
AcDbEntity
  8
1
  6
DASH_CENTER
 62
           3
100
AcDbCircle
 10
-192.206600471171
 20
419.287869654576
 40
49.5
100
AcDbArc
 50
165.62617340356
 51
-165.734146845594
  0
ARC
  5
203
100
AcDbEntity
  8
1
  6
DASH_CENTER
 62
           3
100
AcDbCircle
 10
-192.206600471171
 20
419.287869654576
 40
49.5
100
AcDbArc
 50
129.208016078913
 51
158.451656943633
  0
ARC
  5
202
100
AcDbEntity
  8
1
  6
DASH_CENTER
 62
           3
100
AcDbCircle
 10
-192.206600471171
 20
419.287869654576
 40
48.0
100
AcDbArc
 50
139.19975659469
 51
-139.411398585726
  0
ARC
  5
201
100
AcDbEntity
  8
1
  6
DASH_CENTER
 62
           3
100
AcDbCircle
 10
-192.206600471171
 20
419.287869654576
 40
48.0
100
AcDbArc
 50
-131.038815187845
 51
-49.025529189792
  0
ARC
  5
200
100
AcDbEntity
  8
1
  6
DASH_CENTER
 62
           3
100
AcDbCircle
 10
-192.206600471171
 20
419.287869654576
 40
48.0
100
AcDbArc
 50
-40.671308877247
 51
40.64512516813
  0
ARC
  5
1FF
100
AcDbEntity
  8
1
  6
DASH_CENTER
 62
           3
100
AcDbCircle
 10
-192.206600471171
 20
419.287869654576
 40
48.0
100
AcDbArc
 50
49.035710875159
 51
131.137736418106
  0
ARC
  5
1FE
100
AcDbEntity
  8
1
  6
CONTINUOUS
 62
           7
100
AcDbCircle
 10
-424.206600471171
 20
419.287869654576
 40
42.499999361849
100
AcDbArc
 50
18.0
 51
36.0
  0
ARC
  5
1FD
100
AcDbEntity
  8
1
  6
CONTINUOUS
 62
           7
100
AcDbCircle
 10
-424.206600471171
 20
419.287869654576
 40
42.499999361849
100
AcDbArc
 50
36.0
 51
18.0
  0
ARC
  5
1FC
100
AcDbEntity
  8
1
  6
CONTINUOUS
 62
           7
100
AcDbCircle
 10
-424.206600471171
 20
419.287869654576
 40
53.499999361653
100
AcDbArc
 50
18.0
 51
36.0
  0
ARC
  5
1FB
100
AcDbEntity
  8
1
  6
CONTINUOUS
 62
           7
100
AcDbCircle
 10
-424.206600471171
 20
419.287869654576
 40
53.499999361653
100
AcDbArc
 50
36.0
 51
18.0
  0
LINE
  5
1FA
100
AcDbEntity
  8
1
  6
PHANTOM
 62
           7
100
AcDbLine
 10
-300.324414931926
 20
324.890248337061
 11
-472.324414931926
 21
324.890248337061
  0
LINE
  5
1F9
100
AcDbEntity
  8
1
  6
PHANTOM
 62
           7
100
AcDbLine
 10
-288.324414931926
 20
252.890248337061
 11
-288.324414931926
 21
312.890248337061
  0
LINE
  5
1F8
100
AcDbEntity
  8
1
  6
PHANTOM
 62
           7
100
AcDbLine
 10
-472.324414931926
 20
240.890248337061
 11
-300.324414931926
 21
240.890248337061
  0
LINE
  5
1F7
100
AcDbEntity
  8
1
  6
PHANTOM
 62
           7
100
AcDbLine
 10
-484.324414931926
 20
312.890248337061
 11
-484.324414931926
 21
252.890248337061
  0
LINE
  5
1F6
100
AcDbEntity
  8
1
  6
CONTINUOUS
 62
           7
100
AcDbLine
 10
-328.206600471156
 20
430.987869654576
 11
-328.206600471156
 21
400.493913733228
  0
LINE
  5
1F5
100
AcDbEntity
  8
2
  6
DASH_CENTER
 62
           3
100
AcDbLine
 10
-353.521393615016
 20
419.287869654576
 11
-283.241994208991
 21
419.287869654576
  0
LINE
  5
1F4
100
AcDbEntity
  8
1
  6
CONTINUOUS
 62
           7
100
AcDbLine
 10
-345.106600471156
 20
400.133561577216
 11
-345.106600471156
 21
377.387869654576
  0
LINE
  5
1F3
100
AcDbEntity
  8
1
  6
CONTINUOUS
 62
           7
100
AcDbLine
 10
-344.306600471156
 20
376.787869654576
 11
-338.106600471156
 21
376.787869654576
  0
LINE
  5
1F2
100
AcDbEntity
  8
1
  6
CONTINUOUS
 62
           7
100
AcDbLine
 10
-338.106600471156
 20
376.787869654576
 11
-338.106600471156
 21
384.320184102328
  0
LINE
  5
1F1
100
AcDbEntity
  8
1
  6
CONTINUOUS
 62
           7
100
AcDbLine
 10
-349.506600471156
 20
386.287870292727
 11
-350.106600471156
 21
386.287870292727
  0
LINE
  5
1F0
100
AcDbEntity
  8
1
  6
CONTINUOUS
 62
           7
100
AcDbLine
 10
-349.506600471156
 20
394.067321847272
 11
-349.506600471156
 21
384.587869654576
  0
LINE
  5
1EF
100
AcDbEntity
  8
1
  6
CONTINUOUS
 62
           7
100
AcDbLine
 10
-348.706600471156
 20
383.787869654576
 11
-345.106600471156
 21
383.787869654576
  0
LINE
  5
1EE
100
AcDbEntity
  8
1
  6
CONTINUOUS
 62
           7
100
AcDbLine
 10
-350.106600471156
 20
386.287870292727
 11
-350.106600471156
 21
389.05019214708
  0
LINE
  5
1ED
100
AcDbEntity
  8
0
  6
CONTINUOUS
 62
           7
100
AcDbLine
 10
-333.706600463622
 20
429.287869504411
 11
-333.206600471156
 21
429.787869496898
  0
LINE
  5
1EC
100
AcDbEntity
  8
1
  6
CONTINUOUS
 62
           7
100
AcDbLine
 10
-315.206600471067
 20
462.287869016229
 11
-320.206600471134
 21
462.287869016268
  0
LINE
  5
1EB
100
AcDbEntity
  8
1
  6
DASH_CENTER
 62
           3
100
AcDbLine
 10
-352.216860265453
 20
434.287869654576
 11
-320.995778148652
 21
434.287869654576
  0
LINE
  5
1EA
100
AcDbEntity
  8
1
  6
CONTINUOUS
 62
           7
100
AcDbLine
 10
-339.206600471156
 20
411.787869804741
 11
-328.206600471156
 21
411.787869804741
  0
LINE
  5
1E9
100
AcDbEntity
  8
1
  6
CONTINUOUS
 62
           7
100
AcDbLine
 10
-339.206600471156
 20
428.787869504411
 11
-339.206600471156
 21
409.787869804741
  0
LINE
  5
1E8
100
AcDbEntity
  8
1
  6
CONTINUOUS
 62
           7
100
AcDbLine
 10
-339.206600471156
 20
426.787869504411
 11
-328.206600471156
 21
426.787869504411
  0
LINE
  5
1E7
100
AcDbEntity
  8
0
  6
CONTINUOUS
 62
           7
100
AcDbLine
 10
-335.456600478654
 20
409.287869804741
 11
-335.956600471156
 21
408.787869812254
  0
LINE
  5
1E6
100
AcDbEntity
  8
0
  6
CONTINUOUS
 62
           7
100
AcDbLine
 10
-335.456600478654
 20
409.287869804741
 11
-335.456600478654
 21
409.28786980473
  0
LINE
  5
1E5
100
AcDbEntity
  8
0
  6
CONTINUOUS
 62
           7
100
AcDbLine
 10
-335.456600478654
 20
429.287869504411
 11
-335.456600478654
 21
429.287869504422
  0
LINE
  5
1E4
100
AcDbEntity
  8
1
  6
CONTINUOUS
 62
           7
100
AcDbLine
 10
-338.706600471156
 20
429.287869504411
 11
-339.206600471156
 21
428.787869504411
  0
LINE
  5
1E3
100
AcDbEntity
  8
1
  6
CONTINUOUS
 62
           7
100
AcDbLine
 10
-338.706600471156
 20
409.287869804741
 11
-339.206600471156
 21
409.787869804741
  0
LINE
  5
1E2
100
AcDbEntity
  8
0
  6
CONTINUOUS
 62
           7
100
AcDbLine
 10
-333.206600471156
 20
429.287869504399
 11
-333.206600471156
 21
431.287869654576
  0
LINE
  5
1E1
100
AcDbEntity
  8
1
  6
CONTINUOUS
 62
           7
100
AcDbLine
 10
-335.956600471156
 20
430.987869654576
 11
-328.206600471156
 21
430.987869654576
  0
LINE
  5
1E0
100
AcDbEntity
  8
0
  6
CONTINUOUS
 62
           7
100
AcDbLine
 10
-335.456600478654
 20
409.28786980473
 11
-335.456600478654
 21
409.287869804741
  0
LINE
  5
1DF
100
AcDbEntity
  8
0
  6
CONTINUOUS
 62
           7
100
AcDbLine
 10
-333.206600471156
 20
408.787869812254
 11
-333.706600463622
 21
409.287869804752
  0
LINE
  5
1DE
100
AcDbEntity
  8
0
  6
CONTINUOUS
 62
           7
100
AcDbLine
 10
-335.956600471156
 20
429.787869496898
 11
-335.456600478654
 21
429.287869504411
  0
LINE
  5
1DD
100
AcDbEntity
  8
0
  6
CONTINUOUS
 62
           7
100
AcDbLine
 10
-335.456600478654
 20
429.287869504422
 11
-335.456600478654
 21
429.287869504411
  0
LINE
  5
1DC
100
AcDbEntity
  8
1
  6
CONTINUOUS
 62
           7
100
AcDbLine
 10
-350.106600471156
 20
446.046515781492
 11
-350.106600471156
 21
452.287869016425
  0
LINE
  5
1DB
100
AcDbEntity
  8
1
  6
CONTINUOUS
 62
           7
100
AcDbLine
 10
-345.106600471156
 20
454.787869654576
 11
-348.706600471156
 21
454.787869654576
  0
LINE
  5
1DA
100
AcDbEntity
  8
1
  6
CONTINUOUS
 62
           7
100
AcDbLine
 10
-349.506600471156
 20
453.987869654576
 11
-349.506600471156
 21
444.508417461879
  0
LINE
  5
1D9
100
AcDbEntity
  8
1
  6
CONTINUOUS
 62
           7
100
AcDbLine
 10
-350.106600471156
 20
452.287869016425
 11
-349.506600471156
 21
452.287869016425
  0
LINE
  5
1D8
100
AcDbEntity
  8
1
  6
CONTINUOUS
 62
           7
100
AcDbLine
 10
-345.106600471156
 20
461.187869654576
 11
-345.106600471156
 21
438.442177731936
  0
LINE
  5
1D7
100
AcDbEntity
  8
1
  6
DASH_CENTER
 62
           3
100
AcDbLine
 10
-386.390035790145
 20
441.121273452993
 11
-393.329175957158
 21
437.114959009624
  0
LINE
  5
1D6
100
AcDbEntity
  8
1
  6
DASH_CENTER
 62
           3
100
AcDbLine
 10
-386.390035790145
 20
397.454465856158
 11
-393.329175957158
 21
401.460780299528
  0
LINE
  5
1D5
100
AcDbEntity
  8
1
  6
DASH_CENTER
 62
           3
100
AcDbLine
 10
-402.373196672754
 20
381.471304973549
 11
-406.379511116123
 21
388.410445140563
  0
LINE
  5
1D4
100
AcDbEntity
  8
1
  6
DASH_CENTER
 62
           3
100
AcDbLine
 10
-424.206600471171
 20
375.621062057741
 11
-424.206600471171
 21
383.63369094448
  0
LINE
  5
1D3
100
AcDbEntity
  8
1
  6
DASH_CENTER
 62
           3
100
AcDbLine
 10
-446.040004269589
 20
381.471304973549
 11
-442.033689826219
 21
388.410445140563
  0
LINE
  5
1D2
100
AcDbEntity
  8
1
  6
DASH_CENTER
 62
           3
100
AcDbLine
 10
-462.023165152197
 20
397.454465856158
 11
-455.084024985184
 21
401.460780299528
  0
LINE
  5
1D1
100
AcDbEntity
  8
1
  6
DASH_CENTER
 62
           3
100
AcDbLine
 10
-467.873408068006
 20
419.287869654576
 11
-459.860779181267
 21
419.287869654576
  0
LINE
  5
1D0
100
AcDbEntity
  8
1
  6
DASH_CENTER
 62
           3
100
AcDbLine
 10
-462.023165152197
 20
441.121273452993
 11
-455.084024985184
 21
437.114959009624
  0
LINE
  5
1CF
100
AcDbEntity
  8
1
  6
DASH_CENTER
 62
           3
100
AcDbLine
 10
-446.040004269589
 20
457.104434335602
 11
-442.033689826219
 21
450.165294168589
  0
LINE
  5
1CE
100
AcDbEntity
  8
1
  6
DASH_CENTER
 62
           3
100
AcDbLine
 10
-424.206600471171
 20
462.954677251411
 11
-424.206600471171
 21
454.942048364672
  0
LINE
  5
1CD
100
AcDbEntity
  8
1
  6
DASH_CENTER
 62
           3
100
AcDbLine
 10
-402.373196672754
 20
457.104434335602
 11
-406.379511116123
 21
450.165294168589
  0
LINE
  5
1CC
100
AcDbEntity
  8
1
  6
DASH_CENTER
 62
           3
100
AcDbLine
 10
-449.151347848976
 20
429.620322328433
 11
-434.227863292728
 21
423.43881262737
  0
LINE
  5
1CB
100
AcDbEntity
  8
1
  6
DASH_CENTER
 62
           3
100
AcDbLine
 10
-413.874147797313
 20
444.232617032381
 11
-420.055657498377
 21
429.309132476132
  0
LINE
  5
1CA
100
AcDbEntity
  8
1
  6
DASH_CENTER
 62
           3
100
AcDbLine
 10
-399.261853093366
 20
408.955416980718
 11
-414.185337649615
 21
415.136926681782
  0
LINE
  5
1C9
100
AcDbEntity
  8
1
  6
DASH_CENTER
 62
           3
100
AcDbLine
 10
-413.874147797313
 20
394.343122276771
 11
-420.055657498377
 21
409.266606833019
  0
LINE
  5
1C8
100
AcDbEntity
  8
1
  6
DASH_CENTER
 62
           3
100
AcDbLine
 10
-434.539053145029
 20
394.343122276771
 11
-428.357543443965
 21
409.266606833019
  0
LINE
  5
1C7
100
AcDbEntity
  8
1
  6
DASH_CENTER
 62
           3
100
AcDbLine
 10
-434.539053145029
 20
444.23261703238
 11
-428.357543443965
 21
429.309132476132
  0
LINE
  5
1C6
100
AcDbEntity
  8
1
  6
DASH_CENTER
 62
           3
100
AcDbLine
 10
-411.843526020522
 20
431.650944105225
 11
-415.76620767625
 21
427.728262449497
  0
LINE
  5
1C5
100
AcDbEntity
  8
1
  6
DASH_CENTER
 62
           3
100
AcDbLine
 10
-411.843526020522
 20
406.924795203927
 11
-415.76620767625
 21
410.847476859654
  0
LINE
  5
1C4
100
AcDbEntity
  8
1
  6
DASH_CENTER
 62
           3
100
AcDbLine
 10
-436.56967492182
 20
406.924795203927
 11
-432.646993266092
 21
410.847476859654
  0
LINE
  5
1C3
100
AcDbEntity
  8
1
  6
DASH_CENTER
 62
           3
100
AcDbLine
 10
-436.56967492182
 20
431.650944105225
 11
-432.646993266092
 21
427.728262449497
  0
LINE
  5
1C2
100
AcDbEntity
  8
1
  6
DASH_CENTER
 62
           3
100
AcDbLine
 10
-381.289792874336
 20
419.287869654576
 11
-386.206601109601
 21
419.287869654576
  0
LINE
  5
1C1
100
AcDbEntity
  8
1
  6
DASH_CENTER
 62
           3
100
AcDbLine
 10
-381.206601109503
 20
419.287869654576
 11
-376.206600471171
 21
419.287869654576
  0
LINE
  5
1C0
100
AcDbEntity
  8
1
  6
DASH_CENTER
 62
           3
100
AcDbLine
 10
-386.206601109601
 20
419.287869654576
 11
-381.956601109503
 21
419.287869654576
  0
LINE
  5
1BF
100
AcDbEntity
  8
1
  6
DASH_CENTER
 62
           3
100
AcDbLine
 10
-385.456601109601
 20
419.287869654576
 11
-388.552421761075
 21
419.287869654576
  0
LINE
  5
1BE
100
AcDbEntity
  8
1
  6
DASH_CENTER
 62
           3
100
AcDbLine
 10
-424.206600471171
 20
476.287869654576
 11
-424.206600471171
 21
362.287869654576
  0
LINE
  5
1BD
100
AcDbEntity
  8
1
  6
DASH_CENTER
 62
           3
100
AcDbLine
 10
-481.206600471171
 20
419.287869654576
 11
-385.456601109601
 21
419.287869654576
  0
LINE
  5
1BC
100
AcDbEntity
  8
1
  6
DASH_CENTER
 62
           3
100
AcDbLine
 10
-449.151347848976
 20
408.955416980718
 11
-434.452887188984
 21
415.043718732094
  0
LINE
  5
1BB
100
AcDbEntity
  8
1
  6
DASH_CENTER
 62
           3
100
AcDbLine
 10
-399.261853093366
 20
429.620322328433
 11
-413.454938655942
 21
423.741353796493
  0
LINE
  5
1BA
100
AcDbEntity
  8
0
  6
CONTINUOUS
 62
           7
100
AcDbLine
 10
-333.206600471156
 20
403.028400123387
 11
-333.206600471156
 21
409.287869804752
  0
LINE
  5
1B9
100
AcDbEntity
  8
1
  6
CONTINUOUS
 62
           7
100
AcDbLine
 10
-328.849298426737
 20
437.587869654576
 11
-328.206600471156
 21
437.587869654576
  0
LINE
  5
1B8
100
AcDbEntity
  8
1
  6
CONTINUOUS
 62
           7
100
AcDbLine
 10
-337.206600471156
 20
377.787870292727
 11
-338.106600471156
 21
377.787870292727
  0
LINE
  5
1B7
100
AcDbEntity
  8
1
  6
CONTINUOUS
 62
           7
100
AcDbLine
 10
-350.106600471156
 20
386.287870292727
 11
-350.106600471156
 21
392.529223527656
  0
LINE
  5
1B6
100
AcDbEntity
  8
1
  6
CONTINUOUS
 62
           7
100
AcDbLine
 10
-338.106600471156
 20
461.787869654576
 11
-344.306600471156
 21
461.787869654576
  0
LINE
  5
1B5
100
AcDbEntity
  8
1
  6
CONTINUOUS
 62
           7
100
AcDbLine
 10
-338.106600471155
 20
435.243751653945
 11
-338.106600471156
 21
461.787869654576
  0
LINE
  5
1B4
100
AcDbEntity
  8
1
  6
CONTINUOUS
 62
           7
100
AcDbLine
 10
-338.106600471156
 20
460.787869016425
 11
-337.206600471156
 21
460.787869016425
  0
LINE
  5
1B3
100
AcDbEntity
  8
1
  6
CONTINUOUS
 62
           7
100
AcDbLine
 10
-338.106600471156
 20
389.791393384824
 11
-338.106600471156
 21
403.331987655207
  0
LINE
  5
1B2
100
AcDbEntity
  8
1
  6
DASH_CENTER
 62
           3
100
AcDbLine
 10
-192.206600471171
 20
347.287869654576
 11
-192.206600471171
 21
491.287869654576
  0
LINE
  5
1B1
100
AcDbEntity
  8
1
  6
DASH_CENTER
 62
           3
100
AcDbLine
 10
-120.206600471171
 20
419.287869654576
 11
-264.206600471171
 21
419.287869654576
  0
LINE
  5
1B0
100
AcDbEntity
  8
1
  6
DASH_CENTER
 62
           3
100
AcDbLine
 10
-217.702884152495
 20
480.84134350814
 11
-214.545745835483
 21
473.219337364922
  0
LINE
  5
1AF
100
AcDbEntity
  8
1
  6
DASH_CENTER
 62
           3
100
AcDbLine
 10
-214.545745835483
 20
473.219337364922
 11
-217.702884152495
 21
480.84134350814
  0
LINE
  5
1AE
100
AcDbEntity
  8
1
  6
DASH_CENTER
 62
           3
100
AcDbLine
 10
-253.760074324736
 20
444.7841533359
 11
-246.138068181517
 21
441.627015018888
  0
LINE
  5
1AD
100
AcDbEntity
  8
1
  6
DASH_CENTER
 62
           3
100
AcDbLine
 10
-253.760074324736
 20
393.791585973252
 11
-246.138068181517
 21
396.948724290264
  0
LINE
  5
1AC
100
AcDbEntity
  8
1
  6
DASH_CENTER
 62
           3
100
AcDbLine
 10
-217.702884152495
 20
357.734395801011
 11
-214.545745835483
 21
365.35640194423
  0
LINE
  5
1AB
100
AcDbEntity
  8
1
  6
DASH_CENTER
 62
           3
100
AcDbLine
 10
-166.710316789847
 20
357.734395801011
 11
-169.867455106859
 21
365.35640194423
  0
LINE
  5
1AA
100
AcDbEntity
  8
1
  6
DASH_CENTER
 62
           3
100
AcDbLine
 10
-130.653126617607
 20
393.791585973252
 11
-138.275132760825
 21
396.948724290264
  0
LINE
  5
1A9
100
AcDbEntity
  8
1
  6
DASH_CENTER
 62
           3
100
AcDbLine
 10
-130.653126617607
 20
444.7841533359
 11
-138.275132760825
 21
441.627015018888
  0
LINE
  5
1A8
100
AcDbEntity
  8
1
  6
DASH_CENTER
 62
           3
100
AcDbLine
 10
-166.710316789847
 20
480.84134350814
 11
-169.867455106859
 21
473.219337364922
  0
LINE
  5
1A7
100
AcDbEntity
  8
1
  6
DASH_CENTER
 62
           3
100
AcDbLine
 10
-154.022834287098
 20
381.104103470502
 11
-160.386795317776
 21
387.468064501181
  0
LINE
  5
1A6
100
AcDbEntity
  8
1
  6
DASH_CENTER
 62
           3
100
AcDbLine
 10
-154.022834287098
 20
457.471635838649
 11
-160.386795317776
 21
451.10767480797
  0
LINE
  5
1A5
100
AcDbEntity
  8
1
  6
DASH_CENTER
 62
           3
100
AcDbLine
 10
-230.390366655244
 20
457.471635838649
 11
-224.026405624566
 21
451.10767480797
  0
LINE
  5
1A4
100
AcDbEntity
  8
1
  6
DASH_CENTER
 62
           3
100
AcDbLine
 10
-192.206600471171
 20
463.537869654576
 11
-192.206600471171
 21
471.037869654576
  0
LINE
  5
1A3
100
AcDbEntity
  8
1
  6
DASH_CENTER
 62
           3
100
AcDbLine
 10
-192.206600471171
 20
367.537869654576
 11
-192.206600471171
 21
375.037869654576
  0
LINE
  5
1A2
100
AcDbEntity
  8
1
  6
DASH_CENTER
 62
           3
100
AcDbLine
 10
-241.423775189445
 20
435.279499113479
 11
-234.290851317232
 21
432.961871655667
  0
LINE
  5
1A1
100
AcDbEntity
  8
1
  6
DASH_CENTER
 62
           3
100
AcDbLine
 10
-241.423775189445
 20
403.296240195672
 11
-234.290851317232
 21
405.613867653484
  0
LINE
  5
1A0
100
AcDbEntity
  8
1
  6
DASH_CENTER
 62
           3
100
AcDbLine
 10
-222.624487277307
 20
377.421240195672
 11
-218.216097885113
 21
383.488867653484
  0
LINE
  5
19F
100
AcDbEntity
  8
1
  6
DASH_CENTER
 62
           3
100
AcDbLine
 10
-161.788713665035
 20
377.421240195672
 11
-166.197103057229
 21
383.488867653484
  0
LINE
  5
19E
100
AcDbEntity
  8
1
  6
DASH_CENTER
 62
           3
100
AcDbLine
 10
-142.989425752897
 20
403.296240195672
 11
-150.122349625111
 21
405.613867653484
  0
LINE
  5
19D
100
AcDbEntity
  8
1
  6
DASH_CENTER
 62
           3
100
AcDbLine
 10
-142.989425752897
 20
435.279499113479
 11
-150.12234962511
 21
432.961871655667
  0
LINE
  5
19C
100
AcDbEntity
  8
1
  6
DASH_CENTER
 62
           3
100
AcDbLine
 10
-161.788713665036
 20
461.154499113479
 11
-166.197103057229
 21
455.086871655667
  0
LINE
  5
19B
100
AcDbEntity
  8
1
  6
DASH_CENTER
 62
           3
100
AcDbLine
 10
-222.624487277307
 20
461.154499113479
 11
-218.216097885113
 21
455.086871655667
  0
LINE
  5
19A
100
AcDbEntity
  8
1
  6
DASH_CENTER
 62
           3
100
AcDbLine
 10
-376.206600471171
 20
419.287869654576
 11
-367.206600471171
 21
419.287869654576
  0
LINE
  5
199
100
AcDbEntity
  8
1
  6
DASH_CENTER
 62
           3
100
AcDbLine
 10
-373.325077456484
 20
435.820278656375
 11
-383.786699135545
 21
432.421091718312
  0
LINE
  5
198
100
AcDbEntity
  8
1
  6
DASH_CENTER
 62
           3
100
AcDbLine
 10
-392.760089848734
 20
462.570278337202
 11
-399.225727623837
 21
453.671091399236
  0
LINE
  5
197
100
AcDbEntity
  8
1
  6
DASH_CENTER
 62
           3
100
AcDbLine
 10
-424.206600471171
 20
472.787869016229
 11
-424.206600471171
 21
461.787869016425
  0
LINE
  5
196
100
AcDbEntity
  8
1
  6
DASH_CENTER
 62
           3
100
AcDbLine
 10
-455.653111093608
 20
462.570278337202
 11
-449.187473318506
 21
453.671091399236
  0
LINE
  5
195
100
AcDbEntity
  8
1
  6
DASH_CENTER
 62
           3
100
AcDbLine
 10
-475.088123485858
 20
435.820278656376
 11
-464.626501806797
 21
432.421091718312
  0
LINE
  5
194
100
AcDbEntity
  8
1
  6
DASH_CENTER
 62
           3
100
AcDbLine
 10
-475.088123485858
 20
402.755460652776
 11
-464.626501806797
 21
406.15464759084
  0
LINE
  5
193
100
AcDbEntity
  8
1
  6
DASH_CENTER
 62
           3
100
AcDbLine
 10
-455.653111093608
 20
376.00546097195
 11
-449.187473318506
 21
384.904647909916
  0
LINE
  5
192
100
AcDbEntity
  8
1
  6
DASH_CENTER
 62
           3
100
AcDbLine
 10
-424.206600471171
 20
365.787870292923
 11
-424.206600471171
 21
376.787870292727
  0
LINE
  5
191
100
AcDbEntity
  8
1
  6
DASH_CENTER
 62
           3
100
AcDbLine
 10
-392.760089848734
 20
376.00546097195
 11
-399.225727623837
 21
384.904647909916
  0
LINE
  5
190
100
AcDbEntity
  8
1
  6
DASH_CENTER
 62
           3
100
AcDbLine
 10
-373.325077456484
 20
402.755460652776
 11
-383.786699135545
 21
406.15464759084
  0
LINE
  5
18F
100
AcDbEntity
  8
1
  6
DASH_CENTER
 62
           3
100
AcDbLine
 10
-380.924191788545
 20
450.734380277012
 11
-389.823378726511
 21
444.26874250191
  0
LINE
  5
18E
100
AcDbEntity
  8
1
  6
DASH_CENTER
 62
           3
100
AcDbLine
 10
-407.674191469371
 20
470.169392669263
 11
-411.073378407435
 21
459.707770990202
  0
LINE
  5
18D
100
AcDbEntity
  8
1
  6
DASH_CENTER
 62
           3
100
AcDbLine
 10
-440.739009472971
 20
470.169392669263
 11
-437.339822534907
 21
459.707770990202
  0
LINE
  5
18C
100
AcDbEntity
  8
1
  6
DASH_CENTER
 62
           3
100
AcDbLine
 10
-467.489009153797
 20
450.734380277012
 11
-458.589822215831
 21
444.26874250191
  0
LINE
  5
18B
100
AcDbEntity
  8
1
  6
DASH_CENTER
 62
           3
100
AcDbLine
 10
-477.706599832824
 20
419.287869654576
 11
-466.70659983302
 21
419.287869654576
  0
LINE
  5
18A
100
AcDbEntity
  8
1
  6
DASH_CENTER
 62
           3
100
AcDbLine
 10
-467.489009153797
 20
387.841359032139
 11
-458.589822215831
 21
394.306996807241
  0
LINE
  5
189
100
AcDbEntity
  8
1
  6
DASH_CENTER
 62
           3
100
AcDbLine
 10
-440.739009472971
 20
368.406346639889
 11
-437.339822534907
 21
378.86796831895
  0
LINE
  5
188
100
AcDbEntity
  8
1
  6
DASH_CENTER
 62
           3
100
AcDbLine
 10
-407.674191469371
 20
368.406346639889
 11
-411.073378407435
 21
378.867968318949
  0
LINE
  5
187
100
AcDbEntity
  8
1
  6
DASH_CENTER
 62
           3
100
AcDbLine
 10
-380.924191788545
 20
387.841359032139
 11
-389.823378726511
 21
394.306996807241
  0
LINE
  5
186
100
AcDbEntity
  8
1
  6
DASH_CENTER
 62
           3
100
AcDbLine
 10
-370.706601109518
 20
419.287869654576
 11
-381.706601109322
 21
419.287869654576
  0
LINE
  5
185
100
AcDbEntity
  8
1
  6
DASH_CENTER
 62
           3
100
AcDbLine
 10
-230.390366655245
 20
381.104103470502
 11
-224.026405624566
 21
387.468064501181
  0
LINE
  5
184
100
AcDbEntity
  8
1
  6
DASH_CENTER
 62
           3
100
AcDbLine
 10
-306.206600459835
 20
467.287869654576
 11
-291.051900057127
 21
467.287869654576
  0
LINE
  5
183
100
AcDbEntity
  8
1
  6
CONTINUOUS
 62
           7
100
AcDbLine
 10
-292.051900045821
 20
467.287869654576
 11
-293.2066005842
 21
465.287869654576
  0
LINE
  5
182
100
AcDbEntity
  8
1
  6
CONTINUOUS
 62
           7
100
AcDbLine
 10
-293.2066005842
 20
469.287869654576
 11
-292.051900045821
 21
467.287869654576
  0
LINE
  5
181
100
AcDbEntity
  8
1
  6
CONTINUOUS
 62
           7
100
AcDbLine
 10
-293.2066005842
 20
465.287869654576
 11
-305.206600471141
 21
465.287869654576
  0
LINE
  5
180
100
AcDbEntity
  8
1
  6
CONTINUOUS
 62
           7
100
AcDbLine
 10
-295.2066005842
 20
469.787869654576
 11
-295.2066005842
 21
464.787869654576
  0
LINE
  5
17F
100
AcDbEntity
  8
1
  6
CONTINUOUS
 62
           7
100
AcDbLine
 10
-293.2066005842
 20
469.287869654576
 11
-293.2066005842
 21
465.287869654576
  0
LINE
  5
17E
100
AcDbEntity
  8
1
  6
CONTINUOUS
 62
           7
100
AcDbLine
 10
-305.206600471141
 20
469.287869654576
 11
-293.2066005842
 21
469.287869654576
  0
LINE
  5
17D
100
AcDbEntity
  8
1
  6
CONTINUOUS
 62
           3
100
AcDbLine
 10
-295.2066005842
 20
464.787869654576
 11
-305.206600471141
 21
464.787869654576
  0
LINE
  5
17C
100
AcDbEntity
  8
1
  6
CONTINUOUS
 62
           3
100
AcDbLine
 10
-294.340575180416
 20
465.287869654576
 11
-295.2066005842
 21
464.787869654576
  0
LINE
  5
17B
100
AcDbEntity
  8
1
  6
CONTINUOUS
 62
           3
100
AcDbLine
 10
-295.2066005842
 20
469.787869654576
 11
-294.340575180416
 21
469.287869654576
  0
LINE
  5
17A
100
AcDbEntity
  8
1
  6
CONTINUOUS
 62
           3
100
AcDbLine
 10
-305.206600471141
 20
469.787869654576
 11
-295.2066005842
 21
469.787869654576
  0
LINE
  5
179
100
AcDbEntity
  8
1
  6
CONTINUOUS
 62
           7
100
AcDbLine
 10
-288.206604985218
 20
367.387869654576
 11
-305.2066005842
 21
367.387869654576
  0
LINE
  5
178
100
AcDbEntity
  8
1
  6
CONTINUOUS
 62
           7
100
AcDbLine
 10
-288.206604985218
 20
372.187869654576
 11
-305.2066005842
 21
372.187869654576
  0
LINE
  5
177
100
AcDbEntity
  8
1
  6
DASH_CENTER
 62
           3
100
AcDbLine
 10
-284.206605865422
 20
369.787869654576
 11
-308.206599703997
 21
369.787869654576
  0
LINE
  5
176
100
AcDbEntity
  8
1
  6
CONTINUOUS
 62
           3
100
AcDbLine
 10
-288.206604985218
 20
366.787869654576
 11
-305.2066005842
 21
366.787869654576
  0
LINE
  5
175
100
AcDbEntity
  8
1
  6
CONTINUOUS
 62
           3
100
AcDbLine
 10
-288.206604985218
 20
372.787869654576
 11
-305.2066005842
 21
372.787869654576
  0
LINE
  5
174
100
AcDbEntity
  8
1
  6
CONTINUOUS
 62
           7
100
AcDbLine
 10
-288.706604985218
 20
389.287870325126
 11
-291.206605080218
 21
389.287870325126
  0
LINE
  5
173
100
AcDbEntity
  8
1
  6
CONTINUOUS
 62
           7
100
AcDbLine
 10
-288.206604985218
 20
388.787870325126
 11
-288.706604985218
 21
389.287870325126
  0
LINE
  5
172
100
AcDbEntity
  8
1
  6
CONTINUOUS
 62
           7
100
AcDbLine
 10
-304.7066005842
 20
385.787869654576
 11
-305.2066005842
 21
385.287869654576
  0
LINE
  5
171
100
AcDbEntity
  8
1
  6
CONTINUOUS
 62
           7
100
AcDbLine
 10
-288.206604985218
 20
352.287869654576
 11
-288.706604985218
 21
351.787869654576
  0
LINE
  5
170
100
AcDbEntity
  8
1
  6
CONTINUOUS
 62
           7
100
AcDbLine
 10
-304.7066005842
 20
364.787856127014
 11
-305.2066005842
 21
365.287856127014
  0
LINE
  5
16F
100
AcDbEntity
  8
1
  6
CONTINUOUS
 62
           7
100
AcDbLine
 10
-300.706600584182
 20
452.787869654576
 11
-300.706600584182
 21
385.787869654576
  0
LINE
  5
16E
100
AcDbEntity
  8
1
  6
CONTINUOUS
 62
           7
100
AcDbLine
 10
-299.706604985218
 20
351.787869654576
 11
-288.706604985218
 21
351.787869654576
  0
LINE
  5
16D
100
AcDbEntity
  8
1
  6
CONTINUOUS
 62
           7
100
AcDbLine
 10
-304.706600471133
 20
385.787869654576
 11
-304.70660047117
 21
385.787869654576
  0
LINE
  5
16C
100
AcDbEntity
  8
1
  6
CONTINUOUS
 62
           7
100
AcDbLine
 10
-289.706604985218
 20
384.987869654576
 11
-288.206604985218
 21
384.987869654576
  0
LINE
  5
16B
100
AcDbEntity
  8
1
  6
CONTINUOUS
 62
           7
100
AcDbLine
 10
-289.706604985218
 20
382.287869654576
 11
-289.706604985218
 21
384.987869654576
  0
LINE
  5
16A
100
AcDbEntity
  8
1
  6
CONTINUOUS
 62
           7
100
AcDbLine
 10
-288.206604985218
 20
382.287869654576
 11
-289.706604985218
 21
382.287869654576
  0
LINE
  5
169
100
AcDbEntity
  8
1
  6
CONTINUOUS
 62
           7
100
AcDbLine
 10
-304.7066005842
 20
364.787856127014
 11
-300.206604985218
 21
364.787856127014
  0
LINE
  5
168
100
AcDbEntity
  8
1
  6
CONTINUOUS
 62
           7
100
AcDbLine
 10
-300.206604985218
 20
352.287869654576
 11
-299.706604985218
 21
351.787869654576
  0
LINE
  5
167
100
AcDbEntity
  8
1
  6
CONTINUOUS
 62
           7
100
AcDbLine
 10
-288.206604985218
 20
352.287869654576
 11
-288.206604985218
 21
486.287869654575
  0
LINE
  5
166
100
AcDbEntity
  8
1
  6
CONTINUOUS
 62
           7
100
AcDbLine
 10
-300.206604985218
 20
364.787856127014
 11
-300.206604985218
 21
352.287869654576
  0
LINE
  5
165
100
AcDbEntity
  8
1
  6
CONTINUOUS
 62
           7
100
AcDbLine
 10
-288.206604985218
 20
479.037869654576
 11
-300.206604985218
 21
479.037869654576
  0
LINE
  5
164
100
AcDbEntity
  8
1
  6
CONTINUOUS
 62
           7
100
AcDbLine
 10
-288.206604985218
 20
484.537869654576
 11
-300.206604985218
 21
484.537869654576
  0
LINE
  5
163
100
AcDbEntity
  8
1
  6
DASH_CENTER
 62
           3
100
AcDbLine
 10
-287.206604985218
 20
481.787869654576
 11
-301.206604985218
 21
481.787869654576
  0
LINE
  5
162
100
AcDbEntity
  8
1
  6
CONTINUOUS
 62
           7
100
AcDbLine
 10
-299.706604985218
 20
486.787869654576
 11
-300.206604985218
 21
486.287869654576
  0
LINE
  5
161
100
AcDbEntity
  8
1
  6
CONTINUOUS
 62
           7
100
AcDbLine
 10
-300.206604985218
 20
473.787883182138
 11
-304.7066005842
 21
473.787883182138
  0
LINE
  5
160
100
AcDbEntity
  8
1
  6
CONTINUOUS
 62
           7
100
AcDbLine
 10
-300.206604985218
 20
486.287869654576
 11
-300.206604985218
 21
473.787883182138
  0
LINE
  5
15F
100
AcDbEntity
  8
1
  6
CONTINUOUS
 62
           7
100
AcDbLine
 10
-289.706604985218
 20
456.287869654576
 11
-288.206604985218
 21
456.287869654576
  0
LINE
  5
15E
100
AcDbEntity
  8
1
  6
CONTINUOUS
 62
           7
100
AcDbLine
 10
-289.706604985218
 20
453.587869654576
 11
-289.706604985218
 21
456.287869654576
  0
LINE
  5
15D
100
AcDbEntity
  8
1
  6
CONTINUOUS
 62
           7
100
AcDbLine
 10
-288.206604985218
 20
453.587869654576
 11
-289.706604985218
 21
453.587869654576
  0
LINE
  5
15C
100
AcDbEntity
  8
1
  6
DASH_CENTER
 62
           3
100
AcDbLine
 10
-285.956965489734
 20
419.287869654576
 11
-301.006006809805
 21
419.287869654576
  0
LINE
  5
15B
100
AcDbEntity
  8
1
  6
CONTINUOUS
 62
           7
100
AcDbLine
 10
-304.70660047117
 20
452.787869654576
 11
-304.706600471133
 21
452.787869654576
  0
LINE
  5
15A
100
AcDbEntity
  8
1
  6
CONTINUOUS
 62
           7
100
AcDbLine
 10
-288.706604985218
 20
486.787869654576
 11
-299.706604985218
 21
486.787869654576
  0
LINE
  5
159
100
AcDbEntity
  8
1
  6
CONTINUOUS
 62
           7
100
AcDbLine
 10
-305.2066005842
 20
473.287883182138
 11
-304.7066005842
 21
473.787883182138
  0
LINE
  5
158
100
AcDbEntity
  8
1
  6
CONTINUOUS
 62
           7
100
AcDbLine
 10
-288.706604985218
 20
486.787869654576
 11
-288.206604985218
 21
486.287869654575
  0
LINE
  5
157
100
AcDbEntity
  8
1
  6
CONTINUOUS
 62
           7
100
AcDbLine
 10
-305.2066005842
 20
453.287869654576
 11
-304.7066005842
 21
452.787869654576
  0
LINE
  5
156
100
AcDbEntity
  8
1
  6
CONTINUOUS
 62
           7
100
AcDbLine
 10
-288.706604985218
 20
449.287868984026
 11
-288.206604985218
 21
449.787868984026
  0
LINE
  5
155
100
AcDbEntity
  8
1
  6
CONTINUOUS
 62
           7
100
AcDbLine
 10
-291.206605080218
 20
449.287868984026
 11
-288.706604985218
 21
449.287868984026
  0
LINE
  5
154
100
AcDbEntity
  8
1
  6
CONTINUOUS
 62
           7
100
AcDbLine
 10
-300.706600584182
 20
428.787869654576
 11
-300.206600584182
 21
428.287869654576
  0
LINE
  5
153
100
AcDbEntity
  8
1
  6
CONTINUOUS
 62
           7
100
AcDbLine
 10
-300.706600584182
 20
409.787869654576
 11
-300.206600584182
 21
410.287869654576
  0
LINE
  5
152
100
AcDbEntity
  8
1
  6
CONTINUOUS
 62
           7
100
AcDbLine
 10
-300.206600584182
 20
410.287869654576
 11
-291.706605080218
 21
410.287869654576
  0
LINE
  5
151
100
AcDbEntity
  8
1
  6
CONTINUOUS
 62
           7
100
AcDbLine
 10
-291.206605080218
 20
449.287868984026
 11
-291.206605080218
 21
389.287870325126
  0
LINE
  5
150
100
AcDbEntity
  8
1
  6
CONTINUOUS
 62
           7
100
AcDbLine
 10
-300.206600584182
 20
428.287869654576
 11
-291.706605080218
 21
428.287869654576
  0
LINE
  5
14F
100
AcDbEntity
  8
1
  6
CONTINUOUS
 62
           7
100
AcDbLine
 10
-291.206605080218
 20
428.787869654576
 11
-291.706605080218
 21
428.287869654576
  0
LINE
  5
14E
100
AcDbEntity
  8
1
  6
CONTINUOUS
 62
           7
100
AcDbLine
 10
-291.706605080218
 20
410.287869654576
 11
-291.206605080218
 21
409.787869654576
  0
LINE
  5
14D
100
AcDbEntity
  8
1
  6
CONTINUOUS
 62
           7
100
AcDbLine
 10
-305.2066005842
 20
473.287883182138
 11
-305.2066005842
 21
469.287869654576
  0
LINE
  5
14C
100
AcDbEntity
  8
1
  6
CONTINUOUS
 62
           7
100
AcDbLine
 10
-305.206600471133
 20
470.137870292979
 11
-315.206600471125
 21
469.937870292923
  0
LINE
  5
14B
100
AcDbEntity
  8
1
  6
DASH_CENTER
 62
           3
100
AcDbLine
 10
-303.206600471162
 20
467.287869654576
 11
-317.20660047109
 21
467.287869654576
  0
LINE
  5
14A
100
AcDbEntity
  8
1
  6
CONTINUOUS
 62
           7
100
AcDbLine
 10
-315.206600471125
 20
464.637869016229
 11
-305.206600471133
 21
464.437869016173
  0
LINE
  5
149
100
AcDbEntity
  8
1
  6
CONTINUOUS
 62
           7
100
AcDbLine
 10
-314.706600471466
 20
472.787869016229
 11
-305.706600471132
 21
472.787869016229
  0
LINE
  5
148
100
AcDbEntity
  8
1
  6
CONTINUOUS
 62
           7
100
AcDbLine
 10
-314.706600471067
 20
365.787870292923
 11
-315.206600471067
 21
366.298396608712
  0
LINE
  5
147
100
AcDbEntity
  8
1
  6
CONTINUOUS
 62
           7
100
AcDbLine
 10
-320.206600471134
 20
376.287870292884
 11
-320.267709534948
 21
376.348979356697
  0
LINE
  5
146
100
AcDbEntity
  8
1
  6
CONTINUOUS
 62
           7
100
AcDbLine
 10
-336.706600471156
 20
376.787870292732
 11
-320.267709534948
 21
376.348979356697
  0
LINE
  5
145
100
AcDbEntity
  8
1
  6
CONTINUOUS
 62
           7
100
AcDbLine
 10
-337.206600471156
 20
403.416213202954
 11
-337.206600471156
 21
388.781323978825
  0
LINE
  5
144
100
AcDbEntity
  8
1
  6
CONTINUOUS
 62
           7
100
AcDbLine
 10
-336.706600471156
 20
376.787870292732
 11
-337.206600471156
 21
377.287870292727
  0
LINE
  5
143
100
AcDbEntity
  8
1
  6
CONTINUOUS
 62
           7
100
AcDbLine
 10
-337.206600471156
 20
461.287869016425
 11
-336.706600471156
 21
461.78786901642
  0
LINE
  5
142
100
AcDbEntity
  8
1
  6
CONTINUOUS
 62
           7
100
AcDbLine
 10
-337.206600471156
 20
461.287869016425
 11
-337.206600471157
 21
435.159526106197
  0
LINE
  5
141
100
AcDbEntity
  8
0
  6
CONTINUOUS
 62
           7
100
AcDbLine
 10
-302.20660047114
 20
394.177755231743
 11
-302.206600471183
 21
394.177755231743
  0
LINE
  5
140
100
AcDbEntity
  8
1
  6
CONTINUOUS
 62
           7
100
AcDbLine
 10
-315.206600471076
 20
397.326550277283
 11
-315.206600471067
 21
366.298396608712
  0
LINE
  5
13F
100
AcDbEntity
  8
1
  6
CONTINUOUS
 62
           7
100
AcDbLine
 10
-305.706600471156
 20
365.787870292923
 11
-314.706600471067
 21
365.787870292923
  0
LINE
  5
13E
100
AcDbEntity
  8
1
  6
CONTINUOUS
 62
           7
100
AcDbLine
 10
-305.706600471156
 20
365.787870292923
 11
-305.206600471144
 21
366.287870292923
  0
LINE
  5
13D
100
AcDbEntity
  8
1
  6
CONTINUOUS
 62
           7
100
AcDbLine
 10
-320.206600471134
 20
376.287870292884
 11
-315.206600471067
 21
376.287870292923
  0
LINE
  5
13C
100
AcDbEntity
  8
1
  6
CONTINUOUS
 62
           7
100
AcDbLine
 10
-320.206600471134
 20
376.287870292884
 11
-320.267709534948
 21
376.348979356697
  0
LINE
  5
13B
100
AcDbEntity
  8
0
  6
CONTINUOUS
 62
           7
100
AcDbLine
 10
-332.706600471156
 20
376.787870293006
 11
-332.706600471156
 21
376.787870292727
  0
LINE
  5
13A
100
AcDbEntity
  8
1
  6
CONTINUOUS
 62
           7
100
AcDbLine
 10
-332.706600471156
 20
376.787870293006
 11
-332.706600471156
 21
376.787870292727
  0
LINE
  5
139
100
AcDbEntity
  8
0
  6
CONTINUOUS
 62
           7
100
AcDbLine
 10
-302.206600471183
 20
444.397984077408
 11
-302.20660047117
 21
452.387869654576
  0
LINE
  5
138
100
AcDbEntity
  8
1
  6
CONTINUOUS
 62
           7
100
AcDbLine
 10
-315.206600471067
 20
472.277869016237
 11
-315.206600471077
 21
469.937869016229
  0
LINE
  5
137
100
AcDbEntity
  8
1
  6
CONTINUOUS
 62
           7
100
AcDbLine
 10
-315.206600471067
 20
462.287869016229
 11
-320.206600471134
 21
462.287869016268
  0
LINE
  5
136
100
AcDbEntity
  8
1
  6
CONTINUOUS
 62
           7
100
AcDbLine
 10
-315.206600471067
 20
472.277869016237
 11
-314.706600471466
 21
472.787869016229
  0
LINE
  5
135
100
AcDbEntity
  8
1
  6
CONTINUOUS
 62
           7
100
AcDbLine
 10
-320.267709534948
 20
462.226759952454
 11
-336.706600471156
 21
461.78786901642
  0
LINE
  5
134
100
AcDbEntity
  8
1
  6
CONTINUOUS
 62
           7
100
AcDbLine
 10
-320.267709534948
 20
462.226759952454
 11
-320.206600471134
 21
462.287869016268
  0
LINE
  5
133
100
AcDbEntity
  8
1
  6
CONTINUOUS
 62
           7
100
AcDbLine
 10
-315.206600471125
 20
464.637869016229
 11
-315.206600471067
 21
462.287869016229
  0
LINE
  5
132
100
AcDbEntity
  8
1
  6
CONTINUOUS
 62
           7
100
AcDbLine
 10
-315.206600471077
 20
469.937869016229
 11
-315.206600471125
 21
464.637869016229
  0
LINE
  5
131
100
AcDbEntity
  8
1
  6
CONTINUOUS
 62
           7
100
AcDbLine
 10
-305.206600471144
 20
472.287869016229
 11
-305.206600471133
 21
470.137870292979
  0
LINE
  5
130
100
AcDbEntity
  8
1
  6
CONTINUOUS
 62
           7
100
AcDbLine
 10
-304.70660047117
 20
452.787869654576
 11
-304.706600471133
 21
452.787869654576
  0
LINE
  5
12F
100
AcDbEntity
  8
1
  6
CONTINUOUS
 62
           7
100
AcDbLine
 10
-302.606600471171
 20
452.787869654576
 11
-302.20660047117
 21
452.387869654576
  0
LINE
  5
12E
100
AcDbEntity
  8
1
  6
CONTINUOUS
 62
           7
100
AcDbLine
 10
-305.206600471144
 20
472.287869016229
 11
-305.70660047114
 21
472.787869016229
  0
LINE
  5
12D
100
AcDbEntity
  8
0
  6
CONTINUOUS
 62
           7
100
AcDbLine
 10
-302.20660047117
 20
386.18786965455
 11
-302.20660047114
 21
394.177755231743
  0
LINE
  5
12C
100
AcDbEntity
  8
1
  6
CONTINUOUS
 62
           7
100
AcDbLine
 10
-302.606600471171
 20
385.78786965455
 11
-302.20660047117
 21
386.18786965455
  0
LINE
  5
12B
100
AcDbEntity
  8
1
  6
CONTINUOUS
 62
           7
100
AcDbLine
 10
-320.206600471134
 20
394.833378371145
 11
-320.206600471134
 21
376.287870292884
  0
LINE
  5
12A
100
AcDbEntity
  8
1
  6
CONTINUOUS
 62
           7
100
AcDbLine
 10
-320.267709534948
 20
376.348979356697
 11
-320.267709534948
 21
394.830329968593
  0
LINE
  5
129
100
AcDbEntity
  8
1
  6
CONTINUOUS
 62
           7
100
AcDbLine
 10
-315.206600471067
 20
462.287869016229
 11
-315.206600471116
 21
441.249189031893
  0
LINE
  5
128
100
AcDbEntity
  8
1
  6
CONTINUOUS
 62
           7
100
AcDbLine
 10
-320.206600471134
 20
443.742360938006
 11
-320.206600471134
 21
462.287869016268
  0
LINE
  5
127
100
AcDbEntity
  8
1
  6
CONTINUOUS
 62
           7
100
AcDbLine
 10
-320.267709534948
 20
462.226759952454
 11
-320.267709534948
 21
443.745409340559
  0
LINE
  5
126
100
AcDbEntity
  8
1
  6
CONTINUOUS
 62
           7
100
AcDbLine
 10
-337.206600471156
 20
385.414425958827
 11
-337.206600471156
 21
377.287870292727
  0
LINE
  5
125
100
AcDbEntity
  8
1
  6
CONTINUOUS
 62
           7
100
AcDbLine
 10
-305.2066005842
 20
460.787869654576
 11
-306.706600471138
 21
460.787869654576
  0
LINE
  5
124
100
AcDbEntity
  8
1
  6
CONTINUOUS
 62
           7
100
AcDbLine
 10
-306.706600471136
 20
458.087869654576
 11
-306.706600471138
 21
460.787869654576
  0
LINE
  5
123
100
AcDbEntity
  8
1
  6
CONTINUOUS
 62
           7
100
AcDbLine
 10
-306.706600471136
 20
458.087869654576
 11
-305.2066005842
 21
458.087869654576
  0
LINE
  5
122
100
AcDbEntity
  8
1
  6
DASH_CENTER
 62
           3
100
AcDbLine
 10
-315.706600471156
 20
433.487869654576
 11
-315.706600471156
 21
415.287869654576
  0
LINE
  5
121
100
AcDbEntity
  8
1
  6
DASH_CENTER
 62
           3
100
AcDbLine
 10
-319.706600471156
 20
419.287869654576
 11
-312.206600471156
 21
419.287869654576
  0
LINE
  5
120
100
AcDbEntity
  8
1
  6
CONTINUOUS
 62
           7
100
AcDbLine
 10
-319.806600471156
 20
426.287869654576
 11
-306.106600471156
 21
426.287869654576
  0
LINE
  5
11F
100
AcDbEntity
  8
1
  6
CONTINUOUS
 62
           7
100
AcDbLine
 10
-317.706600471156
 20
426.287869654576
 11
-317.706600471156
 21
432.287869654576
  0
LINE
  5
11E
100
AcDbEntity
  8
1
  6
CONTINUOUS
 62
           7
100
AcDbLine
 10
-313.706600471156
 20
426.287869654576
 11
-313.706600471156
 21
432.287869654576
  0
LINE
  5
11D
100
AcDbEntity
  8
1
  6
CONTINUOUS
 62
           3
100
AcDbLine
 10
-318.206600471156
 20
426.287869654576
 11
-318.206600471156
 21
432.287869654576
  0
LINE
  5
11C
100
AcDbEntity
  8
1
  6
CONTINUOUS
 62
           3
100
AcDbLine
 10
-313.206600471156
 20
426.287869654576
 11
-313.206600471156
 21
432.287869654576
  0
LINE
  5
11B
100
AcDbEntity
  8
1
  6
CONTINUOUS
 62
           7
100
AcDbLine
 10
-320.206600471156
 20
432.2878696545
 11
-312.206600471156
 21
432.287869654549
  0
LINE
  5
11A
100
AcDbEntity
  8
1
  6
CONTINUOUS
 62
           7
100
AcDbLine
 10
-312.20660047111
 20
406.287869654515
 11
-320.206600471156
 21
406.287869654587
  0
LINE
  5
119
100
AcDbEntity
  8
0
  6
CONTINUOUS
 62
           7
100
AcDbLine
 10
-305.706600471201
 20
396.685369654576
 11
-305.706600471201
 21
441.890369654576
  0
LINE
  5
118
100
AcDbEntity
  8
1
  6
CONTINUOUS
 62
           7
100
AcDbLine
 10
-319.806600471283
 20
412.287869654576
 11
-306.106600471156
 21
412.287869654576
  0
LINE
  5
117
100
AcDbEntity
  8
0
  6
CONTINUOUS
 62
           7
100
AcDbLine
 10
-305.812582852834
 20
441.890369654576
 11
-305.706600471155
 21
441.890369654576
  0
LINE
  5
116
100
AcDbEntity
  8
0
  6
CONTINUOUS
 62
           7
100
AcDbLine
 10
-305.812582852834
 20
396.685369654576
 11
-305.706600471201
 21
396.685369654576
  0
LINE
  5
115
100
AcDbEntity
  8
1
  6
CONTINUOUS
 62
           7
100
AcDbLine
 10
-306.106600471156
 20
412.287869654576
 11
-305.706600471159
 21
411.887869654576
  0
LINE
  5
114
100
AcDbEntity
  8
1
  6
CONTINUOUS
 62
           7
100
AcDbLine
 10
-306.106600471156
 20
426.287869654576
 11
-305.706600471156
 21
426.687869654576
  0
LINE
  5
113
100
AcDbEntity
  8
1
  6
CONTINUOUS
 62
           7
100
AcDbLine
 10
-319.806600471283
 20
412.287869654576
 11
-320.206600471286
 21
411.887869654576
  0
LINE
  5
112
100
AcDbEntity
  8
1
  6
CONTINUOUS
 62
           7
100
AcDbLine
 10
-319.806600471156
 20
426.287869654576
 11
-320.206600471156
 21
426.687869654576
  0
LINE
  5
111
100
AcDbEntity
  8
1
  6
CONTINUOUS
 62
           7
100
AcDbLine
 10
-312.206600471156
 20
440.310466244865
 11
-312.206600471156
 21
432.287869654631
  0
LINE
  5
110
100
AcDbEntity
  8
1
  6
CONTINUOUS
 62
           7
100
AcDbLine
 10
-312.20660047111
 20
406.287869654515
 11
-312.20660047111
 21
398.265273064291
  0
LINE
  5
10F
100
AcDbEntity
  8
1
  6
CONTINUOUS
 62
           3
100
AcDbLine
 10
-330.206600471156
 20
432.087869654576
 11
-346.206600471156
 21
432.087869654576
  0
LINE
  5
10E
100
AcDbEntity
  8
1
  6
CONTINUOUS
 62
           3
100
AcDbLine
 10
-330.206600471156
 20
436.487869654576
 11
-330.676134820486
 21
436.487869654576
  0
LINE
  5
10D
100
AcDbEntity
  8
1
  6
CONTINUOUS
 62
           3
100
AcDbLine
 10
-330.206600471156
 20
432.087869654576
 11
-328.8209598251
 21
431.287869654576
  0
LINE
  5
10C
100
AcDbEntity
  8
1
  6
CONTINUOUS
 62
           3
100
AcDbLine
 10
-330.206600471156
 20
436.487869654576
 11
-328.8209598251
 21
437.287869654576
  0
LINE
  5
10B
100
AcDbEntity
  8
1
  6
CONTINUOUS
 62
           7
100
AcDbLine
 10
-328.206600471156
 20
438.081825575923
 11
-328.206600471156
 21
429.287869654576
  0
LINE
  5
10A
100
AcDbEntity
  8
1
  6
CONTINUOUS
 62
           7
100
AcDbLine
 10
-328.206600471156
 20
429.287869654576
 11
-322.606600471156
 21
429.287869654576
  0
LINE
  5
109
100
AcDbEntity
  8
1
  6
CONTINUOUS
 62
           7
100
AcDbLine
 10
-322.606600471156
 20
429.287869654576
 11
-322.206600471156
 21
429.687869654576
  0
LINE
  5
108
100
AcDbEntity
  8
1
  6
CONTINUOUS
 62
           7
100
AcDbLine
 10
-322.206600471156
 20
429.687869654576
 11
-322.206600471156
 21
438.887869654576
  0
LINE
  5
107
100
AcDbEntity
  8
1
  6
CONTINUOUS
 62
           7
100
AcDbLine
 10
-322.206600471156
 20
438.887869654576
 11
-322.606600471156
 21
439.287869654576
  0
LINE
  5
106
100
AcDbEntity
  8
1
  6
CONTINUOUS
 62
           7
100
AcDbLine
 10
-322.606600471156
 20
439.287869654576
 11
-326.922992846359
 21
439.287869654576
  0
LINE
  5
105
100
AcDbEntity
  8
1
  6
CONTINUOUS
 62
           7
100
AcDbLine
 10
-328.456600471156
 20
437.287869654576
 11
-329.284277357198
 21
437.287869654576
  0
LINE
  5
104
100
AcDbEntity
  8
1
  6
CONTINUOUS
 62
           7
100
AcDbLine
 10
-345.406600471156
 20
437.287869654576
 11
-346.206600471156
 21
436.487869654576
  0
LINE
  5
103
100
AcDbEntity
  8
1
  6
CONTINUOUS
 62
           7
100
AcDbLine
 10
-346.206600471156
 20
436.487869654576
 11
-346.206600471156
 21
432.087869654576
  0
LINE
  5
102
100
AcDbEntity
  8
1
  6
CONTINUOUS
 62
           7
100
AcDbLine
 10
-346.206600471156
 20
432.087869654576
 11
-345.406600471156
 21
431.287869654576
  0
LINE
  5
101
100
AcDbEntity
  8
1
  6
CONTINUOUS
 62
           7
100
AcDbLine
 10
-345.406600471156
 20
431.287869654576
 11
-328.456600471156
 21
431.287869654576
  0
LINE
  5
100
100
AcDbEntity
  8
1
  6
CONTINUOUS
 62
           7
100
AcDbLine
 10
-330.206600471156
 20
431.287869654576
 11
-330.206600471156
 21
436.732458366374
  0
LINE
  5
FF
100
AcDbEntity
  8
1
  6
CONTINUOUS
 62
           7
100
AcDbLine
 10
-345.406600471156
 20
437.287869654576
 11
-345.406600471156
 21
431.287869654576
  0
LINE
  5
FE
100
AcDbEntity
  8
1
  6
CONTINUOUS
 62
           7
100
AcDbLine
 10
-322.606600471156
 20
429.287869654576
 11
-322.606600471156
 21
439.287869654576
  0
LINE
  5
FD
100
AcDbEntity
  8
1
  6
CONTINUOUS
 62
           3
100
AcDbLine
 10
-342.215933564728
 20
436.487869654576
 11
-346.206600471156
 21
436.487869654576
  0
LINE
  5
FC
100
AcDbEntity
  8
1
  6
CONTINUOUS
 62
           7
100
AcDbLine
 10
-343.607791028016
 20
437.287869654576
 11
-345.406600471156
 21
437.287869654576
  0
LINE
  5
FB
100
AcDbEntity
  8
1
  6
CONTINUOUS
 62
           7
100
AcDbLine
 10
-351.206600471156
 20
390.787869654576
 11
-351.206600471156
 21
447.787869654576
  0
LINE
  5
FA
100
AcDbEntity
  8
1
  6
CONTINUOUS
 62
           7
100
AcDbLine
 10
-351.206600471156
 20
445.587869654576
 11
-350.456600471156
 21
445.587869654576
  0
LINE
  5
F9
100
AcDbEntity
  8
1
  6
CONTINUOUS
 62
           7
100
AcDbLine
 10
-350.456600471156
 20
445.587869654576
 11
-350.456600471156
 21
446.937869654576
  0
LINE
  5
F8
100
AcDbEntity
  8
1
  6
CONTINUOUS
 62
           7
100
AcDbLine
 10
-350.456600471156
 20
446.937869654576
 11
-351.206600471156
 21
446.937869654576
  0
LINE
  5
F7
100
AcDbEntity
  8
1
  6
CONTINUOUS
 62
           7
100
AcDbLine
 10
-351.206600471156
 20
392.987869654576
 11
-350.456600471156
 21
392.987869654576
  0
LINE
  5
F6
100
AcDbEntity
  8
1
  6
CONTINUOUS
 62
           7
100
AcDbLine
 10
-350.456600471156
 20
392.987869654576
 11
-350.456600471156
 21
391.637869654576
  0
LINE
  5
F5
100
AcDbEntity
  8
1
  6
CONTINUOUS
 62
           7
100
AcDbLine
 10
-350.456600471156
 20
391.637869654576
 11
-351.206600471156
 21
391.637869654576
  0
LINE
  5
F4
100
AcDbEntity
  8
1
  6
CONTINUOUS
 62
           7
100
AcDbLine
 10
-351.206600471156
 20
390.787869654576
 11
-350.706600471156
 21
390.287869654576
  0
LINE
  5
F3
100
AcDbEntity
  8
1
  6
CONTINUOUS
 62
           7
100
AcDbLine
 10
-351.206600471156
 20
447.787869654576
 11
-350.706600471156
 21
448.287869654576
  0
LINE
  5
F2
100
AcDbEntity
  8
1
  6
CONTINUOUS
 62
           7
100
AcDbLine
 10
-335.956600471156
 20
408.787869654576
 11
-336.456600471156
 21
409.287869654576
  0
LINE
  5
F1
100
AcDbEntity
  8
1
  6
CONTINUOUS
 62
           7
100
AcDbLine
 10
-351.206600471156
 20
408.787869654576
 11
-350.706600471156
 21
409.287869654576
  0
LINE
  5
F0
100
AcDbEntity
  8
1
  6
CONTINUOUS
 62
           7
100
AcDbLine
 10
-351.206600471156
 20
429.787869654576
 11
-350.706600471156
 21
429.287869654576
  0
LINE
  5
EF
100
AcDbEntity
  8
1
  6
CONTINUOUS
 62
           7
100
AcDbLine
 10
-335.956600471156
 20
429.787869654576
 11
-336.456600471156
 21
429.287869654576
  0
LINE
  5
EE
100
AcDbEntity
  8
1
  6
CONTINUOUS
 62
           7
100
AcDbLine
 10
-335.956600471156
 20
431.887869654576
 11
-351.206600471156
 21
431.887869654576
  0
LINE
  5
ED
100
AcDbEntity
  8
1
  6
CONTINUOUS
 62
           3
100
AcDbLine
 10
-335.956600471156
 20
431.287869654576
 11
-351.206600471156
 21
431.287869654576
  0
LINE
  5
EC
100
AcDbEntity
  8
1
  6
CONTINUOUS
 62
           7
100
AcDbLine
 10
-335.956600471156
 20
408.787869654576
 11
-335.956600471155
 21
403.429264376058
  0
LINE
  5
EB
100
AcDbEntity
  8
1
  6
CONTINUOUS
 62
           3
100
AcDbLine
 10
-351.206600471156
 20
402.287869654576
 11
-341.793181395848
 21
402.287869654576
  0
LINE
  5
EA
100
AcDbEntity
  8
1
  6
CONTINUOUS
 62
           7
100
AcDbLine
 10
-351.206600471156
 20
401.487869654576
 11
-343.295195120652
 21
401.487869654576
  0
LINE
  5
E9
100
AcDbEntity
  8
1
  6
CONTINUOUS
 62
           7
100
AcDbLine
 10
-341.956600471156
 20
407.787869654576
 11
-335.956600471156
 21
407.787869654576
  0
LINE
  5
E8
100
AcDbEntity
  8
1
  6
CONTINUOUS
 62
           7
100
AcDbLine
 10
-341.956600471156
 20
404.787869654576
 11
-341.956600471156
 21
407.787869654576
  0
LINE
  5
E7
100
AcDbEntity
  8
1
  6
CONTINUOUS
 62
           7
100
AcDbLine
 10
-335.956600471156
 20
404.787869654576
 11
-341.956600471156
 21
404.787869654576
  0
LINE
  5
E6
100
AcDbEntity
  8
1
  6
CONTINUOUS
 62
           7
100
AcDbLine
 10
-351.206600471156
 20
404.987869654576
 11
-341.956600471156
 21
404.987869654576
  0
LINE
  5
E5
100
AcDbEntity
  8
1
  6
CONTINUOUS
 62
           7
100
AcDbLine
 10
-351.206600471156
 20
407.587869654576
 11
-341.956600471156
 21
407.587869654576
  0
LINE
  5
E4
100
AcDbEntity
  8
1
  6
DASH_CENTER
 62
           3
100
AcDbLine
 10
-346.882176035277
 20
398.287869654576
 11
-352.406600471156
 21
398.287869654576
  0
LINE
  5
E3
100
AcDbEntity
  8
1
  6
CONTINUOUS
 62
           7
100
AcDbLine
 10
-349.014513152511
 20
395.087869654576
 11
-351.206600471156
 21
395.087869654576
  0
LINE
  5
E2
100
AcDbEntity
  8
1
  6
CONTINUOUS
 62
           3
100
AcDbLine
 10
-349.406907533318
 20
394.287869654576
 11
-351.206600471156
 21
394.287869654576
  0
LINE
  5
E1
100
AcDbEntity
  8
1
  6
CONTINUOUS
 62
           7
100
AcDbLine
 10
-350.106600471156
 20
390.287869654576
 11
-350.706600471156
 21
390.287869654576
  0
LINE
  5
E0
100
AcDbEntity
  8
1
  6
CONTINUOUS
 62
           7
100
AcDbLine
 10
-342.603265251751
 20
436.687869654576
 11
-351.206600471156
 21
436.687869654576
  0
LINE
  5
DF
100
AcDbEntity
  8
1
  6
CONTINUOUS
 62
           3
100
AcDbLine
 10
-343.607791028016
 20
437.287869654576
 11
-351.206600471156
 21
437.287869654576
  0
LINE
  5
DE
100
AcDbEntity
  8
1
  6
CONTINUOUS
 62
           7
100
AcDbLine
 10
-350.106600471156
 20
448.287869654576
 11
-350.706600471156
 21
448.287869654576
  0
LINE
  5
DD
100
AcDbEntity
  8
1
  6
CONTINUOUS
 62
           7
100
AcDbLine
 10
-345.106600471156
 20
456.537869016145
 11
-345.106600471156
 21
459.537869016145
  0
LINE
  5
DC
100
AcDbEntity
  8
1
  6
CONTINUOUS
 62
           7
100
AcDbLine
 10
-345.106600471156
 20
460.787869016145
 11
-347.906600471156
 21
460.787869016145
  0
LINE
  5
DB
100
AcDbEntity
  8
1
  6
CONTINUOUS
 62
           7
100
AcDbLine
 10
-347.906600471156
 20
460.787869016145
 11
-348.106600471156
 21
460.587869016145
  0
LINE
  5
DA
100
AcDbEntity
  8
1
  6
CONTINUOUS
 62
           7
100
AcDbLine
 10
-348.106600471156
 20
460.587869016145
 11
-348.106600471156
 21
455.487869016145
  0
LINE
  5
D9
100
AcDbEntity
  8
1
  6
CONTINUOUS
 62
           7
100
AcDbLine
 10
-348.106600471156
 20
455.487869016145
 11
-347.906600471156
 21
455.287869016145
  0
LINE
  5
D8
100
AcDbEntity
  8
1
  6
CONTINUOUS
 62
           7
100
AcDbLine
 10
-347.906600471156
 20
455.287869016145
 11
-345.106600471156
 21
455.287869016145
  0
LINE
  5
D7
100
AcDbEntity
  8
1
  6
CONTINUOUS
 62
           7
100
AcDbLine
 10
-345.106600471156
 20
455.287869016145
 11
-345.106600471156
 21
456.437869016145
  0
LINE
  5
D6
100
AcDbEntity
  8
1
  6
CONTINUOUS
 62
           7
100
AcDbLine
 10
-345.106600471156
 20
459.637869016145
 11
-345.106600471156
 21
460.787869016145
  0
LINE
  5
D5
100
AcDbEntity
  8
1
  6
CONTINUOUS
 62
           7
100
AcDbLine
 10
-347.906600471156
 20
460.787869016145
 11
-347.906600471156
 21
455.287869016145
  0
LINE
  5
D4
100
AcDbEntity
  8
1
  6
DASH_CENTER
 62
           3
100
AcDbLine
 10
-342.988695348542
 20
387.187869654576
 11
-335.743418744942
 21
387.187869654576
  0
LINE
  5
D3
100
AcDbEntity
  8
1
  6
DASH_CENTER
 62
           3
100
AcDbLine
 10
-339.406600471156
 20
390.652090005542
 11
-339.406600471156
 21
383.580352961309
  0
LINE
  5
D2
100
AcDbEntity
  8
1
  6
PHANTOM
 62
           3
100
AcDbLine
 10
-336.57817334641
 20
387.187869654576
 11
-339.406600471156
 21
390.016296779322
  0
LINE
  5
D1
100
AcDbEntity
  8
1
  6
PHANTOM
 62
           3
100
AcDbLine
 10
-342.235027595902
 20
387.187869654576
 11
-339.406600471156
 21
390.016296779322
  0
LINE
  5
D0
100
AcDbEntity
  8
1
  6
PHANTOM
 62
           3
100
AcDbLine
 10
-342.235027595902
 20
387.187869654576
 11
-339.406600471156
 21
384.35944252983
  0
LINE
  5
CF
100
AcDbEntity
  8
1
  6
PHANTOM
 62
           3
100
AcDbLine
 10
-339.406600471156
 20
384.35944252983
 11
-336.57817334641
 21
387.187869654576
  0
LINE
  5
CE
100
AcDbEntity
  8
1
  6
CONTINUOUS
 62
           7
100
AcDbLine
 10
-315.206600471101
 20
471.537869654576
 11
-315.206600471101
 21
463.037869654576
  0
LINE
  5
CD
100
AcDbEntity
  8
1
  6
CONTINUOUS
 62
           7
100
AcDbLine
 10
-319.906600471101
 20
471.537869654576
 11
-319.906600471101
 21
463.037869654576
  0
LINE
  5
CC
100
AcDbEntity
  8
1
  6
CONTINUOUS
 62
           7
100
AcDbLine
 10
-297.906600358001
 20
464.787869654576
 11
-297.906600358001
 21
469.787869654576
  0
LINE
  5
CB
100
AcDbEntity
  8
1
  6
CONTINUOUS
 62
           7
100
AcDbLine
 10
-297.906600358001
 20
469.787869654576
 11
-315.006600471101
 21
469.787869654576
  0
LINE
  5
CA
100
AcDbEntity
  8
1
  6
CONTINUOUS
 62
           7
100
AcDbLine
 10
-315.006600471101
 20
464.787869654576
 11
-297.906600358001
 21
464.787869654576
  0
LINE
  5
C9
100
AcDbEntity
  8
1
  6
CONTINUOUS
 62
           7
100
AcDbLine
 10
-313.606600471101
 20
469.787869654576
 11
-313.606600471101
 21
464.787869654576
  0
LINE
  5
C8
100
AcDbEntity
  8
1
  6
CONTINUOUS
 62
           7
100
AcDbLine
 10
-297.206600358001
 20
469.087869654576
 11
-297.906600358001
 21
469.787869654576
  0
LINE
  5
C7
100
AcDbEntity
  8
1
  6
CONTINUOUS
 62
           7
100
AcDbLine
 10
-297.206600358001
 20
465.487869654576
 11
-297.206600358001
 21
469.087869654576
  0
LINE
  5
C6
100
AcDbEntity
  8
1
  6
CONTINUOUS
 62
           7
100
AcDbLine
 10
-297.906600358001
 20
464.787869654576
 11
-297.206600358001
 21
465.487869654576
  0
LINE
  5
C5
100
AcDbEntity
  8
1
  6
CONTINUOUS
 62
           7
100
AcDbLine
 10
-319.906600471101
 20
463.037869654576
 11
-315.206600471101
 21
463.037869654576
  0
LINE
  5
C4
100
AcDbEntity
  8
1
  6
CONTINUOUS
 62
           7
100
AcDbLine
 10
-320.206600471101
 20
463.337869654576
 11
-319.906600471101
 21
463.037869654576
  0
LINE
  5
C3
100
AcDbEntity
  8
1
  6
CONTINUOUS
 62
           7
100
AcDbLine
 10
-320.206600471101
 20
471.237869654576
 11
-320.206600471101
 21
463.337869654576
  0
LINE
  5
C2
100
AcDbEntity
  8
1
  6
CONTINUOUS
 62
           7
100
AcDbLine
 10
-319.906600471101
 20
471.537869654576
 11
-320.206600471101
 21
471.237869654576
  0
LINE
  5
C1
100
AcDbEntity
  8
1
  6
CONTINUOUS
 62
           7
100
AcDbLine
 10
-315.206600471101
 20
471.537869654576
 11
-319.906600471101
 21
471.537869654576
  0
LINE
  5
C0
100
AcDbEntity
  8
1
  6
CONTINUOUS
 62
           3
100
AcDbLine
 10
-313.606600471101
 20
465.487869654576
 11
-314.819036036399
 21
464.787869654576
  0
LINE
  5
BF
100
AcDbEntity
  8
1
  6
CONTINUOUS
 62
           3
100
AcDbLine
 10
-313.606600471101
 20
469.087869654576
 11
-314.819036036399
 21
469.787869654576
  0
LINE
  5
BE
100
AcDbEntity
  8
1
  6
CONTINUOUS
 62
           3
100
AcDbLine
 10
-313.606600471101
 20
465.487869654576
 11
-297.206600358001
 21
465.487869654576
  0
LINE
  5
BD
100
AcDbEntity
  8
1
  6
CONTINUOUS
 62
           3
100
AcDbLine
 10
-313.606600471101
 20
469.087869654576
 11
-297.206600358001
 21
469.087869654576
  0
LINE
  5
BC
100
AcDbEntity
  8
1
  6
CONTINUOUS
 62
           7
100
AcDbLine
 10
-376.29695256664
 20
433.640533901928
 11
-377.010596746186
 21
435.836904844718
  0
LINE
  5
BB
100
AcDbEntity
  8
1
  6
CONTINUOUS
 62
           7
100
AcDbLine
 10
-377.842243509457
 20
431.924314441783
 11
-376.29695256664
 21
433.640533901928
  0
LINE
  5
BA
100
AcDbEntity
  8
1
  6
CONTINUOUS
 62
           7
100
AcDbLine
 10
-380.101178631821
 20
432.404465924428
 11
-377.842243509457
 21
431.924314441783
  0
LINE
  5
B9
100
AcDbEntity
  8
1
  6
CONTINUOUS
 62
           7
100
AcDbLine
 10
-380.814822811367
 20
434.600836867219
 11
-380.101178631821
 21
432.404465924428
  0
LINE
  5
B8
100
AcDbEntity
  8
1
  6
CONTINUOUS
 62
           7
100
AcDbLine
 10
-379.26953186855
 20
436.317056327363
 11
-380.814822811367
 21
434.600836867219
  0
LINE
  5
B7
100
AcDbEntity
  8
1
  6
CONTINUOUS
 62
           7
100
AcDbLine
 10
-377.010596746186
 20
435.836904844718
 11
-379.26953186855
 21
436.317056327363
  0
LINE
  5
B6
100
AcDbEntity
  8
1
  6
CONTINUOUS
 62
           7
100
AcDbLine
 10
-393.883165497585
 20
459.06000342605
 11
-395.75151021551
 21
460.417435320597
  0
LINE
  5
B5
100
AcDbEntity
  8
1
  6
CONTINUOUS
 62
           7
100
AcDbLine
 10
-394.124563643207
 20
456.763253490026
 11
-393.883165497585
 21
459.06000342605
  0
LINE
  5
B4
100
AcDbEntity
  8
1
  6
CONTINUOUS
 62
           7
100
AcDbLine
 10
-396.234306506755
 20
455.82393544855
 11
-394.124563643207
 21
456.763253490026
  0
LINE
  5
B3
100
AcDbEntity
  8
1
  6
CONTINUOUS
 62
           7
100
AcDbLine
 10
-398.10265122468
 20
457.181367343097
 11
-396.234306506755
 21
455.82393544855
  0
LINE
  5
B2
100
AcDbEntity
  8
1
  6
CONTINUOUS
 62
           7
100
AcDbLine
 10
-397.861253079058
 20
459.47811727912
 11
-398.10265122468
 21
457.181367343097
  0
LINE
  5
B1
100
AcDbEntity
  8
1
  6
CONTINUOUS
 62
           7
100
AcDbLine
 10
-395.75151021551
 20
460.417435320597
 11
-397.861253079058
 21
459.47811727912
  0
LINE
  5
B0
100
AcDbEntity
  8
1
  6
CONTINUOUS
 62
           7
100
AcDbLine
 10
-403.388225117412
 20
452.846353498326
 11
-404.109912953899
 21
454.096353498326
  0
LINE
  5
AF
100
AcDbEntity
  8
1
  6
CONTINUOUS
 62
           7
100
AcDbLine
 10
-404.109912953899
 20
454.096353498326
 11
-405.553288626873
 21
454.096353498326
  0
LINE
  5
AE
100
AcDbEntity
  8
1
  6
CONTINUOUS
 62
           7
100
AcDbLine
 10
-405.553288626873
 20
454.096353498326
 11
-406.27497646336
 21
452.846353498326
  0
LINE
  5
AD
100
AcDbEntity
  8
1
  6
CONTINUOUS
 62
           7
100
AcDbLine
 10
-406.27497646336
 20
452.846353498326
 11
-405.553288626873
 21
451.596353498326
  0
LINE
  5
AC
100
AcDbEntity
  8
1
  6
CONTINUOUS
 62
           7
100
AcDbLine
 10
-405.553288626873
 20
451.596353498326
 11
-404.109912953899
 21
451.596353498326
  0
LINE
  5
AB
100
AcDbEntity
  8
1
  6
CONTINUOUS
 62
           7
100
AcDbLine
 10
-404.109912953899
 20
451.596353498326
 11
-403.388225117412
 21
452.846353498326
  0
LINE
  5
AA
100
AcDbEntity
  8
1
  6
CONTINUOUS
 62
           7
100
AcDbLine
 10
-422.956600471171
 20
457.316181179658
 11
-422.956600471171
 21
458.759556852632
  0
LINE
  5
A9
100
AcDbEntity
  8
1
  6
CONTINUOUS
 62
           7
100
AcDbLine
 10
-424.206600471171
 20
456.594493343171
 11
-422.956600471171
 21
457.316181179658
  0
LINE
  5
A8
100
AcDbEntity
  8
1
  6
CONTINUOUS
 62
           7
100
AcDbLine
 10
-425.456600471171
 20
457.316181179658
 11
-424.206600471171
 21
456.594493343171
  0
LINE
  5
A7
100
AcDbEntity
  8
1
  6
CONTINUOUS
 62
           7
100
AcDbLine
 10
-425.456600471171
 20
458.759556852632
 11
-425.456600471171
 21
457.316181179658
  0
LINE
  5
A6
100
AcDbEntity
  8
1
  6
CONTINUOUS
 62
           7
100
AcDbLine
 10
-424.206600471171
 20
459.481244689119
 11
-425.456600471171
 21
458.759556852632
  0
LINE
  5
A5
100
AcDbEntity
  8
1
  6
CONTINUOUS
 62
           7
100
AcDbLine
 10
-422.956600471171
 20
458.759556852632
 11
-424.206600471171
 21
459.481244689119
  0
LINE
  5
A4
100
AcDbEntity
  8
1
  6
CONTINUOUS
 62
           7
100
AcDbLine
 10
-425.36130100955
 20
469.287869654576
 11
-426.516001547929
 21
467.287869654576
  0
LINE
  5
A3
100
AcDbEntity
  8
1
  6
CONTINUOUS
 62
           7
100
AcDbLine
 10
-426.516001547929
 20
467.287869654576
 11
-425.36130100955
 21
465.287869654576
  0
LINE
  5
A2
100
AcDbEntity
  8
1
  6
CONTINUOUS
 62
           7
100
AcDbLine
 10
-425.36130100955
 20
465.287869654576
 11
-423.051899932792
 21
465.287869654576
  0
LINE
  5
A1
100
AcDbEntity
  8
1
  6
CONTINUOUS
 62
           7
100
AcDbLine
 10
-423.051899932792
 20
465.287869654576
 11
-421.897199394413
 21
467.287869654576
  0
LINE
  5
A0
100
AcDbEntity
  8
1
  6
CONTINUOUS
 62
           7
100
AcDbLine
 10
-421.897199394413
 20
467.287869654576
 11
-423.051899932792
 21
469.287869654576
  0
LINE
  5
9F
100
AcDbEntity
  8
1
  6
CONTINUOUS
 62
           7
100
AcDbLine
 10
-423.051899932792
 20
469.287869654576
 11
-425.36130100955
 21
469.287869654576
  0
LINE
  5
9E
100
AcDbEntity
  8
1
  6
CONTINUOUS
 62
           7
100
AcDbLine
 10
-442.859912315469
 20
454.096353498326
 11
-444.303287988443
 21
454.096353498326
  0
LINE
  5
9D
100
AcDbEntity
  8
1
  6
CONTINUOUS
 62
           7
100
AcDbLine
 10
-444.303287988443
 20
454.096353498326
 11
-445.02497582493
 21
452.846353498326
  0
LINE
  5
9C
100
AcDbEntity
  8
1
  6
CONTINUOUS
 62
           7
100
AcDbLine
 10
-445.02497582493
 20
452.846353498326
 11
-444.303287988443
 21
451.596353498326
  0
LINE
  5
9B
100
AcDbEntity
  8
1
  6
CONTINUOUS
 62
           7
100
AcDbLine
 10
-444.303287988443
 20
451.596353498326
 11
-442.859912315469
 21
451.596353498326
  0
LINE
  5
9A
100
AcDbEntity
  8
1
  6
CONTINUOUS
 62
           7
100
AcDbLine
 10
-442.859912315469
 20
451.596353498326
 11
-442.138224478982
 21
452.846353498326
  0
LINE
  5
99
100
AcDbEntity
  8
1
  6
CONTINUOUS
 62
           7
100
AcDbLine
 10
-442.138224478982
 20
452.846353498326
 11
-442.859912315469
 21
454.096353498326
  0
LINE
  5
98
100
AcDbEntity
  8
1
  6
CONTINUOUS
 62
           7
100
AcDbLine
 10
-452.661690726832
 20
460.417435320597
 11
-454.530035444757
 21
459.06000342605
  0
LINE
  5
97
100
AcDbEntity
  8
1
  6
CONTINUOUS
 62
           7
100
AcDbLine
 10
-450.551947863284
 20
459.47811727912
 11
-452.661690726832
 21
460.417435320597
  0
LINE
  5
96
100
AcDbEntity
  8
1
  6
CONTINUOUS
 62
           7
100
AcDbLine
 10
-450.310549717662
 20
457.181367343097
 11
-450.551947863284
 21
459.47811727912
  0
LINE
  5
95
100
AcDbEntity
  8
1
  6
CONTINUOUS
 62
           7
100
AcDbLine
 10
-452.178894435587
 20
455.82393544855
 11
-450.310549717662
 21
457.181367343097
  0
LINE
  5
94
100
AcDbEntity
  8
1
  6
CONTINUOUS
 62
           7
100
AcDbLine
 10
-454.288637299135
 20
456.763253490026
 11
-452.178894435587
 21
455.82393544855
  0
LINE
  5
93
100
AcDbEntity
  8
1
  6
CONTINUOUS
 62
           7
100
AcDbLine
 10
-454.530035444757
 20
459.06000342605
 11
-454.288637299135
 21
456.763253490026
  0
LINE
  5
92
100
AcDbEntity
  8
1
  6
CONTINUOUS
 62
           7
100
AcDbLine
 10
-457.765084314921
 20
440.106245008335
 11
-459.015084314921
 21
439.384557171848
  0
LINE
  5
91
100
AcDbEntity
  8
1
  6
CONTINUOUS
 62
           7
100
AcDbLine
 10
-459.015084314921
 20
439.384557171848
 11
-459.015084314921
 21
437.941181498874
  0
LINE
  5
90
100
AcDbEntity
  8
1
  6
CONTINUOUS
 62
           7
100
AcDbLine
 10
-459.015084314921
 20
437.941181498874
 11
-457.765084314921
 21
437.219493662387
  0
LINE
  5
8F
100
AcDbEntity
  8
1
  6
CONTINUOUS
 62
           7
100
AcDbLine
 10
-457.765084314921
 20
437.219493662387
 11
-456.515084314921
 21
437.941181498874
  0
LINE
  5
8E
100
AcDbEntity
  8
1
  6
CONTINUOUS
 62
           7
100
AcDbLine
 10
-456.515084314921
 20
437.941181498874
 11
-456.515084314921
 21
439.384557171848
  0
LINE
  5
8D
100
AcDbEntity
  8
1
  6
CONTINUOUS
 62
           7
100
AcDbLine
 10
-456.515084314921
 20
439.384557171848
 11
-457.765084314921
 21
440.106245008335
  0
LINE
  5
8C
100
AcDbEntity
  8
1
  6
CONTINUOUS
 62
           7
100
AcDbLine
 10
-471.402604196155
 20
435.836904844718
 11
-472.116248375702
 21
433.640533901928
  0
LINE
  5
8B
100
AcDbEntity
  8
1
  6
CONTINUOUS
 62
           7
100
AcDbLine
 10
-469.143669073792
 20
436.317056327363
 11
-471.402604196155
 21
435.836904844718
  0
LINE
  5
8A
100
AcDbEntity
  8
1
  6
CONTINUOUS
 62
           7
100
AcDbLine
 10
-467.598378130975
 20
434.600836867218
 11
-469.143669073792
 21
436.317056327363
  0
LINE
  5
89
100
AcDbEntity
  8
1
  6
CONTINUOUS
 62
           7
100
AcDbLine
 10
-468.312022310521
 20
432.404465924428
 11
-467.598378130975
 21
434.600836867218
  0
LINE
  5
88
100
AcDbEntity
  8
1
  6
CONTINUOUS
 62
           7
100
AcDbLine
 10
-470.570957432884
 20
431.924314441783
 11
-468.312022310521
 21
432.404465924428
  0
LINE
  5
87
100
AcDbEntity
  8
1
  6
CONTINUOUS
 62
           7
100
AcDbLine
 10
-472.116248375702
 20
433.640533901928
 11
-470.570957432884
 21
431.924314441783
  0
LINE
  5
86
100
AcDbEntity
  8
1
  6
CONTINUOUS
 62
           7
100
AcDbLine
 10
-463.678287669228
 20
420.537869654576
 11
-464.399975505715
 21
419.287869654576
  0
LINE
  5
85
100
AcDbEntity
  8
1
  6
CONTINUOUS
 62
           7
100
AcDbLine
 10
-464.399975505715
 20
419.287869654576
 11
-463.678287669228
 21
418.037869654576
  0
LINE
  5
84
100
AcDbEntity
  8
1
  6
CONTINUOUS
 62
           7
100
AcDbLine
 10
-463.678287669228
 20
418.037869654576
 11
-462.234911996254
 21
418.037869654576
  0
LINE
  5
83
100
AcDbEntity
  8
1
  6
CONTINUOUS
 62
           7
100
AcDbLine
 10
-462.234911996254
 20
418.037869654576
 11
-461.513224159767
 21
419.287869654576
  0
LINE
  5
82
100
AcDbEntity
  8
1
  6
CONTINUOUS
 62
           7
100
AcDbLine
 10
-461.513224159767
 20
419.287869654576
 11
-462.234911996254
 21
420.537869654576
  0
LINE
  5
81
100
AcDbEntity
  8
1
  6
CONTINUOUS
 62
           7
100
AcDbLine
 10
-462.234911996254
 20
420.537869654576
 11
-463.678287669228
 21
420.537869654576
  0
LINE
  5
80
100
AcDbEntity
  8
1
  6
CONTINUOUS
 62
           7
100
AcDbLine
 10
-472.116248375702
 20
404.935205407224
 11
-471.402604196156
 21
402.738834464434
  0
LINE
  5
7F
100
AcDbEntity
  8
1
  6
CONTINUOUS
 62
           7
100
AcDbLine
 10
-470.570957432884
 20
406.651424867369
 11
-472.116248375702
 21
404.935205407224
  0
LINE
  5
7E
100
AcDbEntity
  8
1
  6
CONTINUOUS
 62
           7
100
AcDbLine
 10
-468.312022310521
 20
406.171273384724
 11
-470.570957432884
 21
406.651424867369
  0
LINE
  5
7D
100
AcDbEntity
  8
1
  6
CONTINUOUS
 62
           7
100
AcDbLine
 10
-467.598378130975
 20
403.974902441933
 11
-468.312022310521
 21
406.171273384724
  0
LINE
  5
7C
100
AcDbEntity
  8
1
  6
CONTINUOUS
 62
           7
100
AcDbLine
 10
-469.143669073792
 20
402.258682981788
 11
-467.598378130975
 21
403.974902441933
  0
LINE
  5
7B
100
AcDbEntity
  8
1
  6
CONTINUOUS
 62
           7
100
AcDbLine
 10
-471.402604196156
 20
402.738834464434
 11
-469.143669073792
 21
402.258682981788
  0
LINE
  5
7A
100
AcDbEntity
  8
1
  6
CONTINUOUS
 62
           7
100
AcDbLine
 10
-459.015084314921
 20
400.634557810278
 11
-459.015084314921
 21
399.191182137304
  0
LINE
  5
79
100
AcDbEntity
  8
1
  6
CONTINUOUS
 62
           7
100
AcDbLine
 10
-459.015084314921
 20
399.191182137304
 11
-457.765084314921
 21
398.469494300817
  0
LINE
  5
78
100
AcDbEntity
  8
1
  6
CONTINUOUS
 62
           7
100
AcDbLine
 10
-457.765084314921
 20
398.469494300817
 11
-456.515084314921
 21
399.191182137304
  0
LINE
  5
77
100
AcDbEntity
  8
1
  6
CONTINUOUS
 62
           7
100
AcDbLine
 10
-456.515084314921
 20
399.191182137304
 11
-456.515084314921
 21
400.634557810278
  0
LINE
  5
76
100
AcDbEntity
  8
1
  6
CONTINUOUS
 62
           7
100
AcDbLine
 10
-456.515084314921
 20
400.634557810278
 11
-457.765084314921
 21
401.356245646765
  0
LINE
  5
75
100
AcDbEntity
  8
1
  6
CONTINUOUS
 62
           7
100
AcDbLine
 10
-457.765084314921
 20
401.356245646765
 11
-459.015084314921
 21
400.634557810278
  0
LINE
  5
74
100
AcDbEntity
  8
1
  6
CONTINUOUS
 62
           7
100
AcDbLine
 10
-445.02497582493
 20
385.729385810826
 11
-444.303287988443
 21
384.479385810826
  0
LINE
  5
73
100
AcDbEntity
  8
1
  6
CONTINUOUS
 62
           7
100
AcDbLine
 10
-444.303287988443
 20
384.479385810826
 11
-442.859912315469
 21
384.479385810826
  0
LINE
  5
72
100
AcDbEntity
  8
1
  6
CONTINUOUS
 62
           7
100
AcDbLine
 10
-442.859912315469
 20
384.479385810826
 11
-442.138224478982
 21
385.729385810826
  0
LINE
  5
71
100
AcDbEntity
  8
1
  6
CONTINUOUS
 62
           7
100
AcDbLine
 10
-442.138224478982
 20
385.729385810826
 11
-442.859912315469
 21
386.979385810826
  0
LINE
  5
70
100
AcDbEntity
  8
1
  6
CONTINUOUS
 62
           7
100
AcDbLine
 10
-442.859912315469
 20
386.979385810826
 11
-444.303287988443
 21
386.979385810826
  0
LINE
  5
6F
100
AcDbEntity
  8
1
  6
CONTINUOUS
 62
           7
100
AcDbLine
 10
-444.303287988443
 20
386.979385810826
 11
-445.02497582493
 21
385.729385810826
  0
LINE
  5
6E
100
AcDbEntity
  8
1
  6
CONTINUOUS
 62
           7
100
AcDbLine
 10
-454.530035444757
 20
379.515735883102
 11
-452.661690726832
 21
378.158303988555
  0
LINE
  5
6D
100
AcDbEntity
  8
1
  6
CONTINUOUS
 62
           7
100
AcDbLine
 10
-454.288637299135
 20
381.812485819125
 11
-454.530035444757
 21
379.515735883102
  0
LINE
  5
6C
100
AcDbEntity
  8
1
  6
CONTINUOUS
 62
           7
100
AcDbLine
 10
-452.178894435587
 20
382.751803860602
 11
-454.288637299135
 21
381.812485819125
  0
LINE
  5
6B
100
AcDbEntity
  8
1
  6
CONTINUOUS
 62
           7
100
AcDbLine
 10
-450.310549717662
 20
381.394371966055
 11
-452.178894435587
 21
382.751803860602
  0
LINE
  5
6A
100
AcDbEntity
  8
1
  6
CONTINUOUS
 62
           7
100
AcDbLine
 10
-450.551947863284
 20
379.097622030031
 11
-450.310549717662
 21
381.394371966055
  0
LINE
  5
69
100
AcDbEntity
  8
1
  6
CONTINUOUS
 62
           7
100
AcDbLine
 10
-452.661690726832
 20
378.158303988555
 11
-450.551947863284
 21
379.097622030031
  0
LINE
  5
68
100
AcDbEntity
  8
1
  6
CONTINUOUS
 62
           7
100
AcDbLine
 10
-425.36130100955
 20
369.287869654576
 11
-423.051899932792
 21
369.287869654576
  0
LINE
  5
67
100
AcDbEntity
  8
1
  6
CONTINUOUS
 62
           7
100
AcDbLine
 10
-426.516001547929
 20
371.287869654576
 11
-425.36130100955
 21
369.287869654576
  0
LINE
  5
66
100
AcDbEntity
  8
1
  6
CONTINUOUS
 62
           7
100
AcDbLine
 10
-425.36130100955
 20
373.287869654576
 11
-426.516001547929
 21
371.287869654576
  0
LINE
  5
65
100
AcDbEntity
  8
1
  6
CONTINUOUS
 62
           7
100
AcDbLine
 10
-423.051899932792
 20
373.287869654576
 11
-425.36130100955
 21
373.287869654576
  0
LINE
  5
64
100
AcDbEntity
  8
1
  6
CONTINUOUS
 62
           7
100
AcDbLine
 10
-421.897199394413
 20
371.287869654576
 11
-423.051899932792
 21
373.287869654576
  0
LINE
  5
63
100
AcDbEntity
  8
1
  6
CONTINUOUS
 62
           7
100
AcDbLine
 10
-423.051899932792
 20
369.287869654576
 11
-421.897199394413
 21
371.287869654576
  0
LINE
  5
62
100
AcDbEntity
  8
1
  6
CONTINUOUS
 62
           7
100
AcDbLine
 10
-425.456600471171
 20
379.816182456519
 11
-424.206600471171
 21
379.094494620032
  0
LINE
  5
61
100
AcDbEntity
  8
1
  6
CONTINUOUS
 62
           7
100
AcDbLine
 10
-424.206600471171
 20
379.094494620032
 11
-422.956600471171
 21
379.816182456519
  0
LINE
  5
60
100
AcDbEntity
  8
1
  6
CONTINUOUS
 62
           7
100
AcDbLine
 10
-422.956600471171
 20
379.816182456519
 11
-422.956600471171
 21
381.259558129493
  0
LINE
  5
5F
100
AcDbEntity
  8
1
  6
CONTINUOUS
 62
           7
100
AcDbLine
 10
-422.956600471171
 20
381.259558129493
 11
-424.206600471171
 21
381.98124596598
  0
LINE
  5
5E
100
AcDbEntity
  8
1
  6
CONTINUOUS
 62
           7
100
AcDbLine
 10
-424.206600471171
 20
381.98124596598
 11
-425.456600471171
 21
381.259558129493
  0
LINE
  5
5D
100
AcDbEntity
  8
1
  6
CONTINUOUS
 62
           7
100
AcDbLine
 10
-425.456600471171
 20
381.259558129493
 11
-425.456600471171
 21
379.816182456519
  0
LINE
  5
5C
100
AcDbEntity
  8
1
  6
CONTINUOUS
 62
           7
100
AcDbLine
 10
-405.553288626873
 20
384.479385810826
 11
-404.109912953899
 21
384.479385810826
  0
LINE
  5
5B
100
AcDbEntity
  8
1
  6
CONTINUOUS
 62
           7
100
AcDbLine
 10
-404.109912953899
 20
384.479385810826
 11
-403.388225117412
 21
385.729385810826
  0
LINE
  5
5A
100
AcDbEntity
  8
1
  6
CONTINUOUS
 62
           7
100
AcDbLine
 10
-403.388225117412
 20
385.729385810826
 11
-404.109912953899
 21
386.979385810826
  0
LINE
  5
59
100
AcDbEntity
  8
1
  6
CONTINUOUS
 62
           7
100
AcDbLine
 10
-404.109912953899
 20
386.979385810826
 11
-405.553288626873
 21
386.979385810826
  0
LINE
  5
58
100
AcDbEntity
  8
1
  6
CONTINUOUS
 62
           7
100
AcDbLine
 10
-405.553288626873
 20
386.979385810826
 11
-406.27497646336
 21
385.729385810826
  0
LINE
  5
57
100
AcDbEntity
  8
1
  6
CONTINUOUS
 62
           7
100
AcDbLine
 10
-406.27497646336
 20
385.729385810826
 11
-405.553288626873
 21
384.479385810826
  0
LINE
  5
56
100
AcDbEntity
  8
1
  6
CONTINUOUS
 62
           7
100
AcDbLine
 10
-395.75151021551
 20
378.158303988555
 11
-393.883165497585
 21
379.515735883102
  0
LINE
  5
55
100
AcDbEntity
  8
1
  6
CONTINUOUS
 62
           7
100
AcDbLine
 10
-397.861253079058
 20
379.097622030032
 11
-395.75151021551
 21
378.158303988555
  0
LINE
  5
54
100
AcDbEntity
  8
1
  6
CONTINUOUS
 62
           7
100
AcDbLine
 10
-398.10265122468
 20
381.394371966055
 11
-397.861253079058
 21
379.097622030032
  0
LINE
  5
53
100
AcDbEntity
  8
1
  6
CONTINUOUS
 62
           7
100
AcDbLine
 10
-396.234306506755
 20
382.751803860602
 11
-398.10265122468
 21
381.394371966055
  0
LINE
  5
52
100
AcDbEntity
  8
1
  6
CONTINUOUS
 62
           7
100
AcDbLine
 10
-394.124563643207
 20
381.812485819126
 11
-396.234306506755
 21
382.751803860602
  0
LINE
  5
51
100
AcDbEntity
  8
1
  6
CONTINUOUS
 62
           7
100
AcDbLine
 10
-393.883165497585
 20
379.515735883102
 11
-394.124563643207
 21
381.812485819126
  0
LINE
  5
50
100
AcDbEntity
  8
1
  6
CONTINUOUS
 62
           7
100
AcDbLine
 10
-377.010596746186
 20
402.738834464434
 11
-376.29695256664
 21
404.935205407224
  0
LINE
  5
4F
100
AcDbEntity
  8
1
  6
CONTINUOUS
 62
           7
100
AcDbLine
 10
-379.26953186855
 20
402.258682981788
 11
-377.010596746186
 21
402.738834464434
  0
LINE
  5
4E
100
AcDbEntity
  8
1
  6
CONTINUOUS
 62
           7
100
AcDbLine
 10
-380.814822811367
 20
403.974902441933
 11
-379.26953186855
 21
402.258682981788
  0
LINE
  5
4D
100
AcDbEntity
  8
1
  6
CONTINUOUS
 62
           7
100
AcDbLine
 10
-380.101178631821
 20
406.171273384724
 11
-380.814822811367
 21
403.974902441933
  0
LINE
  5
4C
100
AcDbEntity
  8
1
  6
CONTINUOUS
 62
           7
100
AcDbLine
 10
-377.842243509457
 20
406.651424867369
 11
-380.101178631821
 21
406.171273384724
  0
LINE
  5
4B
100
AcDbEntity
  8
1
  6
CONTINUOUS
 62
           7
100
AcDbLine
 10
-376.29695256664
 20
404.935205407224
 11
-377.842243509457
 21
406.651424867369
  0
LINE
  5
4A
100
AcDbEntity
  8
1
  6
CONTINUOUS
 62
           7
100
AcDbLine
 10
-390.648116627421
 20
398.469494300817
 11
-389.398116627421
 21
399.191182137304
  0
LINE
  5
49
100
AcDbEntity
  8
1
  6
CONTINUOUS
 62
           7
100
AcDbLine
 10
-389.398116627421
 20
399.191182137304
 11
-389.398116627421
 21
400.634557810278
  0
LINE
  5
48
100
AcDbEntity
  8
1
  6
CONTINUOUS
 62
           7
100
AcDbLine
 10
-389.398116627421
 20
400.634557810278
 11
-390.648116627421
 21
401.356245646765
  0
LINE
  5
47
100
AcDbEntity
  8
1
  6
CONTINUOUS
 62
           7
100
AcDbLine
 10
-390.648116627421
 20
401.356245646765
 11
-391.898116627421
 21
400.634557810278
  0
LINE
  5
46
100
AcDbEntity
  8
1
  6
CONTINUOUS
 62
           7
100
AcDbLine
 10
-391.898116627421
 20
400.634557810278
 11
-391.898116627421
 21
399.191182137304
  0
LINE
  5
45
100
AcDbEntity
  8
1
  6
CONTINUOUS
 62
           7
100
AcDbLine
 10
-391.898116627421
 20
399.191182137304
 11
-390.648116627421
 21
398.469494300817
  0
LINE
  5
44
100
AcDbEntity
  8
1
  6
CONTINUOUS
 62
           7
100
AcDbLine
 10
-384.734913273115
 20
418.037869654576
 11
-384.013225436627
 21
419.287869654576
  0
LINE
  5
43
100
AcDbEntity
  8
1
  6
CONTINUOUS
 62
           7
100
AcDbLine
 10
-384.013225436627
 20
419.287869654576
 11
-384.734913273115
 21
420.537869654576
  0
LINE
  5
42
100
AcDbEntity
  8
1
  6
CONTINUOUS
 62
           7
100
AcDbLine
 10
-384.734913273115
 20
420.537869654576
 11
-386.178288946089
 21
420.537869654576
  0
LINE
  5
41
100
AcDbEntity
  8
1
  6
CONTINUOUS
 62
           7
100
AcDbLine
 10
-386.178288946089
 20
420.537869654576
 11
-386.899976782576
 21
419.287869654576
  0
LINE
  5
40
100
AcDbEntity
  8
1
  6
CONTINUOUS
 62
           7
100
AcDbLine
 10
-386.899976782576
 20
419.287869654576
 11
-386.178288946089
 21
418.037869654576
  0
LINE
  5
3F
100
AcDbEntity
  8
1
  6
CONTINUOUS
 62
           7
100
AcDbLine
 10
-386.178288946089
 20
418.037869654576
 11
-384.734913273115
 21
418.037869654576
  0
LINE
  5
3E
100
AcDbEntity
  8
1
  6
CONTINUOUS
 62
           7
100
AcDbLine
 10
-389.398116627421
 20
437.941181498874
 11
-389.398116627421
 21
439.384557171848
  0
LINE
  5
3D
100
AcDbEntity
  8
1
  6
CONTINUOUS
 62
           7
100
AcDbLine
 10
-389.398116627421
 20
439.384557171848
 11
-390.648116627421
 21
440.106245008335
  0
LINE
  5
3C
100
AcDbEntity
  8
1
  6
CONTINUOUS
 62
           7
100
AcDbLine
 10
-390.648116627421
 20
440.106245008335
 11
-391.898116627421
 21
439.384557171848
  0
LINE
  5
3B
100
AcDbEntity
  8
1
  6
CONTINUOUS
 62
           7
100
AcDbLine
 10
-391.898116627421
 20
439.384557171848
 11
-391.898116627421
 21
437.941181498874
  0
LINE
  5
3A
100
AcDbEntity
  8
1
  6
CONTINUOUS
 62
           7
100
AcDbLine
 10
-391.898116627421
 20
437.941181498874
 11
-390.648116627421
 21
437.219493662386
  0
LINE
  5
39
100
AcDbEntity
  8
1
  6
CONTINUOUS
 62
           7
100
AcDbLine
 10
-390.648116627421
 20
437.219493662386
 11
-389.398116627421
 21
437.941181498874
  0
LINE
  5
38
100
AcDbEntity
  8
1
  6
CONTINUOUS
 62
           7
100
AcDbLine
 10
-320.206600471156
 20
432.2878696545
 11
-320.206600471156
 21
406.287869654587
  0
LINE
  5
37
100
AcDbEntity
  8
1
  6
CONTINUOUS
 62
           7
100
AcDbLine
 10
-305.2066005842
 20
365.287856127014
 11
-305.2066005842
 21
396.355590710194
  0
LINE
  5
36
100
AcDbEntity
  8
1
  6
CONTINUOUS
 62
           7
100
AcDbLine
 10
-305.2066005842
 20
465.287869654576
 11
-305.2066005842
 21
442.220148598957
  0
LINE
  5
35
100
AcDbEntity
  8
1
  6
CONTINUOUS
 62
           7
100
AcDbLine
 10
-300.706600584182
 20
452.787869654576
 11
-305.2066005842
 21
452.787869654576
  0
LINE
  5
34
100
AcDbEntity
  8
1
  6
CONTINUOUS
 62
           7
100
AcDbLine
 10
-305.2066005842
 20
385.787869654576
 11
-300.706600584182
 21
385.787869654576
  0
LINE
  5
33
100
AcDbEntity
  8
1
  6
CONTINUOUS
 62
           7
100
AcDbLine
 10
-333.206600471156
 20
409.287869804752
 11
-350.706600471156
 21
409.287869654576
  0
LINE
  5
32
100
AcDbEntity
  8
1
  6
CONTINUOUS
 62
           7
100
AcDbLine
 10
-333.206600471156
 20
429.287869504399
 11
-350.706600471156
 21
429.287869654576
  0
LINE
  5
31
100
AcDbEntity
  8
1
  6
CONTINUOUS
 62
           7
100
AcDbLine
 10
-335.956600471156
 20
429.787869496898
 11
-335.956600471156
 21
431.887869654576
  0
INSERT
  5
2D
100
AcDbEntity
  8
0
100
AcDbBlockReference
  2
WBG_025_F
 10
0.0
 20
0.0
  0
CIRCLE
  5
29A
100
AcDbEntity
  8
0
 62
           7
100
AcDbCircle
 10
-376.206600471171
 20
419.287869654576
 40
0.5
  0
HATCH
  5
29B
100
AcDbEntity
  8
0
 62
           7
100
AcDbHatch
 10
0.0
 20
0.0
 30
0.0
210
0.0
220
0.0
230
1.0
  2
SOLID
 70
           1
 71
           1
 91
        1
 92
        1
 93
        1
 72
           2
 10
-376.2066004711711
 20
419.28786965457579
 40
0.5
 50
-180.0
 51
180.0
 73
           1
 97
        1
330
29A
 75
           0
 76
           1
 98
        1
 10
0.0
 20
0.0
  0
CIRCLE
  5
29D
100
AcDbEntity
  8
0
 62
           7
100
AcDbCircle
 10
-385.373784741174
 20
391.074177544537
 40
0.5
  0
HATCH
  5
29E
100
AcDbEntity
  8
0
 62
           7
100
AcDbHatch
 10
0.0
 20
0.0
 30
0.0
210
0.0
220
0.0
230
1.0
  2
SOLID
 70
           1
 71
           1
 91
        1
 92
        1
 93
        1
 72
           2
 10
-385.37378474117361
 20
391.07417754453701
 40
0.5
 50
-180.0
 51
180.0
 73
           1
 97
        1
330
29D
 75
           0
 76
           1
 98
        1
 10
0.0
 20
0.0
  0
CIRCLE
  5
2A0
100
AcDbEntity
  8
0
 62
           7
100
AcDbCircle
 10
-409.373784741174
 20
373.637156872409
 40
0.5
  0
HATCH
  5
2A1
100
AcDbEntity
  8
0
 62
           7
100
AcDbHatch
 10
0.0
 20
0.0
 30
0.0
210
0.0
220
0.0
230
1.0
  2
SOLID
 70
           1
 71
           1
 91
        1
 92
        1
 93
        1
 72
           2
 10
-409.37378474117361
 20
373.63715687240853
 40
0.5
 50
-180.0
 51
180.0
 73
           1
 97
        1
330
2A0
 75
           0
 76
           1
 98
        1
 10
0.0
 20
0.0
  0
CIRCLE
  5
2A3
100
AcDbEntity
  8
0
 62
           7
100
AcDbCircle
 10
-439.039416201169
 20
373.637156872409
 40
0.5
  0
HATCH
  5
2A4
100
AcDbEntity
  8
0
 62
           7
100
AcDbHatch
 10
0.0
 20
0.0
 30
0.0
210
0.0
220
0.0
230
1.0
  2
SOLID
 70
           1
 71
           1
 91
        1
 92
        1
 93
        1
 72
           2
 10
-439.03941620116859
 20
373.63715687240853
 40
0.5
 50
-180.0
 51
180.0
 73
           1
 97
        1
330
2A3
 75
           0
 76
           1
 98
        1
 10
0.0
 20
0.0
  0
CIRCLE
  5
2A6
100
AcDbEntity
  8
0
 62
           7
100
AcDbCircle
 10
-463.039416201168
 20
391.074177544537
 40
0.5
  0
HATCH
  5
2A7
100
AcDbEntity
  8
0
 62
           7
100
AcDbHatch
 10
0.0
 20
0.0
 30
0.0
210
0.0
220
0.0
230
1.0
  2
SOLID
 70
           1
 71
           1
 91
        1
 92
        1
 93
        1
 72
           2
 10
-463.03941620116842
 20
391.07417754453718
 40
0.5
 50
-180.0
 51
180.0
 73
           1
 97
        1
330
2A6
 75
           0
 76
           1
 98
        1
 10
0.0
 20
0.0
  0
CIRCLE
  5
2A9
100
AcDbEntity
  8
0
 62
           7
100
AcDbCircle
 10
-472.206600471171
 20
419.287869654576
 40
0.5
  0
HATCH
  5
2AA
100
AcDbEntity
  8
0
 62
           7
100
AcDbHatch
 10
0.0
 20
0.0
 30
0.0
210
0.0
220
0.0
230
1.0
  2
SOLID
 70
           1
 71
           1
 91
        1
 92
        1
 93
        1
 72
           2
 10
-472.20660047117087
 20
419.28786965457579
 40
0.5
 50
-180.0
 51
180.0
 73
           1
 97
        1
330
2A9
 75
           0
 76
           1
 98
        1
 10
0.0
 20
0.0
  0
CIRCLE
  5
2AC
100
AcDbEntity
  8
0
 62
           7
100
AcDbCircle
 10
-463.039416201168
 20
447.501561764615
 40
0.5
  0
HATCH
  5
2AD
100
AcDbEntity
  8
0
 62
           7
100
AcDbHatch
 10
0.0
 20
0.0
 30
0.0
210
0.0
220
0.0
230
1.0
  2
SOLID
 70
           1
 71
           1
 91
        1
 92
        1
 93
        1
 72
           2
 10
-463.03941620116842
 20
447.50156176461451
 40
0.5
 50
-180.0
 51
180.0
 73
           1
 97
        1
330
2AC
 75
           0
 76
           1
 98
        1
 10
0.0
 20
0.0
  0
CIRCLE
  5
2AF
100
AcDbEntity
  8
0
 62
           7
100
AcDbCircle
 10
-439.039416201168
 20
464.938582436743
 40
0.5
  0
HATCH
  5
2B0
100
AcDbEntity
  8
0
 62
           7
100
AcDbHatch
 10
0.0
 20
0.0
 30
0.0
210
0.0
220
0.0
230
1.0
  2
SOLID
 70
           1
 71
           1
 91
        1
 92
        1
 93
        1
 72
           2
 10
-439.03941620116842
 20
464.93858243674299
 40
0.5
 50
-180.0
 51
180.0
 73
           1
 97
        1
330
2AF
 75
           0
 76
           1
 98
        1
 10
0.0
 20
0.0
  0
CIRCLE
  5
2B2
100
AcDbEntity
  8
0
 62
           7
100
AcDbCircle
 10
-409.373784741173
 20
464.938582436743
 40
0.5
  0
HATCH
  5
2B3
100
AcDbEntity
  8
0
 62
           7
100
AcDbHatch
 10
0.0
 20
0.0
 30
0.0
210
0.0
220
0.0
230
1.0
  2
SOLID
 70
           1
 71
           1
 91
        1
 92
        1
 93
        1
 72
           2
 10
-409.37378474117349
 20
464.9385824367431
 40
0.5
 50
-180.0
 51
180.0
 73
           1
 97
        1
330
2B2
 75
           0
 76
           1
 98
        1
 10
0.0
 20
0.0
  0
CIRCLE
  5
2B5
100
AcDbEntity
  8
0
 62
           7
100
AcDbCircle
 10
-385.373784741174
 20
447.501561764614
 40
0.5
  0
HATCH
  5
2B6
100
AcDbEntity
  8
0
 62
           7
100
AcDbHatch
 10
0.0
 20
0.0
 30
0.0
210
0.0
220
0.0
230
1.0
  2
SOLID
 70
           1
 71
           1
 91
        1
 92
        1
 93
        1
 72
           2
 10
-385.37378474117361
 20
447.50156176461439
 40
0.5
 50
-180.0
 51
180.0
 73
           1
 97
        1
330
2B5
 75
           0
 76
           1
 98
        1
 10
0.0
 20
0.0
  0
CIRCLE
  5
2B8
100
AcDbEntity
  8
0
 62
           7
100
AcDbCircle
 10
-436.217034255083
 20
414.312985091295
 40
0.5
  0
HATCH
  5
2B9
100
AcDbEntity
  8
0
 62
           7
100
AcDbHatch
 10
0.0
 20
0.0
 30
0.0
210
0.0
220
0.0
230
1.0
  2
SOLID
 70
           1
 71
           1
 91
        1
 92
        1
 93
        1
 72
           2
 10
-436.21703425508332
 20
414.31298509129527
 40
0.5
 50
-180.0
 51
180.0
 73
           1
 97
        1
330
2B8
 75
           0
 76
           1
 98
        1
 10
0.0
 20
0.0
  0
CIRCLE
  5
2BB
100
AcDbEntity
  8
0
 62
           7
100
AcDbCircle
 10
-412.196166687259
 20
424.262754217856
 40
0.5
  0
HATCH
  5
2BC
100
AcDbEntity
  8
0
 62
           7
100
AcDbHatch
 10
0.0
 20
0.0
 30
0.0
210
0.0
220
0.0
230
1.0
  2
SOLID
 70
           1
 71
           1
 91
        1
 92
        1
 93
        1
 72
           2
 10
-412.19616668725871
 20
424.26275421785641
 40
0.5
 50
-180.0
 51
180.0
 73
           1
 97
        1
330
2BB
 75
           0
 76
           1
 98
        1
 10
0.0
 20
0.0
  0
CIRCLE
  5
2BE
100
AcDbEntity
  8
0
 62
           7
100
AcDbCircle
 10
-424.206600471171
 20
434.287869654576
 40
0.5
  0
HATCH
  5
2BF
100
AcDbEntity
  8
0
 62
           7
100
AcDbHatch
 10
0.0
 20
0.0
 30
0.0
210
0.0
220
0.0
230
1.0
  2
SOLID
 70
           1
 71
           1
 91
        1
 92
        1
 93
        1
 72
           2
 10
-424.20660047117099
 20
434.28786965457579
 40
0.5
 50
-180.0
 51
180.0
 73
           1
 97
        1
330
2BE
 75
           0
 76
           1
 98
        1
 10
0.0
 20
0.0
  0
CIRCLE
  5
2C1
100
AcDbEntity
  8
0
 62
           7
100
AcDbCircle
 10
-413.599998753373
 20
429.894471372374
 40
0.5
  0
HATCH
  5
2C2
100
AcDbEntity
  8
0
 62
           7
100
AcDbHatch
 10
0.0
 20
0.0
 30
0.0
210
0.0
220
0.0
230
1.0
  2
SOLID
 70
           1
 71
           1
 91
        1
 92
        1
 93
        1
 72
           2
 10
-413.59999875337269
 20
429.8944713723738
 40
0.5
 50
-180.0
 51
180.0
 73
           1
 97
        1
330
2C1
 75
           0
 76
           1
 98
        1
 10
0.0
 20
0.0
  0
CIRCLE
  5
2C4
100
AcDbEntity
  8
0
 62
           7
100
AcDbCircle
 10
-409.206600471171
 20
419.287869654576
 40
0.5
  0
HATCH
  5
2C5
100
AcDbEntity
  8
0
 62
           7
100
AcDbHatch
 10
0.0
 20
0.0
 30
0.0
210
0.0
220
0.0
230
1.0
  2
SOLID
 70
           1
 71
           1
 91
        1
 92
        1
 93
        1
 72
           2
 10
-409.20660047117087
 20
419.28786965457579
 40
0.5
 50
-180.0
 51
180.0
 73
           1
 97
        1
330
2C4
 75
           0
 76
           1
 98
        1
 10
0.0
 20
0.0
  0
CIRCLE
  5
2C7
100
AcDbEntity
  8
0
 62
           7
100
AcDbCircle
 10
-413.599998753373
 20
408.681267936777
 40
0.5
  0
HATCH
  5
2C8
100
AcDbEntity
  8
0
 62
           7
100
AcDbHatch
 10
0.0
 20
0.0
 30
0.0
210
0.0
220
0.0
230
1.0
  2
SOLID
 70
           1
 71
           1
 91
        1
 92
        1
 93
        1
 72
           2
 10
-413.5999987533728
 20
408.68126793677749
 40
0.5
 50
-180.0
 51
180.0
 73
           1
 97
        1
330
2C7
 75
           0
 76
           1
 98
        1
 10
0.0
 20
0.0
  0
CIRCLE
  5
2CA
100
AcDbEntity
  8
0
 62
           7
100
AcDbCircle
 10
-424.206600471171
 20
404.287869654576
 40
0.5
  0
HATCH
  5
2CB
100
AcDbEntity
  8
0
 62
           7
100
AcDbHatch
 10
0.0
 20
0.0
 30
0.0
210
0.0
220
0.0
230
1.0
  2
SOLID
 70
           1
 71
           1
 91
        1
 92
        1
 93
        1
 72
           2
 10
-424.20660047117099
 20
404.28786965457567
 40
0.5
 50
-180.0
 51
180.0
 73
           1
 97
        1
330
2CA
 75
           0
 76
           1
 98
        1
 10
0.0
 20
0.0
  0
CIRCLE
  5
2CD
100
AcDbEntity
  8
0
 62
           7
100
AcDbCircle
 10
-434.813202188969
 20
408.681267936778
 40
0.5
  0
HATCH
  5
2CE
100
AcDbEntity
  8
0
 62
           7
100
AcDbHatch
 10
0.0
 20
0.0
 30
0.0
210
0.0
220
0.0
230
1.0
  2
SOLID
 70
           1
 71
           1
 91
        1
 92
        1
 93
        1
 72
           2
 10
-434.81320218896923
 20
408.68126793677772
 40
0.5
 50
-180.0
 51
180.0
 73
           1
 97
        1
330
2CD
 75
           0
 76
           1
 98
        1
 10
0.0
 20
0.0
  0
CIRCLE
  5
2D0
100
AcDbEntity
  8
0
 62
           7
100
AcDbCircle
 10
-439.206600471171
 20
419.287869654576
 40
0.5
  0
HATCH
  5
2D1
100
AcDbEntity
  8
0
 62
           7
100
AcDbHatch
 10
0.0
 20
0.0
 30
0.0
210
0.0
220
0.0
230
1.0
  2
SOLID
 70
           1
 71
           1
 91
        1
 92
        1
 93
        1
 72
           2
 10
-439.20660047117099
 20
419.28786965457579
 40
0.5
 50
-180.0
 51
180.0
 73
           1
 97
        1
330
2D0
 75
           0
 76
           1
 98
        1
 10
0.0
 20
0.0
  0
CIRCLE
  5
2D3
100
AcDbEntity
  8
0
 62
           7
100
AcDbCircle
 10
-434.813202188969
 20
429.894471372374
 40
0.5
  0
HATCH
  5
2D4
100
AcDbEntity
  8
0
 62
           7
100
AcDbHatch
 10
0.0
 20
0.0
 30
0.0
210
0.0
220
0.0
230
1.0
  2
SOLID
 70
           1
 71
           1
 91
        1
 92
        1
 93
        1
 72
           2
 10
-434.81320218896923
 20
429.89447137237403
 40
0.5
 50
-180.0
 51
180.0
 73
           1
 97
        1
330
2D3
 75
           0
 76
           1
 98
        1
 10
0.0
 20
0.0
  0
CIRCLE
  5
2D6
100
AcDbEntity
  8
0
 62
           7
100
AcDbCircle
 10
-436.217034255083
 20
424.262754217856
 40
0.5
  0
HATCH
  5
2D7
100
AcDbEntity
  8
0
 62
           7
100
AcDbHatch
 10
0.0
 20
0.0
 30
0.0
210
0.0
220
0.0
230
1.0
  2
SOLID
 70
           1
 71
           1
 91
        1
 92
        1
 93
        1
 72
           2
 10
-436.21703425508332
 20
424.26275421785613
 40
0.5
 50
-180.0
 51
180.0
 73
           1
 97
        1
330
2D6
 75
           0
 76
           1
 98
        1
 10
0.0
 20
0.0
  0
CIRCLE
  5
2D9
100
AcDbEntity
  8
0
 62
           7
100
AcDbCircle
 10
-429.181485034452
 20
431.298303438488
 40
0.5
  0
HATCH
  5
2DA
100
AcDbEntity
  8
0
 62
           7
100
AcDbHatch
 10
0.0
 20
0.0
 30
0.0
210
0.0
220
0.0
230
1.0
  2
SOLID
 70
           1
 71
           1
 91
        1
 92
        1
 93
        1
 72
           2
 10
-429.1814850344515
 20
431.29830343848789
 40
0.5
 50
-180.0
 51
180.0
 73
           1
 97
        1
330
2D9
 75
           0
 76
           1
 98
        1
 10
0.0
 20
0.0
  0
CIRCLE
  5
2DC
100
AcDbEntity
  8
0
 62
           7
100
AcDbCircle
 10
-419.231715907891
 20
431.298303438488
 40
0.5
  0
HATCH
  5
2DD
100
AcDbEntity
  8
0
 62
           7
100
AcDbHatch
 10
0.0
 20
0.0
 30
0.0
210
0.0
220
0.0
230
1.0
  2
SOLID
 70
           1
 71
           1
 91
        1
 92
        1
 93
        1
 72
           2
 10
-419.2317159078907
 20
431.29830343848789
 40
0.5
 50
-180.0
 51
180.0
 73
           1
 97
        1
330
2DC
 75
           0
 76
           1
 98
        1
 10
0.0
 20
0.0
  0
CIRCLE
  5
2DF
100
AcDbEntity
  8
0
 62
           7
100
AcDbCircle
 10
-429.181485034451
 20
407.277435870664
 40
0.5
  0
HATCH
  5
2E0
100
AcDbEntity
  8
0
 62
           7
100
AcDbHatch
 10
0.0
 20
0.0
 30
0.0
210
0.0
220
0.0
230
1.0
  2
SOLID
 70
           1
 71
           1
 91
        1
 92
        1
 93
        1
 72
           2
 10
-429.18148503445133
 20
407.27743587066362
 40
0.5
 50
-180.0
 51
180.0
 73
           1
 97
        1
330
2DF
 75
           0
 76
           1
 98
        1
 10
0.0
 20
0.0
  0
CIRCLE
  5
2E2
100
AcDbEntity
  8
0
 62
           7
100
AcDbCircle
 10
-419.23171590789
 20
407.277435870664
 40
0.5
  0
HATCH
  5
2E3
100
AcDbEntity
  8
0
 62
           7
100
AcDbHatch
 10
0.0
 20
0.0
 30
0.0
210
0.0
220
0.0
230
1.0
  2
SOLID
 70
           1
 71
           1
 91
        1
 92
        1
 93
        1
 72
           2
 10
-419.23171590789048
 20
407.27743587066368
 40
0.5
 50
-180.0
 51
180.0
 73
           1
 97
        1
330
2E2
 75
           0
 76
           1
 98
        1
 10
0.0
 20
0.0
  0
CIRCLE
  5
2E5
100
AcDbEntity
  8
0
 62
           7
100
AcDbCircle
 10
-412.196166687259
 20
414.312985091296
 40
0.5
  0
HATCH
  5
2E6
100
AcDbEntity
  8
0
 62
           7
100
AcDbHatch
 10
0.0
 20
0.0
 30
0.0
210
0.0
220
0.0
230
1.0
  2
SOLID
 70
           1
 71
           1
 91
        1
 92
        1
 93
        1
 72
           2
 10
-412.19616668725871
 20
414.3129850912955
 40
0.5
 50
-180.0
 51
180.0
 73
           1
 97
        1
330
2E5
 75
           0
 76
           1
 98
        1
 10
0.0
 20
0.0
  0
ENDSEC
  0
SECTION
  2
OBJECTS
  0
DICTIONARY
  5
19
100
AcDbDictionary
  3
ACAD_GROUP
350
1A
  3
ACAD_MLINESTYLE
350
1B
  0
DICTIONARY
  5
1A
102
{ACAD_REACTORS
330
19
102
}
100
AcDbDictionary
  0
DICTIONARY
  5
1B
102
{ACAD_REACTORS
330
19
102
}
100
AcDbDictionary
  3
STANDARD
350
1C
  0
MLINESTYLE
  5
1C
102
{ACAD_REACTORS
330
1B
102
}
100
AcDbMlineStyle
  2
STANDARD
 70
           0
  3

 62
           0
 51
90.0
 52
90.0
 71
           2
 49
0.5
 62
         256
  6
BYLAYER
 49
-0.5
 62
         256
  6
BYLAYER
  0
ENDSEC
  0
EOF
