  0
SECTION
  2
HEADER
  9
$ACADVER
  1
AC1009
  9
$DWGCODEPAGE
  3
dos932
  9
$INSBASE
 10
0.0
 20
0.0
 30
0.0
  9
$EXTMIN
 10
0.0
 20
0.0
 30
0.0
  9
$EXTMAX
 10
431.8
 20
279.4
 30
0.0
  9
$LIMMIN
 10
0.0
 20
0.0
  9
$LIMMAX
 10
431.8
 20
279.4
  9
$ORTHOMODE
 70
     0
  9
$REGENMODE
 70
     1
  9
$FILLMODE
 70
     1
  9
$QTEXTMODE
 70
     0
  9
$MIRRTEXT
 70
     1
  9
$DRAGMODE
 70
     2
  9
$LTSCALE
 40
1.0
  9
$OSMODE
 70
    37
  9
$ATTMODE
 70
     1
  9
$TEXTSIZE
 40
3.5
  9
$TRACEWID
 40
1.0
  9
$TEXTSTYLE
  7
STANDARD
  9
$CLAYER
  8
0
  9
$CELTYPE
  6
BYLAYER
  9
$CECOLOR
 62
   256
  9
$DIMSCALE
 40
1.0
  9
$DIMASZ
 40
3.0
  9
$DIMEXO
 40
0.01
  9
$DIMDLI
 40
3.75
  9
$DIMRND
 40
0.0
  9
$DIMDLE
 40
0.0
  9
$DIMEXE
 40
1.0
  9
$DIMTP
 40
0.0
  9
$DIMTM
 40
0.0
  9
$DIMTXT
 40
3.5
  9
$DIMCEN
 40
2.5
  9
$DIMTSZ
 40
0.0
  9
$DIMTOL
 70
     0
  9
$DIMLIM
 70
     0
  9
$DIMTIH
 70
     1
  9
$DIMTOH
 70
     1
  9
$DIMSE1
 70
     0
  9
$DIMSE2
 70
     0
  9
$DIMTAD
 70
     1
  9
$DIMZIN
 70
     0
  9
$DIMBLK
  1

  9
$DIMASO
 70
     1
  9
$DIMSHO
 70
     1
  9
$DIMPOST
  1

  9
$DIMAPOST
  1

  9
$DIMALT
 70
     0
  9
$DIMALTD
 70
     3
  9
$DIMALTF
 40
0.0393700787
  9
$DIMLFAC
 40
1.0
  9
$DIMTOFL
 70
     1
  9
$DIMTVP
 40
0.0
  9
$DIMTIX
 70
     0
  9
$DIMSOXD
 70
     0
  9
$DIMSAH
 70
     0
  9
$DIMBLK1
  1

  9
$DIMBLK2
  1

  9
$DIMSTYLE
  2
ISO-25
  9
$DIMCLRD
 70
     0
  9
$DIMCLRE
 70
     0
  9
$DIMCLRT
 70
     0
  9
$DIMTFAC
 40
1.0
  9
$DIMGAP
 40
1.524
  9
$LUNITS
 70
     2
  9
$LUPREC
 70
     2
  9
$SKETCHINC
 40
1.0
  9
$FILLETRAD
 40
10.0
  9
$AUNITS
 70
     0
  9
$AUPREC
 70
     2
  9
$MENU
  1
.
  9
$ELEVATION
 40
0.0
  9
$PELEVATION
 40
0.0
  9
$THICKNESS
 40
0.0
  9
$LIMCHECK
 70
     0
  9
$CHAMFERA
 40
0.0
  9
$CHAMFERB
 40
0.0
  9
$SKPOLY
 70
     0
  9
$TDCREATE
 40
2457515.576415579
  9
$TDUPDATE
 40
2457515.576416296
  9
$TDINDWG
 40
0.0000000116
  9
$TDUSRTIMER
 40
0.0000000116
  9
$USRTIMER
 70
     1
  9
$ANGBASE
 50
0.0
  9
$ANGDIR
 70
     0
  9
$PDMODE
 70
     0
  9
$PDSIZE
 40
-1.0
  9
$PLINEWID
 40
0.0
  9
$COORDS
 70
     1
  9
$SPLFRAME
 70
     0
  9
$SPLINETYPE
 70
     6
  9
$SPLINESEGS
 70
     8
  9
$ATTDIA
 70
     0
  9
$ATTREQ
 70
     1
  9
$HANDLING
 70
     1
  9
$HANDSEED
  5
748
  9
$SURFTAB1
 70
     6
  9
$SURFTAB2
 70
     6
  9
$SURFTYPE
 70
     6
  9
$SURFU
 70
     6
  9
$SURFV
 70
     6
  9
$UCSNAME
  2

  9
$UCSORG
 10
0.0
 20
0.0
 30
0.0
  9
$UCSXDIR
 10
1.0
 20
0.0
 30
0.0
  9
$UCSYDIR
 10
0.0
 20
1.0
 30
0.0
  9
$PUCSNAME
  2

  9
$PUCSORG
 10
0.0
 20
0.0
 30
0.0
  9
$PUCSXDIR
 10
1.0
 20
0.0
 30
0.0
  9
$PUCSYDIR
 10
0.0
 20
1.0
 30
0.0
  9
$USERI1
 70
     0
  9
$USERI2
 70
     0
  9
$USERI3
 70
     0
  9
$USERI4
 70
     0
  9
$USERI5
 70
     0
  9
$USERR1
 40
0.0
  9
$USERR2
 40
0.0
  9
$USERR3
 40
0.0
  9
$USERR4
 40
0.0
  9
$USERR5
 40
0.0
  9
$WORLDVIEW
 70
     1
  9
$SHADEDGE
 70
     3
  9
$SHADEDIF
 70
    70
  9
$TILEMODE
 70
     1
  9
$MAXACTVP
 70
    64
  9
$PLIMCHECK
 70
     0
  9
$PEXTMIN
 10
1.0000000000E+20
 20
1.0000000000E+20
 30
1.0000000000E+20
  9
$PEXTMAX
 10
-1.0000000000E+20
 20
-1.0000000000E+20
 30
-1.0000000000E+20
  9
$PLIMMIN
 10
0.0
 20
0.0
  9
$PLIMMAX
 10
420.0
 20
297.0
  9
$UNITMODE
 70
     0
  9
$VISRETAIN
 70
     1
  9
$PLINEGEN
 70
     0
  9
$PSLTSCALE
 70
     1
  0
ENDSEC
  0
SECTION
  2
TABLES
  0
TABLE
  2
VPORT
 70
     1
  0
VPORT
  2
*ACTIVE
 70
     0
 10
0.0
 20
0.0
 11
1.0
 21
1.0
 12
215.9
 22
139.7
 13
0.0
 23
0.0
 14
10.0
 24
10.0
 15
10.0
 25
10.0
 16
0.0
 26
0.0
 36
1.0
 17
0.0
 27
0.0
 37
0.0
 40
279.4
 41
1.5454545455
 42
50.0
 43
0.0
 44
0.0
 50
0.0
 51
0.0
 71
     0
 72
  2000
 73
     1
 74
     3
 75
     0
 76
     0
 77
     0
 78
     0
  0
ENDTAB
  0
TABLE
  2
LTYPE
 70
     6
  0
LTYPE
  2
CONTINUOUS
 70
     0
  3
Solid line
 72
    65
 73
     0
 40
0.0
  0
LTYPE
  2
HIDDEN
 70
     0
  3
Hidden __ __ __ __ __ __ __ __ __ __ __ __ __ __
 72
    65
 73
     2
 40
1.905
 49
1.27
 49
-0.635
  0
LTYPE
  2
PHANTOM
 70
     0
  3
Phantom ______  __  __  ______  __  __  ______
 72
    65
 73
     6
 40
12.7
 49
6.35
 49
-1.27
 49
1.27
 49
-1.27
 49
1.27
 49
-1.27
  0
LTYPE
  2
CENTER
 70
     0
  3
Center ____ _ ____ _ ____ _ ____ _ ____ _ ____
 72
    65
 73
     4
 40
10.16
 49
6.35
 49
-1.27
 49
1.27
 49
-1.27
  0
LTYPE
  2
CENTERX2
 70
     0
  3
Center (2x) ________  __  ________  __  _____
 72
    65
 73
     4
 40
20.32
 49
12.7
 49
-2.54
 49
2.54
 49
-2.54
  0
LTYPE
  2
DOT2
 70
     0
  3
Dot (.5x) ........................................
 72
    65
 73
     2
 40
0.635
 49
0.0
 49
-0.635
  0
ENDTAB
  0
TABLE
  2
LAYER
 70
     3
  0
LAYER
  2
0
 70
     0
 62
     7
  6
CONTINUOUS
  0
LAYER
  2
DIM
 70
     0
 62
     7
  6
CONTINUOUS
  0
LAYER
  2
TXT
 70
     0
 62
     7
  6
CONTINUOUS
  0
ENDTAB
  0
TABLE
  2
STYLE
 70
     1
  0
STYLE
  2
STANDARD
 70
     0
 40
0.0
 41
1.0
 50
0.0
 71
     0
 42
3.5
  3
txt
  4
bigfont
  0
ENDTAB
  0
TABLE
  2
VIEW
 70
     0
  0
ENDTAB
  0
TABLE
  2
UCS
 70
     0
  0
ENDTAB
  0
TABLE
  2
APPID
 70
     1
  0
APPID
  2
ACAD
 70
     0
  0
ENDTAB
  0
TABLE
  2
DIMSTYLE
 70
     1
  0
DIMSTYLE
  2
ISO-25
 70
     0
  3

  4

  5

  6

  7

 40
1.0
 41
2.5
 42
0.625
 43
3.75
 44
1.25
 45
0.0
 46
0.0
 47
0.0
 48
0.0
140
2.5
141
2.5
142
0.0
143
0.0393700787
144
1.0
145
0.0
146
1.0
147
0.625
 71
     0
 72
     0
 73
     0
 74
     0
 75
     0
 76
     0
 77
     1
 78
     8
170
     0
171
     3
172
     1
173
     0
174
     0
175
     0
176
     0
177
     0
178
     0
  0
ENDTAB
  0
ENDSEC
  0
SECTION
  2
BLOCKS
  0
BLOCK
  8
0
  2
$MODEL_SPACE
 70
     0
 10
0.0
 20
0.0
 30
0.0
  3
$MODEL_SPACE
  1

  0
ENDBLK
  5
21
  8
0
  0
BLOCK
 67
     1
  8
0
  2
$PAPER_SPACE
 70
     0
 10
0.0
 20
0.0
 30
0.0
  3
$PAPER_SPACE
  1

  0
ENDBLK
  5
1D
 67
     1
  8
0
  0
ENDSEC
  0
SECTION
  2
ENTITIES
  0
LINE
  5
71
  8
0
  6
CONTINUOUS
 62
     7
 10
265.1068373898
 20
92.4669713515
 30
0.0
 11
263.1068372948
 21
92.4669713515
 31
0.0
  0
LINE
  5
72
  8
0
  6
CONTINUOUS
 62
     7
 10
263.1068372948
 20
32.4669726926
 30
0.0
 11
265.1068373898
 21
32.4669726926
 31
0.0
  0
LINE
  5
73
  8
0
  6
CONTINUOUS
 62
     7
 10
300.1068377717
 20
69.4669722381
 30
0.0
 11
265.1068373898
 21
69.4669722381
 31
0.0
  0
LINE
  5
74
  8
0
  6
CONTINUOUS
 62
     7
 10
265.1068373898
 20
55.466971806
 30
0.0
 11
300.1068377717
 21
55.466971806
 31
0.0
  0
LINE
  5
75
  8
0
  6
CONTINUOUS
 62
     7
 10
170.8068394883
 20
6.9669713068
 30
0.0
 11
170.8068394883
 21
-200.4330228281
 31
0.0
  0
LINE
  5
76
  8
0
  6
CONTINUOUS
 62
     7
 10
178.8068407996
 20
-200.4330228281
 30
0.0
 11
178.8068407996
 21
6.9669713068
 31
0.0
  0
ARC
  5
77
  8
0
  6
CONTINUOUS
 62
     7
 10
346.8667473348
 20
62.466972022
 30
0.0
 40
200.0
 50
167.731101004
 51
168.1810080333
  0
LINE
  5
78
  8
0
  6
CONTINUOUS
 62
     7
 10
151.1068338377
 20
103.4310725319
 30
0.0
 11
149.1068372352
 21
99.9669735121
 31
0.0
  0
LINE
  5
79
  8
0
  6
CONTINUOUS
 62
     7
 10
152.6068368776
 20
6.9669713068
 30
0.0
 11
152.6068368776
 21
-236.5330229712
 31
0.0
  0
LINE
  5
7A
  8
0
  6
CONTINUOUS
 62
     7
 10
158.6068341358
 20
-236.5330229712
 30
0.0
 11
158.6068341358
 21
6.9669713068
 31
0.0
  0
LINE
  5
7B
  8
0
  6
CONTINUOUS
 62
     7
 10
182.0595929248
 20
8.99270594
 30
0.0
 11
194.3401092513
 21
14.9832037079
 31
0.0
  0
LINE
  5
7C
  8
0
  6
CONTINUOUS
 62
     7
 10
179.991758786
 20
8.9669716346
 30
0.0
 11
182.0068353636
 21
8.9669716346
 31
0.0
  0
LINE
  5
7D
  8
0
  6
CONTINUOUS
 62
     7
 10
165.8068368061
 20
8.9669716346
 30
0.0
 11
169.5568406804
 21
8.9669716346
 31
0.0
  0
LINE
  5
7E
  8
0
  6
CONTINUOUS
 62
     7
 10
169.5568406804
 20
8.9669716346
 30
0.0
 11
169.5568406804
 21
6.9669713068
 31
0.0
  0
LINE
  5
7F
  8
0
  6
CONTINUOUS
 62
     7
 10
180.0568396075
 20
6.9669713068
 30
0.0
 11
180.0568396075
 21
8.9725930977
 31
0.0
  0
ARC
  5
80
  8
0
  6
CONTINUOUS
 62
     7
 10
170.8068372948
 20
-224.933027978
 30
0.0
 40
0.5
 50
180.0
 51
270.0
  0
ARC
  5
81
  8
0
  6
CONTINUOUS
 62
     7
 10
178.8068372948
 20
-224.933027978
 30
0.0
 40
0.5
 50
270.0
 51
0.0
  0
LINE
  5
82
  8
0
  6
CONTINUOUS
 62
     7
 10
170.306838475
 20
-200.4330228281
 30
0.0
 11
170.306838475
 21
-224.9330352259
 31
0.0
  0
LINE
  5
83
  8
0
  6
CONTINUOUS
 62
     7
 10
179.3068343623
 20
-224.9330352259
 30
0.0
 11
179.3068343623
 21
-200.4330228281
 31
0.0
  0
ARC
  5
84
  8
0
  6
CONTINUOUS
 62
     7
 10
170.8068372948
 20
-225.933027978
 30
0.0
 40
0.5
 50
0.0
 51
90.0
  0
ARC
  5
85
  8
0
  6
CONTINUOUS
 62
     7
 10
178.8068372948
 20
-225.933027978
 30
0.0
 40
0.5
 50
90.0
 51
180.0
  0
LINE
  5
86
  8
0
  6
CONTINUOUS
 62
     7
 10
171.3068405015
 20
-225.9330223513
 30
0.0
 11
171.3068405015
 21
-240.4330144835
 31
0.0
  0
LINE
  5
87
  8
0
  6
CONTINUOUS
 62
     7
 10
178.3068397863
 20
-240.4330144835
 30
0.0
 11
178.3068397863
 21
-225.9330223513
 31
0.0
  0
POLYLINE
  5
88
  8
0
  6
CONTINUOUS
 62
     7
 66
     1
 10
0.0
 20
0.0
 30
0.0
 70
   128
  0
VERTEX
  5
63E
  8
0
  6
CONTINUOUS
 62
     7
 10
180.1234552486
 20
-260.4330252123
 30
0.0
  0
VERTEX
  5
63F
  8
0
  6
CONTINUOUS
 62
     7
 10
178.990058027
 20
-251.9309590769
 30
0.0
  0
VERTEX
  5
640
  8
0
  6
CONTINUOUS
 62
     7
 10
177.4589488132
 20
-240.4330144835
 30
0.0
  0
SEQEND
  5
71A
  8
0
  6
CONTINUOUS
 62
     7
  0
POLYLINE
  5
89
  8
0
  6
CONTINUOUS
 62
     7
 66
     1
 10
0.0
 20
0.0
 30
0.0
 70
   128
  0
VERTEX
  5
641
  8
0
  6
CONTINUOUS
 62
     7
 10
175.9589532239
 20
-240.4330144835
 30
0.0
  0
VERTEX
  5
642
  8
0
  6
CONTINUOUS
 62
     7
 10
177.2257232888
 20
-249.9350975466
 30
0.0
  0
VERTEX
  5
643
  8
0
  6
CONTINUOUS
 62
     7
 10
178.6237353308
 20
-260.4330252123
 30
0.0
  0
SEQEND
  5
71B
  8
0
  6
CONTINUOUS
 62
     7
  0
POLYLINE
  5
8A
  8
0
  6
CONTINUOUS
 62
     7
 66
     1
 10
0.0
 20
0.0
 30
0.0
 70
   128
  0
VERTEX
  5
644
  8
0
  6
CONTINUOUS
 62
     7
 10
171.9393575413
 20
-260.4330252123
 30
0.0
  0
VERTEX
  5
645
  8
0
  6
CONTINUOUS
 62
     7
 10
172.7664092405
 20
-250.4185210181
 30
0.0
  0
VERTEX
  5
646
  8
0
  6
CONTINUOUS
 62
     7
 10
173.0138877256
 20
-247.5656341028
 30
0.0
  0
VERTEX
  5
647
  8
0
  6
CONTINUOUS
 62
     7
 10
173.6545855029
 20
-240.4330144835
 30
0.0
  0
SEQEND
  5
71C
  8
0
  6
CONTINUOUS
 62
     7
  0
POLYLINE
  5
8B
  8
0
  6
CONTINUOUS
 62
     7
 66
     1
 10
0.0
 20
0.0
 30
0.0
 70
   128
  0
VERTEX
  5
648
  8
0
  6
CONTINUOUS
 62
     7
 10
172.1548581345
 20
-240.4330144835
 30
0.0
  0
VERTEX
  5
649
  8
0
  6
CONTINUOUS
 62
     7
 10
171.5748825891
 20
-247.5582729292
 30
0.0
  0
VERTEX
  5
64A
  8
0
  6
CONTINUOUS
 62
     7
 10
171.3343107922
 20
-250.4061232519
 30
0.0
  0
VERTEX
  5
64B
  8
0
  6
CONTINUOUS
 62
     7
 10
170.4455384834
 20
-260.4330252123
 30
0.0
  0
SEQEND
  5
71D
  8
0
  6
CONTINUOUS
 62
     7
  0
POLYLINE
  5
8C
  8
0
  6
CONTINUOUS
 62
     7
 66
     1
 10
0.0
 20
0.0
 30
0.0
 70
   128
  0
VERTEX
  5
64C
  8
0
  6
CONTINUOUS
 62
     7
 10
174.0573117359
 20
-240.4330144835
 30
0.0
  0
VERTEX
  5
64D
  8
0
  6
CONTINUOUS
 62
     7
 10
174.2904478533
 20
-249.9350975466
 30
0.0
  0
VERTEX
  5
64E
  8
0
  6
CONTINUOUS
 62
     7
 10
174.5336720569
 20
-260.4330252123
 30
0.0
  0
SEQEND
  5
71E
  8
0
  6
CONTINUOUS
 62
     7
  0
POLYLINE
  5
8D
  8
0
  6
CONTINUOUS
 62
     7
 66
     1
 10
0.0
 20
0.0
 30
0.0
 70
   128
  0
VERTEX
  5
64F
  8
0
  6
CONTINUOUS
 62
     7
 10
176.0322520359
 20
-260.4330252123
 30
0.0
  0
VERTEX
  5
650
  8
0
  6
CONTINUOUS
 62
     7
 10
175.8232259972
 20
-251.9309590769
 30
0.0
  0
VERTEX
  5
651
  8
0
  6
CONTINUOUS
 62
     7
 10
175.5563611014
 20
-240.4330144835
 30
0.0
  0
SEQEND
  5
71F
  8
0
  6
CONTINUOUS
 62
     7
  0
POLYLINE
  5
8E
  8
0
  6
CONTINUOUS
 62
     7
 66
     1
 10
0.0
 20
0.0
 30
0.0
 70
   128
  0
VERTEX
  5
652
  8
0
  6
CONTINUOUS
 62
     7
 10
171.9766924007
 20
-260.4330252123
 30
0.0
  0
VERTEX
  5
653
  8
0
  6
CONTINUOUS
 62
     7
 10
172.9964980705
 20
-251.9309590769
 30
0.0
  0
VERTEX
  5
654
  8
0
  6
CONTINUOUS
 62
     7
 10
174.1121331079
 20
-242.6674138022
 30
0.0
  0
SEQEND
  5
720
  8
0
  6
CONTINUOUS
 62
     7
  0
POLYLINE
  5
8F
  8
0
  6
CONTINUOUS
 62
     7
 66
     1
 10
0.0
 20
0.0
 30
0.0
 70
   128
  0
VERTEX
  5
655
  8
0
  6
CONTINUOUS
 62
     7
 10
175.6082916481
 20
-242.6706026507
 30
0.0
  0
VERTEX
  5
656
  8
0
  6
CONTINUOUS
 62
     7
 10
176.8286520464
 20
-249.9350975466
 30
0.0
  0
VERTEX
  5
657
  8
0
  6
CONTINUOUS
 62
     7
 10
178.5892614944
 20
-260.4330252123
 30
0.0
  0
SEQEND
  5
721
  8
0
  6
CONTINUOUS
 62
     7
  0
LINE
  5
90
  8
0
  6
CONTINUOUS
 62
     7
 10
160.5449387653
 20
8.9669716346
 30
0.0
 11
161.6068402154
 21
8.9669716346
 31
0.0
  0
LINE
  5
91
  8
0
  6
CONTINUOUS
 62
     7
 10
149.6068382485
 20
8.9669716346
 30
0.0
 11
150.606840275
 21
8.9669716346
 31
0.0
  0
LINE
  5
92
  8
0
  6
CONTINUOUS
 62
     7
 10
150.606840275
 20
8.9669716346
 30
0.0
 11
150.606840275
 21
6.9669713068
 31
0.0
  0
LINE
  5
93
  8
0
  6
CONTINUOUS
 62
     7
 10
160.6068381889
 20
6.9669713068
 30
0.0
 11
160.6068381889
 21
8.9720641064
 31
0.0
  0
LINE
  5
94
  8
0
  6
CONTINUOUS
 62
     7
 10
253.1068375183
 20
28.1669725466
 30
0.0
 11
263.1068372948
 21
28.1669725466
 31
0.0
  0
LINE
  5
95
  8
0
  6
CONTINUOUS
 62
     7
 10
263.1068372948
 20
28.1669725466
 30
0.0
 11
263.1068372948
 21
19.966971575
 31
0.0
  0
LINE
  5
96
  8
0
  6
CONTINUOUS
 62
     7
 10
263.1068372948
 20
19.966971575
 30
0.0
 11
253.1068375183
 21
19.966971575
 31
0.0
  0
LINE
  5
97
  8
0
  6
CONTINUOUS
 62
     7
 10
253.1068375183
 20
19.966971575
 30
0.0
 11
253.1068375183
 21
28.1669725466
 31
0.0
  0
LINE
  5
98
  8
0
  6
CONTINUOUS
 62
     7
 10
263.1068372948
 20
96.7669714975
 30
0.0
 11
253.1068375183
 21
96.7669714975
 31
0.0
  0
LINE
  5
99
  8
0
  6
CONTINUOUS
 62
     7
 10
253.1068375183
 20
104.9669724691
 30
0.0
 11
263.1068372948
 21
104.9669724691
 31
0.0
  0
LINE
  5
9A
  8
0
  6
CONTINUOUS
 62
     7
 10
263.1068372948
 20
104.9669724691
 30
0.0
 11
263.1068372948
 21
96.7669714975
 31
0.0
  0
LINE
  5
9B
  8
0
  6
CONTINUOUS
 62
     7
 10
253.1068375183
 20
96.7669714975
 30
0.0
 11
253.1068375183
 21
104.9669724691
 31
0.0
  0
LINE
  5
9C
  8
0
  6
CONTINUOUS
 62
     7
 10
253.1068375183
 20
43.466972633
 30
0.0
 11
246.7068372144
 21
43.466972633
 31
0.0
  0
LINE
  5
9D
  8
0
  6
CONTINUOUS
 62
     7
 10
246.7068372144
 20
81.4669714111
 30
0.0
 11
246.7068372144
 21
43.466972633
 31
0.0
  0
LINE
  5
9E
  8
0
  6
CONTINUOUS
 62
     7
 10
253.1068375183
 20
81.4669714111
 30
0.0
 11
246.7068372144
 21
81.4669714111
 31
0.0
  0
LINE
  5
9F
  8
0
  6
CONTINUOUS
 62
     7
 10
263.1068372948
 20
28.1669725466
 30
0.0
 11
263.1068372948
 21
96.7669714975
 31
0.0
  0
LINE
  5
A0
  8
0
  6
CONTINUOUS
 62
     7
 10
253.1068375183
 20
28.1669725466
 30
0.0
 11
253.1068375183
 21
43.466972633
 31
0.0
  0
LINE
  5
A1
  8
0
  6
CONTINUOUS
 62
     7
 10
253.1068375183
 20
96.7669714975
 30
0.0
 11
253.1068375183
 21
81.4669714111
 31
0.0
  0
LINE
  5
A2
  8
0
  6
CONTINUOUS
 62
     7
 10
253.1068375183
 20
33.9669720071
 30
0.0
 11
246.7068372144
 21
33.9669720071
 31
0.0
  0
LINE
  5
A3
  8
0
  6
CONTINUOUS
 62
     7
 10
246.7068372144
 20
43.466972633
 30
0.0
 11
246.7068372144
 21
33.9669720071
 31
0.0
  0
LINE
  5
A4
  8
0
  6
CONTINUOUS
 62
     7
 10
253.1068375183
 20
90.9669720369
 30
0.0
 11
246.7068372144
 21
90.9669720369
 31
0.0
  0
LINE
  5
A5
  8
0
  6
CONTINUOUS
 62
     7
 10
246.7068372144
 20
81.4669714111
 30
0.0
 11
246.7068372144
 21
90.9669720369
 31
0.0
  0
LINE
  5
A6
  8
0
  6
CONTINUOUS
 62
     7
 10
253.1068375183
 20
27.466971873
 30
0.0
 11
246.7068372144
 21
27.466971873
 31
0.0
  0
LINE
  5
A7
  8
0
  6
CONTINUOUS
 62
     7
 10
246.7068372144
 20
33.9669720071
 30
0.0
 11
246.7068372144
 21
27.466971873
 31
0.0
  0
LINE
  5
A8
  8
0
  6
CONTINUOUS
 62
     7
 10
253.1068375183
 20
97.466972171
 30
0.0
 11
246.7068372144
 21
97.466972171
 31
0.0
  0
LINE
  5
A9
  8
0
  6
CONTINUOUS
 62
     7
 10
246.7068372144
 20
90.9669720369
 30
0.0
 11
246.7068372144
 21
97.466972171
 31
0.0
  0
LINE
  5
AA
  8
0
  6
CONTINUOUS
 62
     7
 10
265.1068373898
 20
92.4669713515
 30
0.0
 11
265.1068373898
 21
32.4669726926
 31
0.0
  0
LINE
  5
AB
  8
0
  6
CONTINUOUS
 62
     7
 10
253.1068375183
 20
102.9476863134
 30
0.0
 11
246.7068372144
 21
102.9476863134
 31
0.0
  0
LINE
  5
AC
  8
0
  6
CONTINUOUS
 62
     7
 10
246.7068372144
 20
97.466972171
 30
0.0
 11
246.7068372144
 21
102.9476863134
 31
0.0
  0
LINE
  5
AD
  8
0
  6
CONTINUOUS
 62
     7
 10
253.1068375183
 20
104.9669724691
 30
0.0
 11
246.7068372144
 21
104.9669724691
 31
0.0
  0
LINE
  5
AE
  8
0
  6
CONTINUOUS
 62
     7
 10
246.7068372144
 20
102.9476863134
 30
0.0
 11
246.7068372144
 21
104.9669724691
 31
0.0
  0
LINE
  5
AF
  8
0
  6
CONTINUOUS
 62
     7
 10
253.1068375183
 20
21.9862577307
 30
0.0
 11
246.7068372144
 21
21.9862577307
 31
0.0
  0
LINE
  5
B0
  8
0
  6
CONTINUOUS
 62
     7
 10
246.7068372144
 20
27.466971873
 30
0.0
 11
246.7068372144
 21
21.9862577307
 31
0.0
  0
LINE
  5
B1
  8
0
  6
CONTINUOUS
 62
     7
 10
253.1068375183
 20
19.966971575
 30
0.0
 11
246.7068372144
 21
19.966971575
 31
0.0
  0
LINE
  5
B2
  8
0
  6
CONTINUOUS
 62
     7
 10
246.7068372144
 20
21.9862577307
 30
0.0
 11
246.7068372144
 21
19.966971575
 31
0.0
  0
LINE
  5
B3
  8
0
  6
CONTINUOUS
 62
     7
 10
300.1068377717
 20
69.4669722381
 30
0.0
 11
300.1068377717
 21
55.466971806
 31
0.0
  0
LINE
  5
B4
  8
0
  6
CONTINUOUS
 62
     7
 10
183.906837724
 20
81.4669714111
 30
0.0
 11
246.7068372144
 21
81.4669714111
 31
0.0
  0
LINE
  5
B5
  8
0
  6
CONTINUOUS
 62
     7
 10
183.906837724
 20
90.9669720369
 30
0.0
 11
183.906837724
 21
81.4669714111
 31
0.0
  0
LINE
  5
B6
  8
0
  6
CONTINUOUS
 62
     7
 10
246.7068372144
 20
90.9669720369
 30
0.0
 11
183.906837724
 21
90.9669720369
 31
0.0
  0
LINE
  5
B7
  8
0
  6
CONTINUOUS
 62
     7
 10
183.906837724
 20
43.466972633
 30
0.0
 11
246.7068372144
 21
43.466972633
 31
0.0
  0
LINE
  5
B8
  8
0
  6
CONTINUOUS
 62
     7
 10
183.906837724
 20
81.4669714111
 30
0.0
 11
183.906837724
 21
43.466972633
 31
0.0
  0
LINE
  5
B9
  8
0
  6
CONTINUOUS
 62
     7
 10
246.7068372144
 20
33.9669720071
 30
0.0
 11
183.906837724
 21
33.9669720071
 31
0.0
  0
LINE
  5
BA
  8
0
  6
CONTINUOUS
 62
     7
 10
183.906837724
 20
33.9669720071
 30
0.0
 11
183.906837724
 21
43.466972633
 31
0.0
  0
LINE
  5
BB
  8
0
  6
CONTINUOUS
 62
     7
 10
246.7068372144
 20
97.466972171
 30
0.0
 11
183.906837724
 21
97.466972171
 31
0.0
  0
LINE
  5
BC
  8
0
  6
CONTINUOUS
 62
     7
 10
183.906837724
 20
97.466972171
 30
0.0
 11
183.906837724
 21
90.9669720369
 31
0.0
  0
LINE
  5
BD
  8
0
  6
CONTINUOUS
 62
     7
 10
246.7068372144
 20
27.466971873
 30
0.0
 11
183.906837724
 21
27.466971873
 31
0.0
  0
LINE
  5
BE
  8
0
  6
CONTINUOUS
 62
     7
 10
183.906837724
 20
27.466971873
 30
0.0
 11
183.906837724
 21
33.9669720071
 31
0.0
  0
LINE
  5
BF
  8
0
  6
CONTINUOUS
 62
     7
 10
246.7068372144
 20
19.966971575
 30
0.0
 11
183.906837724
 21
19.966971575
 31
0.0
  0
LINE
  5
C0
  8
0
  6
CONTINUOUS
 62
     7
 10
246.7068372144
 20
21.9862577307
 30
0.0
 11
183.906837724
 21
21.9862577307
 31
0.0
  0
LINE
  5
C1
  8
0
  6
CONTINUOUS
 62
     7
 10
183.906837724
 20
19.966971575
 30
0.0
 11
183.906837724
 21
21.9862577307
 31
0.0
  0
LINE
  5
C2
  8
0
  6
CONTINUOUS
 62
     7
 10
183.906837724
 20
21.9862577307
 30
0.0
 11
183.906837724
 21
27.466971873
 31
0.0
  0
LINE
  5
C3
  8
0
  6
CONTINUOUS
 62
     7
 10
246.7068372144
 20
102.9476863134
 30
0.0
 11
183.906837724
 21
102.9476863134
 31
0.0
  0
LINE
  5
C4
  8
0
  6
CONTINUOUS
 62
     7
 10
246.7068372144
 20
104.9669724691
 30
0.0
 11
183.906837724
 21
104.9669724691
 31
0.0
  0
LINE
  5
C5
  8
0
  6
CONTINUOUS
 62
     7
 10
183.906837724
 20
104.9669724691
 30
0.0
 11
183.906837724
 21
102.9476863134
 31
0.0
  0
LINE
  5
C6
  8
0
  6
CONTINUOUS
 62
     7
 10
183.906837724
 20
102.9476863134
 30
0.0
 11
183.906837724
 21
97.466972171
 31
0.0
  0
LINE
  5
C7
  8
0
  6
CONTINUOUS
 62
     7
 10
166.4068395121
 20
33.9669720071
 30
0.0
 11
183.906837724
 21
43.466972633
 31
0.0
  0
LINE
  5
C8
  8
0
  6
CONTINUOUS
 62
     7
 10
166.4068395121
 20
33.9669720071
 30
0.0
 11
162.9068398697
 21
33.9669720071
 31
0.0
  0
LINE
  5
C9
  8
0
  6
CONTINUOUS
 62
     7
 10
166.4068395121
 20
90.9669720369
 30
0.0
 11
162.9068398697
 21
90.9669720369
 31
0.0
  0
LINE
  5
CA
  8
0
  6
CONTINUOUS
 62
     7
 10
166.4068395121
 20
90.9669720369
 30
0.0
 11
183.906837724
 21
81.4669714111
 31
0.0
  0
LINE
  5
CB
  8
0
  6
CONTINUOUS
 62
     7
 10
162.9068398697
 20
90.9669720369
 30
0.0
 11
162.9068398697
 21
33.9669720071
 31
0.0
  0
LINE
  5
CC
  8
0
  6
CONTINUOUS
 62
     7
 10
183.906837724
 20
90.9669720369
 30
0.0
 11
166.4068395121
 21
90.9669720369
 31
0.0
  0
LINE
  5
CD
  8
0
  6
CONTINUOUS
 62
     7
 10
183.906837724
 20
33.9669720071
 30
0.0
 11
166.4068395121
 21
33.9669720071
 31
0.0
  0
LINE
  5
CE
  8
0
  6
CONTINUOUS
 62
     7
 10
162.9068398697
 20
27.466971873
 30
0.0
 11
183.906837724
 21
27.466971873
 31
0.0
  0
LINE
  5
CF
  8
0
  6
CONTINUOUS
 62
     7
 10
162.9068398697
 20
27.466971873
 30
0.0
 11
162.9068398697
 21
33.9669720071
 31
0.0
  0
LINE
  5
D0
  8
0
  6
CONTINUOUS
 62
     7
 10
162.9068398697
 20
97.466972171
 30
0.0
 11
183.906837724
 21
97.466972171
 31
0.0
  0
LINE
  5
D1
  8
0
  6
CONTINUOUS
 62
     7
 10
162.9068398697
 20
97.466972171
 30
0.0
 11
162.9068398697
 21
90.9669720369
 31
0.0
  0
LINE
  5
D2
  8
0
  6
CONTINUOUS
 62
     7
 10
166.4068395121
 20
104.9669724691
 30
0.0
 11
183.906837724
 21
102.9476863134
 31
0.0
  0
LINE
  5
D3
  8
0
  6
CONTINUOUS
 62
     7
 10
162.9068398697
 20
104.9669724691
 30
0.0
 11
166.4068395121
 21
104.9669724691
 31
0.0
  0
LINE
  5
D4
  8
0
  6
CONTINUOUS
 62
     7
 10
162.9068398697
 20
104.9669724691
 30
0.0
 11
162.9068398697
 21
97.466972171
 31
0.0
  0
LINE
  5
D5
  8
0
  6
CONTINUOUS
 62
     7
 10
166.4068395121
 20
104.9669724691
 30
0.0
 11
183.906837724
 21
104.9669724691
 31
0.0
  0
LINE
  5
D6
  8
0
  6
CONTINUOUS
 62
     7
 10
166.4068395121
 20
19.966971575
 30
0.0
 11
183.906837724
 21
21.9862577307
 31
0.0
  0
LINE
  5
D7
  8
0
  6
CONTINUOUS
 62
     7
 10
166.4068395121
 20
19.966971575
 30
0.0
 11
183.906837724
 21
19.966971575
 31
0.0
  0
LINE
  5
D8
  8
0
  6
CONTINUOUS
 62
     7
 10
162.9068398697
 20
19.966971575
 30
0.0
 11
166.4068395121
 21
19.966971575
 31
0.0
  0
LINE
  5
D9
  8
0
  6
CONTINUOUS
 62
     7
 10
162.9068398697
 20
19.966971575
 30
0.0
 11
162.9068398697
 21
27.466971873
 31
0.0
  0
LINE
  5
DA
  8
0
  6
CONTINUOUS
 62
     7
 10
151.1068338377
 20
103.4310725319
 30
0.0
 11
151.1068338377
 21
23.7049390363
 31
0.0
  0
LINE
  5
DB
  8
0
  6
CONTINUOUS
 62
     7
 10
153.5237872822
 20
104.9669724691
 30
0.0
 11
151.4345327241
 21
104.9669724691
 31
0.0
  0
ARC
  5
DC
  8
0
  6
CONTINUOUS
 62
     7
 10
346.8667473348
 20
62.466972022
 30
0.0
 40
197.9589603933098
 50
167.6026025321
 51
169.8163243056
  0
POLYLINE
  5
DD
  8
0
  6
CONTINUOUS
 62
     7
 66
     1
 10
0.0
 20
0.0
 30
0.0
 70
   128
  0
VERTEX
  5
658
  8
0
  6
CONTINUOUS
 62
     7
 10
152.0264291985
 20
90.9669720369
 30
0.0
  0
VERTEX
  5
659
  8
0
  6
CONTINUOUS
 62
     7
 10
151.7101222498
 20
91.3212154793
 30
0.0
  0
VERTEX
  5
65A
  8
0
  6
CONTINUOUS
 62
     7
 10
151.5550384147
 20
92.3575483995
 30
0.0
  0
VERTEX
  5
65B
  8
0
  6
CONTINUOUS
 62
     7
 10
151.5798339469
 20
93.9340558636
 30
0.0
  0
VERTEX
  5
65C
  8
0
  6
CONTINUOUS
 62
     7
 10
151.7749870045
 20
95.8661366987
 30
0.0
  0
VERTEX
  5
65D
  8
0
  6
CONTINUOUS
 62
     7
 10
152.0264291985
 20
97.466972171
 30
0.0
  0
SEQEND
  5
722
  8
0
  6
CONTINUOUS
 62
     7
  0
ARC
  5
DE
  8
0
  6
CONTINUOUS
 62
     7
 10
346.8667473348
 20
62.466972022
 30
0.0
 40
195.4322133119308
 50
171.6146187429
 51
188.3853812571
  0
LINE
  5
DF
  8
0
  6
CONTINUOUS
 62
     7
 10
152.0264291985
 20
33.9669720071
 30
0.0
 11
153.5237872822
 21
33.9669720071
 31
0.0
  0
POLYLINE
  5
E0
  8
0
  6
CONTINUOUS
 62
     7
 66
     1
 10
0.0
 20
0.0
 30
0.0
 70
   128
  0
VERTEX
  5
65E
  8
0
  6
CONTINUOUS
 62
     7
 10
152.0264291985
 20
27.466971873
 30
0.0
  0
VERTEX
  5
65F
  8
0
  6
CONTINUOUS
 62
     7
 10
151.7101222498
 20
29.5834955561
 30
0.0
  0
VERTEX
  5
660
  8
0
  6
CONTINUOUS
 62
     7
 10
151.5550384147
 20
31.4849060762
 30
0.0
  0
VERTEX
  5
661
  8
0
  6
CONTINUOUS
 62
     7
 10
151.5798339469
 20
32.9230227309
 30
0.0
  0
VERTEX
  5
662
  8
0
  6
CONTINUOUS
 62
     7
 10
151.7749870045
 20
33.7667600053
 30
0.0
  0
VERTEX
  5
663
  8
0
  6
CONTINUOUS
 62
     7
 10
152.0264291985
 20
33.9669720071
 30
0.0
  0
SEQEND
  5
723
  8
0
  6
CONTINUOUS
 62
     7
  0
ARC
  5
E1
  8
0
  6
CONTINUOUS
 62
     7
 10
346.8667473348
 20
62.466972022
 30
0.0
 40
197.9589603933098
 50
190.1836756944
 51
192.3973974679
  0
LINE
  5
E2
  8
0
  6
CONTINUOUS
 62
     7
 10
151.8842125161
 20
19.966971575
 30
0.0
 11
153.5237872822
 21
19.966971575
 31
0.0
  0
ARC
  5
E3
  8
0
  6
CONTINUOUS
 62
     7
 10
346.8667473348
 20
62.466972022
 30
0.0
 40
199.5606110934721
 50
191.2001481356
 51
192.2963344596
  0
LINE
  5
E4
  8
0
  6
CONTINUOUS
 62
     7
 10
153.5237872822
 20
90.9669720369
 30
0.0
 11
152.0264291985
 21
90.9669720369
 31
0.0
  0
LINE
  5
E5
  8
0
  6
CONTINUOUS
 62
     7
 10
153.5237872822
 20
33.9669720071
 30
0.0
 11
162.9068398697
 21
33.9669720071
 31
0.0
  0
LINE
  5
E6
  8
0
  6
CONTINUOUS
 62
     7
 10
153.5237872822
 20
90.9669720369
 30
0.0
 11
162.9068398697
 21
90.9669720369
 31
0.0
  0
LINE
  5
E7
  8
0
  6
CONTINUOUS
 62
     7
 10
149.1068372352
 20
99.9669735121
 30
0.0
 11
149.1068372352
 21
27.3858164239
 31
0.0
  0
POLYLINE
  5
E8
  8
0
  6
CONTINUOUS
 62
     7
 66
     1
 10
0.0
 20
0.0
 30
0.0
 70
   128
  0
VERTEX
  5
664
  8
0
  6
CONTINUOUS
 62
     7
 10
149.1068372352
 20
27.3858164239
 30
0.0
  0
VERTEX
  5
665
  8
0
  6
CONTINUOUS
 62
     7
 10
150.8753890021
 20
24.1288398194
 30
0.0
  0
VERTEX
  5
666
  8
0
  6
CONTINUOUS
 62
     7
 10
151.1068338377
 20
23.7049390363
 30
0.0
  0
SEQEND
  5
724
  8
0
  6
CONTINUOUS
 62
     7
  0
LINE
  5
E9
  8
0
  6
CONTINUOUS
 62
     7
 10
152.0264291985
 20
27.466971873
 30
0.0
 11
162.9068398697
 21
27.466971873
 31
0.0
  0
LINE
  5
EA
  8
0
  6
CONTINUOUS
 62
     7
 10
152.0264291985
 20
97.466972171
 30
0.0
 11
162.9068398697
 21
97.466972171
 31
0.0
  0
LINE
  5
EB
  8
0
  6
CONTINUOUS
 62
     7
 10
153.5237872822
 20
19.966971575
 30
0.0
 11
162.9068398697
 21
19.966971575
 31
0.0
  0
LINE
  5
EC
  8
0
  6
CONTINUOUS
 62
     7
 10
153.5237872822
 20
104.9669724691
 30
0.0
 11
162.9068398697
 21
104.9669724691
 31
0.0
  0
LINE
  5
ED
  8
0
  6
CONTINUOUS
 62
     7
 10
151.8842125161
 20
19.966971575
 30
0.0
 11
149.1068372352
 21
19.966971575
 31
0.0
  0
LINE
  5
EE
  8
0
  6
CONTINUOUS
 62
     7
 10
149.1068372352
 20
19.966971575
 30
0.0
 11
149.1068372352
 21
27.3858164239
 31
0.0
  0
LINE
  5
EF
  8
0
  6
CONTINUOUS
 62
     7
 10
180.9568399413
 20
15.4669736314
 30
0.0
 11
182.856834851
 21
15.4669736314
 31
0.0
  0
LINE
  5
F0
  8
0
  6
CONTINUOUS
 62
     7
 10
182.856834851
 20
15.4669736314
 30
0.0
 11
182.856834851
 21
15.1669722783
 31
0.0
  0
LINE
  5
F1
  8
0
  6
CONTINUOUS
 62
     7
 10
178.7568399532
 20
15.1669722783
 30
0.0
 11
182.856834851
 21
15.1669722783
 31
0.0
  0
LINE
  5
F2
  8
0
  6
CONTINUOUS
 62
     7
 10
178.7568399532
 20
15.4669736314
 30
0.0
 11
178.7568399532
 21
15.1669722783
 31
0.0
  0
LINE
  5
F3
  8
0
  6
CONTINUOUS
 62
     7
 10
178.7568399532
 20
15.4669736314
 30
0.0
 11
180.6568348629
 21
15.4669736314
 31
0.0
  0
LINE
  5
F4
  8
0
  6
CONTINUOUS
 62
     7
 10
180.6568348629
 20
18.0669729399
 30
0.0
 11
180.6568348629
 21
15.4669736314
 31
0.0
  0
LINE
  5
F5
  8
0
  6
CONTINUOUS
 62
     7
 10
180.6568348629
 20
18.0669729399
 30
0.0
 11
180.9568399413
 21
18.0669729399
 31
0.0
  0
LINE
  5
F6
  8
0
  6
CONTINUOUS
 62
     7
 10
180.9568399413
 20
18.0669729399
 30
0.0
 11
180.9568399413
 21
15.4669736314
 31
0.0
  0
CIRCLE
  5
F7
  8
0
  6
CONTINUOUS
 62
     7
 10
180.8068372948
 20
15.966972022
 30
0.0
 40
2.600000000000023
  0
CIRCLE
  5
F8
  8
0
  6
CONTINUOUS
 62
     7
 10
180.8068372948
 20
15.966972022
 30
0.0
 40
2.900000000000034
  0
LINE
  5
F9
  8
0
  6
CONTINUOUS
 62
     7
 10
179.9568379147
 20
14.1669702518
 30
0.0
 11
181.6568368895
 21
14.1669702518
 31
0.0
  0
LINE
  5
FA
  8
0
  6
CONTINUOUS
 62
     7
 10
181.6568368895
 20
14.1669702518
 30
0.0
 11
181.6568368895
 21
13.866972624
 31
0.0
  0
LINE
  5
FB
  8
0
  6
CONTINUOUS
 62
     7
 10
179.9568379147
 20
13.866972624
 30
0.0
 11
181.6568368895
 21
13.866972624
 31
0.0
  0
LINE
  5
FC
  8
0
  6
CONTINUOUS
 62
     7
 10
179.9568379147
 20
14.1669702518
 30
0.0
 11
179.9568379147
 21
13.866972624
 31
0.0
  0
LINE
  5
FD
  8
0
  6
CONTINUOUS
 62
     7
 10
182.2568395956
 20
14.8169738042
 30
0.0
 11
182.2568395956
 21
14.5169724512
 31
0.0
  0
LINE
  5
FE
  8
0
  6
CONTINUOUS
 62
     7
 10
179.3568352087
 20
14.5169724512
 30
0.0
 11
182.2568395956
 21
14.5169724512
 31
0.0
  0
LINE
  5
FF
  8
0
  6
CONTINUOUS
 62
     7
 10
179.3568352087
 20
14.8169738042
 30
0.0
 11
179.3568352087
 21
14.5169724512
 31
0.0
  0
LINE
  5
100
  8
0
  6
CONTINUOUS
 62
     7
 10
179.3568352087
 20
14.8169738042
 30
0.0
 11
182.2568395956
 21
14.8169738042
 31
0.0
  0
LINE
  5
101
  8
0
  6
CONTINUOUS
 62
     7
 10
182.0068353636
 20
10.5054457474
 30
0.0
 11
182.0068353636
 21
8.9669716346
 31
0.0
  0
LINE
  5
102
  8
0
  6
CONTINUOUS
 62
     7
 10
190.3068343027
 20
14.5542253542
 30
0.0
 11
182.0068353636
 21
10.5054457474
 31
0.0
  0
POLYLINE
  5
103
  8
0
  6
CONTINUOUS
 62
     7
 66
     1
 10
0.0
 20
0.0
 30
0.0
 70
   128
  0
VERTEX
  5
667
  8
0
  6
CONTINUOUS
 62
     7
 10
194.3068349583
 20
15.7238286721
 30
0.0
  0
VERTEX
  5
668
  8
0
  6
CONTINUOUS
 62
     7
 10
194.118178807
 20
15.8392642426
 30
0.0
  0
VERTEX
  5
669
  8
0
  6
CONTINUOUS
 62
     7
 10
193.5670891626
 20
15.7814030337
 30
0.0
  0
VERTEX
  5
66A
  8
0
  6
CONTINUOUS
 62
     7
 10
192.7321771009
 20
15.5541826772
 30
0.0
  0
VERTEX
  5
66B
  8
0
  6
CONTINUOUS
 62
     7
 10
191.673308037
 20
15.1657503831
 30
0.0
  0
VERTEX
  5
66C
  8
0
  6
CONTINUOUS
 62
     7
 10
190.3068343027
 20
14.5542253542
 30
0.0
  0
SEQEND
  5
725
  8
0
  6
CONTINUOUS
 62
     7
  0
LINE
  5
104
  8
0
  6
CONTINUOUS
 62
     7
 10
194.3068349583
 20
15.7238286721
 30
0.0
 11
194.3068349583
 21
14.9865043151
 31
0.0
  0
LINE
  5
105
  8
0
  6
CONTINUOUS
 62
     7
 10
190.3068343027
 20
14.5542253542
 30
0.0
 11
190.3068343027
 21
19.966971575
 31
0.0
  0
LINE
  5
106
  8
0
  6
CONTINUOUS
 62
     7
 10
194.3068349583
 20
19.966971575
 30
0.0
 11
194.3068349583
 21
15.7238286721
 31
0.0
  0
LINE
  5
107
  8
0
  6
CONTINUOUS
 62
     7
 10
165.8068368061
 20
10.5054457474
 30
0.0
 11
182.0068353636
 21
10.5054457474
 31
0.0
  0
LINE
  5
108
  8
0
  6
CONTINUOUS
 62
     7
 10
165.8068368061
 20
10.5054457474
 30
0.0
 11
165.8068368061
 21
19.966971575
 31
0.0
  0
LINE
  5
109
  8
0
  6
CONTINUOUS
 62
     7
 10
165.8068368061
 20
8.9669716346
 30
0.0
 11
165.8068368061
 21
10.5054457474
 31
0.0
  0
ARC
  5
10A
  8
0
  6
CONTINUOUS
 62
     7
 10
174.8066654863
 20
-50.911169912
 30
0.0
 40
60.10784054986516
 50
85.051333582
 51
95.0106033284
  0
LINE
  5
10B
  8
0
  6
CONTINUOUS
 62
     7
 10
169.5568406804
 20
6.9669713068
 30
0.0
 11
180.0568396075
 21
6.9669713068
 31
0.0
  0
ARC
  5
10C
  8
0
  6
CONTINUOUS
 62
     7
 10
170.8068372948
 20
15.166972022
 30
0.0
 40
2.200000000000057
 50
141.5249788442
 51
308.4750211559
  0
POLYLINE
  5
10D
  8
0
  6
CONTINUOUS
 62
     7
 66
     1
 10
0.0
 20
0.0
 30
0.0
 70
   128
  0
VERTEX
  5
66D
  8
0
  6
CONTINUOUS
 62
     7
 10
172.1756154521
 20
13.4446364629
 30
0.0
  0
VERTEX
  5
66E
  8
0
  6
CONTINUOUS
 62
     7
 10
172.4825272186
 20
13.1377284217
 30
0.0
  0
VERTEX
  5
66F
  8
0
  6
CONTINUOUS
 62
     7
 10
172.7548012359
 20
12.8654544043
 30
0.0
  0
VERTEX
  5
670
  8
0
  6
CONTINUOUS
 62
     7
 10
172.9603851063
 20
12.6598705339
 30
0.0
  0
VERTEX
  5
671
  8
0
  6
CONTINUOUS
 62
     7
 10
173.0769196374
 20
12.5433397281
 30
0.0
  0
VERTEX
  5
672
  8
0
  6
CONTINUOUS
 62
     7
 10
173.0986157281
 20
12.5216436374
 30
0.0
  0
SEQEND
  5
726
  8
0
  6
CONTINUOUS
 62
     7
  0
ARC
  5
10E
  8
0
  6
CONTINUOUS
 62
     7
 10
170.8068372948
 20
15.166972022
 30
0.0
 40
3.500000000000091
 50
139.0960437582
 51
310.9039562418
  0
POLYLINE
  5
10F
  8
0
  6
CONTINUOUS
 62
     7
 66
     1
 10
0.0
 20
0.0
 30
0.0
 70
   128
  0
VERTEX
  5
673
  8
0
  6
CONTINUOUS
 62
     7
 10
168.1615108473
 20
17.4587485182
 30
0.0
  0
VERTEX
  5
674
  8
0
  6
CONTINUOUS
 62
     7
 10
168.2132327778
 20
17.4070191371
 30
0.0
  0
VERTEX
  5
675
  8
0
  6
CONTINUOUS
 62
     7
 10
168.3625275118
 20
17.2577318537
 30
0.0
  0
VERTEX
  5
676
  8
0
  6
CONTINUOUS
 62
     7
 10
168.5926535947
 20
17.0276057708
 30
0.0
  0
VERTEX
  5
677
  8
0
  6
CONTINUOUS
 62
     7
 10
168.8782567008
 20
16.7419989395
 30
0.0
  0
VERTEX
  5
678
  8
0
  6
CONTINUOUS
 62
     7
 10
169.0845036728
 20
16.5357519674
 30
0.0
  0
SEQEND
  5
727
  8
0
  6
CONTINUOUS
 62
     7
  0
ARC
  5
110
  8
0
  6
CONTINUOUS
 62
     7
 10
170.8068372948
 20
15.166972022
 30
0.0
 40
2.200000000000156
 50
321.5249788441
 51
128.4750211559
  0
POLYLINE
  5
111
  8
0
  6
CONTINUOUS
 62
     7
 66
     1
 10
0.0
 20
0.0
 30
0.0
 70
   128
  0
VERTEX
  5
679
  8
0
  6
CONTINUOUS
 62
     7
 10
169.4380560739
 20
16.8893080938
 30
0.0
  0
VERTEX
  5
67A
  8
0
  6
CONTINUOUS
 62
     7
 10
169.1311443074
 20
17.196216135
 30
0.0
  0
VERTEX
  5
67B
  8
0
  6
CONTINUOUS
 62
     7
 10
168.85887029
 20
17.4684901523
 30
0.0
  0
VERTEX
  5
67C
  8
0
  6
CONTINUOUS
 62
     7
 10
168.6532938702
 20
17.6740740227
 30
0.0
  0
VERTEX
  5
67D
  8
0
  6
CONTINUOUS
 62
     7
 10
168.5367593391
 20
17.7906048286
 30
0.0
  0
VERTEX
  5
67E
  8
0
  6
CONTINUOUS
 62
     7
 10
168.5150632484
 20
17.8123009193
 30
0.0
  0
SEQEND
  5
728
  8
0
  6
CONTINUOUS
 62
     7
  0
ARC
  5
112
  8
0
  6
CONTINUOUS
 62
     7
 10
170.8068372948
 20
15.166972022
 30
0.0
 40
3.50000000000009
 50
319.0960437582
 51
130.9039562418
  0
LINE
  5
113
  8
0
  6
CONTINUOUS
 62
     7
 10
173.4521681292
 20
12.8751960385
 30
0.0
 11
172.5291753037
 21
13.798188864
 31
0.0
  0
ARC
  5
114
  8
0
  6
CONTINUOUS
 62
     7
 10
169.0390703419
 20
15.166972022
 30
0.0
 40
1.000000000000199
 50
315.0
 51
45.0
  0
LINE
  5
115
  8
0
  6
CONTINUOUS
 62
     7
 10
169.1451364977
 20
13.8588254142
 30
0.0
 11
169.7461748345
 21
14.4598637509
 31
0.0
  0
LINE
  5
116
  8
0
  6
CONTINUOUS
 62
     7
 10
169.1451364977
 20
13.8588254142
 30
0.0
 11
169.4986888988
 21
13.5052692878
 31
0.0
  0
ARC
  5
117
  8
0
  6
CONTINUOUS
 62
     7
 10
170.8068372948
 20
13.3992050691
 30
0.0
 40
1.000000000000199
 50
45.0
 51
135.0
  0
LINE
  5
118
  8
0
  6
CONTINUOUS
 62
     7
 10
169.4986888988
 20
13.5052692878
 30
0.0
 11
170.0997272356
 21
14.1063113498
 31
0.0
  0
LINE
  5
119
  8
0
  6
CONTINUOUS
 62
     7
 10
169.0845036728
 20
16.5357519674
 30
0.0
 11
169.7461748345
 21
15.8740770805
 31
0.0
  0
LINE
  5
11A
  8
0
  6
CONTINUOUS
 62
     7
 10
171.5139442904
 20
14.1063113498
 30
0.0
 11
172.1756154521
 21
13.4446364629
 31
0.0
  0
ARC
  5
11B
  8
0
  6
CONTINUOUS
 62
     7
 10
170.8068372948
 20
16.934738975
 30
0.0
 40
0.999999999999885
 50
225.0
 51
315.0
  0
LINE
  5
11C
  8
0
  6
CONTINUOUS
 62
     7
 10
171.5139442904
 20
16.2276332068
 30
0.0
 11
172.1149826272
 21
16.8286715436
 31
0.0
  0
ARC
  5
11D
  8
0
  6
CONTINUOUS
 62
     7
 10
172.5746042478
 20
15.166972022
 30
0.0
 40
1.000000000000199
 50
135.0
 51
225.0
  0
LINE
  5
11E
  8
0
  6
CONTINUOUS
 62
     7
 10
172.1149826272
 20
16.8286715436
 30
0.0
 11
172.4685350282
 21
16.4751191425
 31
0.0
  0
LINE
  5
11F
  8
0
  6
CONTINUOUS
 62
     7
 10
171.8674966915
 20
15.8740770805
 30
0.0
 11
172.4685350282
 21
16.4751191425
 31
0.0
  0
LINE
  5
120
  8
0
  6
CONTINUOUS
 62
     7
 10
171.8674966915
 20
14.4598637509
 30
0.0
 11
172.5291753037
 21
13.798188864
 31
0.0
  0
LINE
  5
121
  8
0
  6
CONTINUOUS
 62
     7
 10
169.4380560739
 20
16.8893080938
 30
0.0
 11
170.0997272356
 21
16.2276332068
 31
0.0
  0
ARC
  5
122
  8
0
  6
CONTINUOUS
 62
     7
 10
170.8068372948
 20
15.166972022
 30
0.0
 40
3.50000000000009
 50
130.9039562418
 51
139.0960437582
  0
ARC
  5
123
  8
0
  6
CONTINUOUS
 62
     7
 10
170.8068372948
 20
15.166972022
 30
0.0
 40
3.500000000000091
 50
310.9039562418
 51
319.0960437582
  0
LINE
  5
124
  8
0
  6
CONTINUOUS
 62
     7
 10
178.006834708
 20
-264.1330133391
 30
0.0
 11
172.6068401558
 21
-264.1330133391
 31
0.0
  0
LINE
  5
125
  8
0
  6
CONTINUOUS
 62
     7
 10
178.006834708
 20
-262.633032651
 30
0.0
 11
172.6068401558
 21
-262.633032651
 31
0.0
  0
LINE
  5
126
  8
0
  6
CONTINUOUS
 62
     7
 10
178.006834708
 20
-262.633032651
 30
0.0
 11
178.006834708
 21
-264.1330133391
 31
0.0
  0
LINE
  5
127
  8
0
  6
CONTINUOUS
 62
     7
 10
172.6068401558
 20
-264.1330133391
 30
0.0
 11
172.6068401558
 21
-262.633032651
 31
0.0
  0
LINE
  5
128
  8
0
  6
CONTINUOUS
 62
     7
 10
176.8068367465
 20
-277.4330149603
 30
0.0
 11
173.8068381174
 21
-277.4330149603
 31
0.0
  0
LINE
  5
129
  8
0
  6
CONTINUOUS
 62
     7
 10
176.8068367465
 20
-276.7330180121
 30
0.0
 11
173.8068381174
 21
-276.7330180121
 31
0.0
  0
LINE
  5
12A
  8
0
  6
CONTINUOUS
 62
     7
 10
176.8068367465
 20
-276.7330180121
 30
0.0
 11
176.8068367465
 21
-277.4330149603
 31
0.0
  0
LINE
  5
12B
  8
0
  6
CONTINUOUS
 62
     7
 10
173.8068381174
 20
-277.4330149603
 30
0.0
 11
173.8068381174
 21
-276.7330180121
 31
0.0
  0
LINE
  5
12C
  8
0
  6
CONTINUOUS
 62
     7
 10
172.6068401558
 20
-264.6330367041
 30
0.0
 11
173.8068381174
 21
-264.6330367041
 31
0.0
  0
LINE
  5
12D
  8
0
  6
CONTINUOUS
 62
     7
 10
172.6068401558
 20
-264.1330133391
 30
0.0
 11
172.6068401558
 21
-264.6330367041
 31
0.0
  0
LINE
  5
12E
  8
0
  6
CONTINUOUS
 62
     7
 10
178.006834708
 20
-264.6330367041
 30
0.0
 11
176.8068367465
 21
-264.6330367041
 31
0.0
  0
LINE
  5
12F
  8
0
  6
CONTINUOUS
 62
     7
 10
178.006834708
 20
-264.6330367041
 30
0.0
 11
178.006834708
 21
-264.1330133391
 31
0.0
  0
LINE
  5
130
  8
0
  6
CONTINUOUS
 62
     7
 10
176.8068367465
 20
-276.7330180121
 30
0.0
 11
176.8068367465
 21
-264.1330133391
 31
0.0
  0
LINE
  5
131
  8
0
  6
CONTINUOUS
 62
     7
 10
173.8068381174
 20
-264.1330133391
 30
0.0
 11
173.8068381174
 21
-276.7330180121
 31
0.0
  0
LINE
  5
132
  8
0
  6
CONTINUOUS
 62
     7
 10
172.6068401558
 20
-269.8830138159
 30
0.0
 11
173.8068381174
 21
-269.8830138159
 31
0.0
  0
LINE
  5
133
  8
0
  6
CONTINUOUS
 62
     7
 10
172.6068401558
 20
-264.6330367041
 30
0.0
 11
172.6068401558
 21
-269.8830138159
 31
0.0
  0
LINE
  5
134
  8
0
  6
CONTINUOUS
 62
     7
 10
178.006834708
 20
-269.8830138159
 30
0.0
 11
176.8068367465
 21
-269.8830138159
 31
0.0
  0
LINE
  5
135
  8
0
  6
CONTINUOUS
 62
     7
 10
178.006834708
 20
-269.8830138159
 30
0.0
 11
178.006834708
 21
-264.6330367041
 31
0.0
  0
LINE
  5
136
  8
0
  6
CONTINUOUS
 62
     7
 10
171.8068340642
 20
-260.4330252123
 30
0.0
 11
168.4068361146
 21
-260.4330252123
 31
0.0
  0
LINE
  5
137
  8
0
  6
CONTINUOUS
 62
     7
 10
171.8068340642
 20
-261.43304214
 30
0.0
 11
171.8068340642
 21
-260.4330252123
 31
0.0
  0
LINE
  5
138
  8
0
  6
CONTINUOUS
 62
     7
 10
168.4068361146
 20
-261.43304214
 30
0.0
 11
171.8068340642
 21
-261.43304214
 31
0.0
  0
LINE
  5
139
  8
0
  6
CONTINUOUS
 62
     7
 10
168.4068361146
 20
-261.43304214
 30
0.0
 11
168.4068361146
 21
-260.4330252123
 31
0.0
  0
LINE
  5
13A
  8
0
  6
CONTINUOUS
 62
     7
 10
182.2068387492
 20
-260.4330252123
 30
0.0
 11
178.8068407996
 21
-260.4330252123
 31
0.0
  0
LINE
  5
13B
  8
0
  6
CONTINUOUS
 62
     7
 10
178.8068407996
 20
-261.43304214
 30
0.0
 11
182.2068387492
 21
-261.43304214
 31
0.0
  0
LINE
  5
13C
  8
0
  6
CONTINUOUS
 62
     7
 10
178.8068407996
 20
-260.4330252123
 30
0.0
 11
178.8068407996
 21
-261.43304214
 31
0.0
  0
LINE
  5
13D
  8
0
  6
CONTINUOUS
 62
     7
 10
182.2068387492
 20
-261.43304214
 30
0.0
 11
182.2068387492
 21
-260.4330252123
 31
0.0
  0
LINE
  5
13E
  8
0
  6
CONTINUOUS
 62
     7
 10
176.8068367465
 20
-270.1830337954
 30
0.0
 11
178.006834708
 21
-270.1830337954
 31
0.0
  0
LINE
  5
13F
  8
0
  6
CONTINUOUS
 62
     7
 10
178.006834708
 20
-270.1830337954
 30
0.0
 11
178.006834708
 21
-269.8830138159
 31
0.0
  0
LINE
  5
140
  8
0
  6
CONTINUOUS
 62
     7
 10
172.6068401558
 20
-270.1830337954
 30
0.0
 11
173.8068381174
 21
-270.1830337954
 31
0.0
  0
LINE
  5
141
  8
0
  6
CONTINUOUS
 62
     7
 10
172.6068401558
 20
-269.8830138159
 30
0.0
 11
172.6068401558
 21
-270.1830337954
 31
0.0
  0
LINE
  5
142
  8
0
  6
CONTINUOUS
 62
     7
 10
168.4068361146
 20
-271.1330424261
 30
0.0
 11
173.8068381174
 21
-271.1330424261
 31
0.0
  0
LINE
  5
143
  8
0
  6
CONTINUOUS
 62
     7
 10
176.8068367465
 20
-271.1330424261
 30
0.0
 11
182.2068387492
 21
-271.1330424261
 31
0.0
  0
LINE
  5
144
  8
0
  6
CONTINUOUS
 62
     7
 10
171.8068340642
 20
-260.4330252123
 30
0.0
 11
178.8068407996
 21
-260.4330252123
 31
0.0
  0
LINE
  5
145
  8
0
  6
CONTINUOUS
 62
     7
 10
182.2068387492
 20
-261.43304214
 30
0.0
 11
182.2068387492
 21
-271.1330424261
 31
0.0
  0
LINE
  5
146
  8
0
  6
CONTINUOUS
 62
     7
 10
168.4068361146
 20
-261.43304214
 30
0.0
 11
168.4068361146
 21
-271.1330424261
 31
0.0
  0
LINE
  5
147
  8
0
  6
CONTINUOUS
 62
     7
 10
170.8068394883
 20
-225.4330287886
 30
0.0
 11
178.806833349
 21
-225.4330287886
 31
0.0
  0
LINE
  5
148
  8
0
  6
CONTINUOUS
 62
     7
 10
170.306838475
 20
-200.4330228281
 30
0.0
 11
179.3068343623
 21
-200.4330228281
 31
0.0
  0
LINE
  5
149
  8
0
  6
CONTINUOUS
 62
     7
 10
181.2068367226
 20
-280.0330291701
 30
0.0
 11
177.806838773
 21
-280.0330291701
 31
0.0
  0
LINE
  5
14A
  8
0
  6
CONTINUOUS
 62
     7
 10
177.806838773
 20
-271.1330424261
 30
0.0
 11
177.806838773
 21
-280.0330291701
 31
0.0
  0
LINE
  5
14B
  8
0
  6
CONTINUOUS
 62
     7
 10
181.2068367226
 20
-271.1330424261
 30
0.0
 11
181.2068367226
 21
-280.0330291701
 31
0.0
  0
LINE
  5
14C
  8
0
  6
CONTINUOUS
 62
     7
 10
177.006840132
 20
-280.0330291701
 30
0.0
 11
173.6068347318
 21
-280.0330291701
 31
0.0
  0
LINE
  5
14D
  8
0
  6
CONTINUOUS
 62
     7
 10
173.6068347318
 20
-271.1330424261
 30
0.0
 11
173.6068347318
 21
-280.0330291701
 31
0.0
  0
LINE
  5
14E
  8
0
  6
CONTINUOUS
 62
     7
 10
177.006840132
 20
-271.1330424261
 30
0.0
 11
177.006840132
 21
-280.0330291701
 31
0.0
  0
LINE
  5
14F
  8
0
  6
CONTINUOUS
 62
     7
 10
169.4068381412
 20
-280.0330291701
 30
0.0
 11
169.4068381412
 21
-271.1330424261
 31
0.0
  0
LINE
  5
150
  8
0
  6
CONTINUOUS
 62
     7
 10
172.8068360908
 20
-271.1330424261
 30
0.0
 11
172.8068360908
 21
-280.0330291701
 31
0.0
  0
LINE
  5
151
  8
0
  6
CONTINUOUS
 62
     7
 10
172.8068360908
 20
-280.0330291701
 30
0.0
 11
169.4068381412
 21
-280.0330291701
 31
0.0
  0
LINE
  5
152
  8
0
  6
CONTINUOUS
 62
     7
 10
178.3068397863
 20
-240.4330144835
 30
0.0
 11
171.3068405015
 21
-240.4330144835
 31
0.0
  0
LINE
  5
153
  8
0
  6
CONTINUOUS
 62
     7
 10
161.6068402154
 20
10.3922341752
 30
0.0
 11
161.6068402154
 21
19.966971575
 31
0.0
  0
LINE
  5
154
  8
0
  6
CONTINUOUS
 62
     7
 10
149.6068382485
 20
10.3922341752
 30
0.0
 11
161.6068402154
 21
10.3922341752
 31
0.0
  0
LINE
  5
155
  8
0
  6
CONTINUOUS
 62
     7
 10
149.6068382485
 20
10.3922341752
 30
0.0
 11
149.6068382485
 21
19.966971575
 31
0.0
  0
LINE
  5
156
  8
0
  6
CONTINUOUS
 62
     7
 10
149.6068382485
 20
8.9669716346
 30
0.0
 11
149.6068382485
 21
10.3922341752
 31
0.0
  0
LINE
  5
157
  8
0
  6
CONTINUOUS
 62
     7
 10
161.6068402154
 20
8.9669716346
 30
0.0
 11
161.6068402154
 21
10.3922341752
 31
0.0
  0
ARC
  5
158
  8
0
  6
CONTINUOUS
 62
     7
 10
155.6066683689
 20
-50.920995678
 30
0.0
 40
60.09631361245296
 50
85.2865421154
 51
94.7723486054
  0
LINE
  5
159
  8
0
  6
CONTINUOUS
 62
     7
 10
150.606840275
 20
6.9669713068
 30
0.0
 11
160.6068381889
 21
6.9669713068
 31
0.0
  0
LINE
  5
15A
  8
0
  6
CONTINUOUS
 62
     7
 10
164.3068337662
 20
-236.5330229712
 30
0.0
 11
146.9068372471
 21
-236.5330229712
 31
0.0
  0
ARC
  5
15B
  8
0
  6
CONTINUOUS
 62
     7
 10
164.3068372948
 20
-237.033027978
 30
0.0
 40
0.5000000000000568
 50
360.0
 51
90.0
  0
LINE
  5
15C
  8
0
  6
CONTINUOUS
 62
     7
 10
164.8068347795
 20
-241.2679265452
 30
0.0
 11
164.8068347795
 21
-237.0330165339
 31
0.0
  0
ARC
  5
15D
  8
0
  6
CONTINUOUS
 62
     7
 10
159.8068372948
 20
-241.267926193
 30
0.0
 40
5.000000000001172
 50
311.2570117043
 51
0.0
  0
LINE
  5
15E
  8
0
  6
CONTINUOUS
 62
     7
 10
162.0982581599
 20
-245.908982606
 30
0.0
 11
163.1040269358
 21
-245.026714654
 31
0.0
  0
LINE
  5
15F
  8
0
  6
CONTINUOUS
 62
     7
 10
162.0982581599
 20
-251.0330151034
 30
0.0
 11
162.0982581599
 21
-245.908982606
 31
0.0
  0
LINE
  5
160
  8
0
  6
CONTINUOUS
 62
     7
 10
164.098262213
 20
-253.0330191565
 30
0.0
 11
162.0982581599
 21
-251.0330151034
 31
0.0
  0
LINE
  5
161
  8
0
  6
CONTINUOUS
 62
     7
 10
165.006838165
 20
-253.0330191565
 30
0.0
 11
164.098262213
 21
-253.0330191565
 31
0.0
  0
LINE
  5
162
  8
0
  6
CONTINUOUS
 62
     7
 10
146.2068402989
 20
-269.5330153418
 30
0.0
 11
165.006838165
 21
-269.5330153418
 31
0.0
  0
LINE
  5
163
  8
0
  6
CONTINUOUS
 62
     7
 10
147.1154162509
 20
-253.0330191565
 30
0.0
 11
146.2068402989
 21
-253.0330191565
 31
0.0
  0
LINE
  5
164
  8
0
  6
CONTINUOUS
 62
     7
 10
149.1154128535
 20
-251.0330151034
 30
0.0
 11
147.1154162509
 21
-253.0330191565
 31
0.0
  0
LINE
  5
165
  8
0
  6
CONTINUOUS
 62
     7
 10
149.1154128535
 20
-245.908982606
 30
0.0
 11
149.1154128535
 21
-251.0330151034
 31
0.0
  0
LINE
  5
166
  8
0
  6
CONTINUOUS
 62
     7
 10
148.1096515281
 20
-245.026714654
 30
0.0
 11
149.1154128535
 21
-245.908982606
 31
0.0
  0
ARC
  5
167
  8
0
  6
CONTINUOUS
 62
     7
 10
151.4068372948
 20
-241.267926193
 30
0.0
 40
5.000000000000685
 50
180.0
 51
228.7429882957
  0
LINE
  5
168
  8
0
  6
CONTINUOUS
 62
     7
 10
146.4068362339
 20
-237.0330165339
 30
0.0
 11
146.4068362339
 21
-241.2679265452
 31
0.0
  0
ARC
  5
169
  8
0
  6
CONTINUOUS
 62
     7
 10
146.9068372948
 20
-237.033027978
 30
0.0
 40
0.5000000000000568
 50
90.0
 51
180.0
  0
LINE
  5
16A
  8
0
  6
CONTINUOUS
 62
     7
 10
146.2068402989
 20
-253.0330191565
 30
0.0
 11
146.2068402989
 21
-269.5330153418
 31
0.0
  0
LINE
  5
16B
  8
0
  6
CONTINUOUS
 62
     7
 10
165.006838165
 20
-269.5330153418
 30
0.0
 11
165.006838165
 21
-253.0330191565
 31
0.0
  0
LINE
  5
16C
  8
0
  6
CONTINUOUS
 62
     7
 10
148.6154192908
 20
-250.6830166292
 30
0.0
 11
148.6154192908
 21
-250.1830230665
 31
0.0
  0
LINE
  5
16D
  8
0
  6
CONTINUOUS
 62
     7
 10
147.3654130323
 20
-246.8830417109
 30
0.0
 11
148.6154192908
 21
-250.1830230665
 31
0.0
  0
LINE
  5
16E
  8
0
  6
CONTINUOUS
 62
     7
 10
147.3654130323
 20
-246.3330398512
 30
0.0
 11
147.3654130323
 21
-246.8830417109
 31
0.0
  0
ARC
  5
16F
  8
0
  6
CONTINUOUS
 62
     7
 10
147.6654159386
 20
-246.333027978
 30
0.0
 40
0.2999999999999829
 50
90.0
 51
180.0
  0
LINE
  5
170
  8
0
  6
CONTINUOUS
 62
     7
 10
147.6654181106
 20
-246.0330198717
 30
0.0
 11
148.715413533
 21
-246.0330198717
 31
0.0
  0
LINE
  5
171
  8
0
  6
CONTINUOUS
 62
     7
 10
148.715413533
 20
-246.0330198717
 30
0.0
 11
149.1154128535
 21
-246.4330266428
 31
0.0
  0
LINE
  5
172
  8
0
  6
CONTINUOUS
 62
     7
 10
146.2654167635
 20
-253.0330191565
 30
0.0
 11
148.6154192908
 21
-250.6830166292
 31
0.0
  0
LINE
  5
173
  8
0
  6
CONTINUOUS
 62
     7
 10
162.5982591732
 20
-250.6830166292
 30
0.0
 11
164.9482617004
 21
-253.0330191565
 31
0.0
  0
LINE
  5
174
  8
0
  6
CONTINUOUS
 62
     7
 10
162.4982574804
 20
-246.0330198717
 30
0.0
 11
162.0982581599
 21
-246.4330266428
 31
0.0
  0
LINE
  5
175
  8
0
  6
CONTINUOUS
 62
     7
 10
162.4982574804
 20
-246.0330198717
 30
0.0
 11
163.5482603533
 21
-246.0330198717
 31
0.0
  0
ARC
  5
176
  8
0
  6
CONTINUOUS
 62
     7
 10
163.5482586511
 20
-246.333027978
 30
0.0
 40
0.3000000000000114
 50
0.0
 51
90.0
  0
LINE
  5
177
  8
0
  6
CONTINUOUS
 62
     7
 10
163.8482579811
 20
-246.8830417109
 30
0.0
 11
163.8482579811
 21
-246.3330398512
 31
0.0
  0
LINE
  5
178
  8
0
  6
CONTINUOUS
 62
     7
 10
162.5982591732
 20
-250.1830230665
 30
0.0
 11
163.8482579811
 21
-246.8830417109
 31
0.0
  0
LINE
  5
179
  8
0
  6
CONTINUOUS
 62
     7
 10
162.5982591732
 20
-250.6830166292
 30
0.0
 11
162.5982591732
 21
-250.1830230665
 31
0.0
  0
LINE
  5
17A
  8
0
  6
CONTINUOUS
 62
     7
 10
159.2568376882
 20
-280.0330291701
 30
0.0
 11
159.2568376882
 21
-269.5330153418
 31
0.0
  0
LINE
  5
17B
  8
0
  6
CONTINUOUS
 62
     7
 10
159.2568376882
 20
-280.0330291701
 30
0.0
 11
150.3568360431
 21
-280.0330291701
 31
0.0
  0
LINE
  5
17C
  8
0
  6
CONTINUOUS
 62
     7
 10
150.3568360431
 20
-280.0330291701
 30
0.0
 11
150.3568360431
 21
-269.5330153418
 31
0.0
  0
LINE
  5
17D
  8
0
  6
CONTINUOUS
 62
     7
 10
150.3568360431
 20
-280.0330291701
 30
0.0
 11
149.9568367226
 21
-280.0330291701
 31
0.0
  0
LINE
  5
17E
  8
0
  6
CONTINUOUS
 62
     7
 10
149.9568367226
 20
-280.0330291701
 30
0.0
 11
149.9568367226
 21
-269.5330153418
 31
0.0
  0
LINE
  5
17F
  8
0
  6
CONTINUOUS
 62
     7
 10
159.9604705198
 20
-280.0330291701
 30
0.0
 11
159.9604705198
 21
-269.5330153418
 31
0.0
  0
LINE
  5
180
  8
0
  6
CONTINUOUS
 62
     7
 10
159.9604705198
 20
-280.0330291701
 30
0.0
 11
159.2568376882
 21
-280.0330291701
 31
0.0
  0
LINE
  5
181
  8
0
  6
CONTINUOUS
 62
     7
 10
162.8823498113
 20
-249.4330178213
 30
0.0
 11
162.8823498113
 21
-250.1830230665
 31
0.0
  0
LINE
  5
182
  8
0
  6
CONTINUOUS
 62
     7
 10
162.8823498113
 20
-250.1830230665
 30
0.0
 11
162.5982591732
 21
-250.1830230665
 31
0.0
  0
LINE
  5
183
  8
0
  6
CONTINUOUS
 62
     7
 10
148.6154192908
 20
-250.1830230665
 30
0.0
 11
148.3313286526
 21
-250.1830230665
 31
0.0
  0
LINE
  5
184
  8
0
  6
CONTINUOUS
 62
     7
 10
148.3313286526
 20
-250.1830230665
 30
0.0
 11
148.3313286526
 21
-249.4330178213
 31
0.0
  0
LINE
  5
185
  8
0
  6
CONTINUOUS
 62
     7
 10
148.3313286526
 20
-249.4330178213
 30
0.0
 11
148.0093518121
 21
-249.4330178213
 31
0.0
  0
LINE
  5
186
  8
0
  6
CONTINUOUS
 62
     7
 10
148.0093518121
 20
-249.4330178213
 30
0.0
 11
148.0093518121
 21
-248.5830257845
 31
0.0
  0
LINE
  5
187
  8
0
  6
CONTINUOUS
 62
     7
 10
163.2043192012
 20
-248.5830257845
 30
0.0
 11
163.2043192012
 21
-249.4330178213
 31
0.0
  0
LINE
  5
188
  8
0
  6
CONTINUOUS
 62
     7
 10
163.2043192012
 20
-249.4330178213
 30
0.0
 11
162.8823498113
 21
-249.4330178213
 31
0.0
  0
LINE
  5
189
  8
0
  6
CONTINUOUS
 62
     7
 10
163.5262885911
 20
-247.7330337477
 30
0.0
 11
163.5262885911
 21
-248.5830257845
 31
0.0
  0
LINE
  5
18A
  8
0
  6
CONTINUOUS
 62
     7
 10
163.5262885911
 20
-248.5830257845
 30
0.0
 11
163.2043192012
 21
-248.5830257845
 31
0.0
  0
LINE
  5
18B
  8
0
  6
CONTINUOUS
 62
     7
 10
147.6873824222
 20
-248.5830257845
 30
0.0
 11
147.6873824222
 21
-247.7330337477
 31
0.0
  0
LINE
  5
18C
  8
0
  6
CONTINUOUS
 62
     7
 10
148.0093518121
 20
-248.5830257845
 30
0.0
 11
147.6873824222
 21
-248.5830257845
 31
0.0
  0
LINE
  5
18D
  8
0
  6
CONTINUOUS
 62
     7
 10
147.6873824222
 20
-247.7330337477
 30
0.0
 11
147.3654130323
 21
-247.7330337477
 31
0.0
  0
LINE
  5
18E
  8
0
  6
CONTINUOUS
 62
     7
 10
147.3654130323
 20
-247.7330337477
 30
0.0
 11
147.3654130323
 21
-246.8830417109
 31
0.0
  0
LINE
  5
18F
  8
0
  6
CONTINUOUS
 62
     7
 10
163.8482579811
 20
-246.8830417109
 30
0.0
 11
163.8482579811
 21
-247.7330337477
 31
0.0
  0
LINE
  5
190
  8
0
  6
CONTINUOUS
 62
     7
 10
163.8482579811
 20
-247.7330337477
 30
0.0
 11
163.5262885911
 21
-247.7330337477
 31
0.0
  0
LINE
  5
191
  8
0
  6
CONTINUOUS
 62
     7
 10
164.170227371
 20
-246.3330398512
 30
0.0
 11
164.170227371
 21
-246.8830417109
 31
0.0
  0
ARC
  5
192
  8
0
  6
CONTINUOUS
 62
     7
 10
163.870228348
 20
-246.333027978
 30
0.0
 40
0.3000000000000114
 50
0.0
 51
90.0
  0
LINE
  5
193
  8
0
  6
CONTINUOUS
 62
     7
 10
164.170227371
 20
-246.8830417109
 30
0.0
 11
163.8482579811
 21
-246.8830417109
 31
0.0
  0
LINE
  5
194
  8
0
  6
CONTINUOUS
 62
     7
 10
163.5482603533
 20
-246.0330198717
 30
0.0
 11
163.8702297432
 21
-246.0330198717
 31
0.0
  0
LINE
  5
195
  8
0
  6
CONTINUOUS
 62
     7
 10
147.0434436424
 20
-246.8830417109
 30
0.0
 11
147.0434436424
 21
-246.3330398512
 31
0.0
  0
ARC
  5
196
  8
0
  6
CONTINUOUS
 62
     7
 10
147.3434462416
 20
-246.333027978
 30
0.0
 40
0.3000000000000114
 50
90.0
 51
180.0
  0
LINE
  5
197
  8
0
  6
CONTINUOUS
 62
     7
 10
147.3654130323
 20
-246.8830417109
 30
0.0
 11
147.0434436424
 21
-246.8830417109
 31
0.0
  0
LINE
  5
198
  8
0
  6
CONTINUOUS
 62
     7
 10
147.3434487207
 20
-246.0330198717
 30
0.0
 11
147.6654181106
 21
-246.0330198717
 31
0.0
  0
LINE
  5
199
  8
0
  6
CONTINUOUS
 62
     7
 10
161.1382881029
 20
-280.0330291701
 30
0.0
 11
161.1382881029
 21
-269.5330153418
 31
0.0
  0
LINE
  5
19A
  8
0
  6
CONTINUOUS
 62
     7
 10
161.1382881029
 20
-280.0330291701
 30
0.0
 11
159.9604705198
 21
-280.0330291701
 31
0.0
  0
LINE
  5
19B
  8
0
  6
CONTINUOUS
 62
     7
 10
148.7068379147
 20
-273.9330302191
 30
0.0
 11
146.2068402989
 21
-273.9330302191
 31
0.0
  0
LINE
  5
19C
  8
0
  6
CONTINUOUS
 62
     7
 10
148.7068379147
 20
-269.5330153418
 30
0.0
 11
148.7068379147
 21
-273.9330302191
 31
0.0
  0
LINE
  5
19D
  8
0
  6
CONTINUOUS
 62
     7
 10
146.2068402989
 20
-273.9330302191
 30
0.0
 11
146.2068402989
 21
-269.5330153418
 31
0.0
  0
LINE
  5
19E
  8
0
  6
CONTINUOUS
 62
     7
 10
165.006838165
 20
-273.9330302191
 30
0.0
 11
162.5068405492
 21
-273.9330302191
 31
0.0
  0
LINE
  5
19F
  8
0
  6
CONTINUOUS
 62
     7
 10
162.5068405492
 20
-273.9330302191
 30
0.0
 11
162.5068405492
 21
-269.5330153418
 31
0.0
  0
LINE
  5
1A0
  8
0
  6
CONTINUOUS
 62
     7
 10
165.006838165
 20
-269.5330153418
 30
0.0
 11
165.006838165
 21
-273.9330302191
 31
0.0
  0
LINE
  5
1A1
  8
0
  6
CONTINUOUS
 62
     7
 10
161.2568342907
 20
-280.0330291701
 30
0.0
 11
161.2568342907
 21
-269.5330153418
 31
0.0
  0
LINE
  5
1A2
  8
0
  6
CONTINUOUS
 62
     7
 10
161.2568342907
 20
-280.0330291701
 30
0.0
 11
161.1382881029
 21
-280.0330291701
 31
0.0
  0
LINE
  5
1A3
  8
0
  6
CONTINUOUS
 62
     8
 10
170.306838475
 20
-224.9330352259
 30
0.0
 11
179.3068343623
 21
-224.9330352259
 31
0.0
  0
LINE
  5
1A4
  8
0
  6
CONTINUOUS
 62
     8
 10
178.3068397863
 20
-225.9330223513
 30
0.0
 11
171.3068405015
 21
-225.9330223513
 31
0.0
  0
LINE
  5
1A5
  8
0
  6
CONTINUOUS
 62
     7
 10
374.4447104367
 20
6.9669713068
 30
0.0
 11
374.4447104367
 21
-200.4330228281
 31
0.0
  0
LINE
  5
1A6
  8
0
  6
CONTINUOUS
 62
     7
 10
382.4447108167
 20
-200.4330228281
 30
0.0
 11
382.4447108167
 21
6.9669713068
 31
0.0
  0
LINE
  5
1A7
  8
0
  6
CONTINUOUS
 62
     7
 10
364.9447102765
 20
18.866971581
 30
0.0
 11
364.6447107861
 21
18.866971581
 31
0.0
  0
LINE
  5
1A8
  8
0
  6
CONTINUOUS
 62
     7
 10
364.6447107861
 20
13.0669702577
 30
0.0
 11
364.9447102765
 21
13.0669702577
 31
0.0
  0
LINE
  5
1A9
  8
0
  6
CONTINUOUS
 62
     7
 10
373.1947106974
 20
9.1967549908
 30
0.0
 11
373.1947106974
 21
6.9669713068
 31
0.0
  0
LINE
  5
1AA
  8
0
  6
CONTINUOUS
 62
     7
 10
383.6947105559
 20
6.9669713068
 30
0.0
 11
383.6947105559
 21
9.1913123417
 31
0.0
  0
LINE
  5
1AB
  8
0
  6
CONTINUOUS
 62
     7
 10
364.6447107861
 20
18.6669719207
 30
0.0
 11
362.3447100366
 21
18.6669719207
 31
0.0
  0
LINE
  5
1AC
  8
0
  6
CONTINUOUS
 62
     7
 10
362.3447100366
 20
11.666972636
 30
0.0
 11
364.9447102765
 21
11.666972636
 31
0.0
  0
ARC
  5
1AD
  8
0
  6
CONTINUOUS
 62
     7
 10
361.2447106267
 20
17.366972022
 30
0.0
 40
1.300000000000296
 50
90.0
 51
180.0
  0
LINE
  5
1AE
  8
0
  6
CONTINUOUS
 62
     7
 10
362.3447100366
 20
18.6669719207
 30
0.0
 11
361.2447100425
 21
18.6669719207
 31
0.0
  0
LINE
  5
1AF
  8
0
  6
CONTINUOUS
 62
     7
 10
361.2447100425
 20
11.666972636
 30
0.0
 11
362.3447100366
 21
11.666972636
 31
0.0
  0
ARC
  5
1B0
  8
0
  6
CONTINUOUS
 62
     7
 10
361.2447106267
 20
12.966972022
 30
0.0
 40
1.300000000000296
 50
180.0
 51
270.0
  0
LINE
  5
1B1
  8
0
  6
CONTINUOUS
 62
     7
 10
383.49471043
 20
-271.1330424261
 30
0.0
 11
383.49471043
 21
-261.43304214
 31
0.0
  0
POLYLINE
  5
1B2
  8
0
  6
CONTINUOUS
 62
     7
 66
     1
 10
0.0
 20
0.0
 30
0.0
 70
   128
  0
VERTEX
  5
67F
  8
0
  6
CONTINUOUS
 62
     7
 10
377.0936103504
 20
-260.4330252123
 30
0.0
  0
VERTEX
  5
680
  8
0
  6
CONTINUOUS
 62
     7
 10
377.723376438
 20
-251.9309590769
 30
0.0
  0
VERTEX
  5
681
  8
0
  6
CONTINUOUS
 62
     7
 10
378.5766766344
 20
-240.4330144835
 30
0.0
  0
SEQEND
  5
729
  8
0
  6
CONTINUOUS
 62
     7
  0
POLYLINE
  5
1B3
  8
0
  6
CONTINUOUS
 62
     7
 66
     1
 10
0.0
 20
0.0
 30
0.0
 70
   128
  0
VERTEX
  5
682
  8
0
  6
CONTINUOUS
 62
     7
 10
377.0766766941
 20
-240.4330144835
 30
0.0
  0
VERTEX
  5
683
  8
0
  6
CONTINUOUS
 62
     7
 10
376.3729928727
 20
-249.9350975466
 30
0.0
  0
VERTEX
  5
684
  8
0
  6
CONTINUOUS
 62
     7
 10
375.5940798404
 20
-260.4330252123
 30
0.0
  0
SEQEND
  5
72A
  8
0
  6
CONTINUOUS
 62
     7
  0
POLYLINE
  5
1B4
  8
0
  6
CONTINUOUS
 62
     7
 66
     1
 10
0.0
 20
0.0
 30
0.0
 70
   128
  0
VERTEX
  5
685
  8
0
  6
CONTINUOUS
 62
     7
 10
379.3127445936
 20
-240.4330144835
 30
0.0
  0
VERTEX
  5
686
  8
0
  6
CONTINUOUS
 62
     7
 10
379.4984465897
 20
-249.9350975466
 30
0.0
  0
VERTEX
  5
687
  8
0
  6
CONTINUOUS
 62
     7
 10
379.7007338111
 20
-260.4330252123
 30
0.0
  0
SEQEND
  5
72B
  8
0
  6
CONTINUOUS
 62
     7
  0
POLYLINE
  5
1B5
  8
0
  6
CONTINUOUS
 62
     7
 66
     1
 10
0.0
 20
0.0
 30
0.0
 70
   128
  0
VERTEX
  5
688
  8
0
  6
CONTINUOUS
 62
     7
 10
381.1999022695
 20
-260.4330252123
 30
0.0
  0
VERTEX
  5
689
  8
0
  6
CONTINUOUS
 62
     7
 10
381.0339766754
 20
-251.9309590769
 30
0.0
  0
VERTEX
  5
68A
  8
0
  6
CONTINUOUS
 62
     7
 10
380.8127447231
 20
-240.4330144835
 30
0.0
  0
SEQEND
  5
72C
  8
0
  6
CONTINUOUS
 62
     7
  0
LINE
  5
1B6
  8
0
  6
CONTINUOUS
 62
     7
 10
373.9447108204
 20
-200.4330228281
 30
0.0
 11
373.9447108204
 21
-224.9330352259
 31
0.0
  0
LINE
  5
1B7
  8
0
  6
CONTINUOUS
 62
     7
 10
382.944710433
 20
-224.9330352259
 30
0.0
 11
382.944710433
 21
-200.4330228281
 31
0.0
  0
ARC
  5
1B8
  8
0
  6
CONTINUOUS
 62
     7
 10
374.4447106267
 20
-224.933027978
 30
0.0
 40
0.5
 50
180.0
 51
270.0
  0
ARC
  5
1B9
  8
0
  6
CONTINUOUS
 62
     7
 10
382.4447106267
 20
-224.933027978
 30
0.0
 40
0.5
 50
270.0
 51
0.0
  0
ARC
  5
1BA
  8
0
  6
CONTINUOUS
 62
     7
 10
374.4447106267
 20
-225.933027978
 30
0.0
 40
0.5
 50
0.0
 51
90.0
  0
ARC
  5
1BB
  8
0
  6
CONTINUOUS
 62
     7
 10
382.4447106267
 20
-225.933027978
 30
0.0
 40
0.5
 50
90.0
 51
180.0
  0
LINE
  5
1BC
  8
0
  6
CONTINUOUS
 62
     7
 10
374.9447105186
 20
-225.9330223513
 30
0.0
 11
374.9447105186
 21
-240.4330144835
 31
0.0
  0
LINE
  5
1BD
  8
0
  6
CONTINUOUS
 62
     7
 10
381.9447107347
 20
-240.4330144835
 30
0.0
 11
381.9447107347
 21
-225.9330223513
 31
0.0
  0
POLYLINE
  5
1BE
  8
0
  6
CONTINUOUS
 62
     7
 66
     1
 10
0.0
 20
0.0
 30
0.0
 70
   128
  0
VERTEX
  5
68B
  8
0
  6
CONTINUOUS
 62
     7
 10
375.6952522056
 20
-240.4330144835
 30
0.0
  0
VERTEX
  5
68C
  8
0
  6
CONTINUOUS
 62
     7
 10
375.623413009
 20
-249.9350975466
 30
0.0
  0
VERTEX
  5
68D
  8
0
  6
CONTINUOUS
 62
     7
 10
375.5287298667
 20
-260.4330252123
 30
0.0
  0
SEQEND
  5
72D
  8
0
  6
CONTINUOUS
 62
     7
  0
CIRCLE
  5
1BF
  8
0
  6
CONTINUOUS
 62
     7
 10
378.4447106267
 20
62.466972022
 30
0.0
 40
7.000000000000057
  0
CIRCLE
  5
1C0
  8
0
  6
CONTINUOUS
 62
     7
 10
378.4447106267
 20
62.466972022
 30
0.0
 40
30.00000000000006
  0
CIRCLE
  5
1C1
  8
0
  6
CONTINUOUS
 62
     7
 10
413.4447106267
 20
27.466972022
 30
0.0
 40
3.249999999999943
  0
CIRCLE
  5
1C2
  8
0
  6
CONTINUOUS
 62
     7
 10
413.4447106267
 20
97.466972022
 30
0.0
 40
3.249999999999943
  0
ARC
  5
1C3
  8
0
  6
CONTINUOUS
 62
     7
 10
344.1447106267
 20
96.766972022
 30
0.0
 40
8.199999999999989
 50
90.0
 51
180.0
  0
LINE
  5
1C4
  8
0
  6
CONTINUOUS
 62
     7
 10
344.1447111512
 20
104.9669724691
 30
0.0
 11
412.7447101021
 21
104.9669724691
 31
0.0
  0
ARC
  5
1C5
  8
0
  6
CONTINUOUS
 62
     7
 10
412.7447106267
 20
96.766972022
 30
0.0
 40
8.199999999999989
 50
0.0
 51
90.0
  0
LINE
  5
1C6
  8
0
  6
CONTINUOUS
 62
     7
 10
420.9447110737
 20
28.1669725466
 30
0.0
 11
420.9447110737
 21
96.7669714975
 31
0.0
  0
ARC
  5
1C7
  8
0
  6
CONTINUOUS
 62
     7
 10
412.7447106267
 20
28.166972022
 30
0.0
 40
8.2
 50
270.0
 51
0.0
  0
LINE
  5
1C8
  8
0
  6
CONTINUOUS
 62
     7
 10
344.1447111512
 20
19.966971575
 30
0.0
 11
412.7447101021
 21
19.966971575
 31
0.0
  0
ARC
  5
1C9
  8
0
  6
CONTINUOUS
 62
     7
 10
344.1447106267
 20
28.166972022
 30
0.0
 40
8.2
 50
180.0
 51
270.0
  0
LINE
  5
1CA
  8
0
  6
CONTINUOUS
 62
     7
 10
335.9447101796
 20
28.1669725466
 30
0.0
 11
335.9447101796
 21
96.7669714975
 31
0.0
  0
CIRCLE
  5
1CB
  8
0
  6
CONTINUOUS
 62
     7
 10
343.4447106267
 20
97.466972022
 30
0.0
 40
3.25
  0
CIRCLE
  5
1CC
  8
0
  6
CONTINUOUS
 62
     7
 10
343.4447106267
 20
27.466972022
 30
0.0
 40
3.25
  0
LINE
  5
1CD
  8
0
  6
CONTINUOUS
 62
     7
 10
387.9447103212
 20
15.7238286721
 30
0.0
 11
387.9447103212
 21
19.966971575
 31
0.0
  0
LINE
  5
1CE
  8
0
  6
CONTINUOUS
 62
     7
 10
391.9447109768
 20
19.966971575
 30
0.0
 11
391.9447109768
 21
14.5542253542
 31
0.0
  0
POLYLINE
  5
1CF
  8
0
  6
CONTINUOUS
 62
     7
 66
     1
 10
0.0
 20
0.0
 30
0.0
 70
   128
  0
VERTEX
  5
68E
  8
0
  6
CONTINUOUS
 62
     7
 10
391.9447109768
 20
14.5542253542
 30
0.0
  0
VERTEX
  5
68F
  8
0
  6
CONTINUOUS
 62
     7
 10
391.7067152182
 20
15.162785052
 30
0.0
  0
VERTEX
  5
690
  8
0
  6
CONTINUOUS
 62
     7
 10
390.97786124
 20
15.6113882351
 30
0.0
  0
VERTEX
  5
691
  8
0
  6
CONTINUOUS
 62
     7
 10
389.9312958787
 20
15.8190955209
 30
0.0
  0
VERTEX
  5
692
  8
0
  6
CONTINUOUS
 62
     7
 10
388.7589349145
 20
15.8192929613
 30
0.0
  0
VERTEX
  5
693
  8
0
  6
CONTINUOUS
 62
     7
 10
387.9447103212
 20
15.7238286721
 30
0.0
  0
SEQEND
  5
72E
  8
0
  6
CONTINUOUS
 62
     7
  0
ARC
  5
1D0
  8
0
  6
CONTINUOUS
 62
     7
 10
378.4447106267
 20
68.966972022
 30
0.0
 40
59.99999999999991
 50
256.9971218371
 51
283.0028781629
  0
LINE
  5
1D1
  8
0
  6
CONTINUOUS
 62
     7
 10
364.9447102765
 20
14.5542253542
 30
0.0
 11
364.9447102765
 21
10.5054457474
 31
0.0
  0
POLYLINE
  5
1D2
  8
0
  6
CONTINUOUS
 62
     7
 66
     1
 10
0.0
 20
0.0
 30
0.0
 70
   128
  0
VERTEX
  5
694
  8
0
  6
CONTINUOUS
 62
     7
 10
368.9447109321
 20
15.7238286721
 30
0.0
  0
VERTEX
  5
695
  8
0
  6
CONTINUOUS
 62
     7
 10
367.7307524452
 20
15.8392642426
 30
0.0
  0
VERTEX
  5
696
  8
0
  6
CONTINUOUS
 62
     7
 10
366.6272162194
 20
15.7814030337
 30
0.0
  0
VERTEX
  5
697
  8
0
  6
CONTINUOUS
 62
     7
 10
365.7638746048
 20
15.5541826772
 30
0.0
  0
VERTEX
  5
698
  8
0
  6
CONTINUOUS
 62
     7
 10
365.1853547165
 20
15.1657503831
 30
0.0
  0
VERTEX
  5
699
  8
0
  6
CONTINUOUS
 62
     7
 10
364.9447102765
 20
14.5542253542
 30
0.0
  0
SEQEND
  5
72F
  8
0
  6
CONTINUOUS
 62
     7
  0
ARC
  5
1D3
  8
0
  6
CONTINUOUS
 62
     7
 10
378.4447106267
 20
74.9669459167
 30
0.0
 40
59.99997445876581
 50
260.8898262314
 51
279.1101737686
  0
LINE
  5
1D4
  8
0
  6
CONTINUOUS
 62
     7
 10
391.9447109768
 20
14.5542253542
 30
0.0
 11
391.9447109768
 21
10.5054457474
 31
0.0
  0
LINE
  5
1D5
  8
0
  6
CONTINUOUS
 62
     7
 10
368.9447109321
 20
19.966971575
 30
0.0
 11
368.9447109321
 21
15.7238286721
 31
0.0
  0
LINE
  5
1D6
  8
0
  6
CONTINUOUS
 62
     7
 10
364.9447102765
 20
14.5542253542
 30
0.0
 11
364.9447102765
 21
19.966971575
 31
0.0
  0
LINE
  5
1D7
  8
0
  6
CONTINUOUS
 62
     7
 10
364.6447107861
 20
15.9669709193
 30
0.0
 11
364.6447107861
 21
18.866971581
 31
0.0
  0
LINE
  5
1D8
  8
0
  6
CONTINUOUS
 62
     7
 10
364.6447107861
 20
13.0669702577
 30
0.0
 11
364.6447107861
 21
15.9669709193
 31
0.0
  0
LINE
  5
1D9
  8
0
  6
CONTINUOUS
 62
     7
 10
373.1947106974
 20
6.9669713068
 30
0.0
 11
383.6947105559
 21
6.9669713068
 31
0.0
  0
LINE
  5
1DA
  8
0
  6
CONTINUOUS
 62
     7
 10
362.3447100366
 20
15.1669722783
 30
0.0
 11
362.3447100366
 21
18.6669719207
 31
0.0
  0
LINE
  5
1DB
  8
0
  6
CONTINUOUS
 62
     7
 10
362.3447100366
 20
11.666972636
 30
0.0
 11
362.3447100366
 21
15.1669722783
 31
0.0
  0
LINE
  5
1DC
  8
0
  6
CONTINUOUS
 62
     7
 10
359.9447103882
 20
13.798188864
 30
0.0
 11
359.9447103882
 21
17.3669722664
 31
0.0
  0
POLYLINE
  5
1DD
  8
0
  6
CONTINUOUS
 62
     7
 66
     1
 10
0.0
 20
0.0
 30
0.0
 70
   128
  0
VERTEX
  5
69A
  8
0
  6
CONTINUOUS
 62
     7
 10
361.2447100425
 20
12.8751960385
 30
0.0
  0
VERTEX
  5
69B
  8
0
  6
CONTINUOUS
 62
     7
 10
360.8153163189
 20
12.9269254195
 30
0.0
  0
VERTEX
  5
69C
  8
0
  6
CONTINUOUS
 62
     7
 10
360.434336468
 20
13.076212703
 30
0.0
  0
VERTEX
  5
69D
  8
0
  6
CONTINUOUS
 62
     7
 10
360.144292816
 20
13.3063387859
 30
0.0
  0
VERTEX
  5
69E
  8
0
  6
CONTINUOUS
 62
     7
 10
359.9774705911
 20
13.5919418919
 30
0.0
  0
VERTEX
  5
69F
  8
0
  6
CONTINUOUS
 62
     7
 10
359.9447103882
 20
13.798188864
 30
0.0
  0
SEQEND
  5
730
  8
0
  6
CONTINUOUS
 62
     7
  0
LINE
  5
1DE
  8
0
  6
CONTINUOUS
 62
     7
 10
361.2447100425
 20
12.5216436374
 30
0.0
 11
361.2447100425
 21
12.8751960385
 31
0.0
  0
LINE
  5
1DF
  8
0
  6
CONTINUOUS
 62
     7
 10
359.9447103882
 20
12.9669722903
 30
0.0
 11
359.9447103882
 21
13.4446364629
 31
0.0
  0
POLYLINE
  5
1E0
  8
0
  6
CONTINUOUS
 62
     7
 66
     1
 10
0.0
 20
0.0
 30
0.0
 70
   128
  0
VERTEX
  5
6A0
  8
0
  6
CONTINUOUS
 62
     7
 10
359.9447103882
 20
13.4446364629
 30
0.0
  0
VERTEX
  5
6A1
  8
0
  6
CONTINUOUS
 62
     7
 10
360.0184767241
 20
13.1377284217
 30
0.0
  0
VERTEX
  5
6A2
  8
0
  6
CONTINUOUS
 62
     7
 10
360.2320830072
 20
12.8654544043
 30
0.0
  0
VERTEX
  5
6A3
  8
0
  6
CONTINUOUS
 62
     7
 10
360.5599644328
 20
12.6598705339
 30
0.0
  0
VERTEX
  5
6A4
  8
0
  6
CONTINUOUS
 62
     7
 10
360.9642944033
 20
12.5433397281
 30
0.0
  0
VERTEX
  5
6A5
  8
0
  6
CONTINUOUS
 62
     7
 10
361.2447100425
 20
12.5216436374
 30
0.0
  0
SEQEND
  5
731
  8
0
  6
CONTINUOUS
 62
     7
  0
LINE
  5
1E1
  8
0
  6
CONTINUOUS
 62
     7
 10
359.9447103882
 20
13.798188864
 30
0.0
 11
359.9447103882
 21
13.4446364629
 31
0.0
  0
LINE
  5
1E2
  8
0
  6
CONTINUOUS
 62
     7
 10
373.6447103987
 20
-271.1330424261
 30
0.0
 11
383.2447108547
 21
-271.1330424261
 31
0.0
  0
LINE
  5
1E3
  8
0
  6
CONTINUOUS
 62
     7
 10
373.6447103987
 20
-261.43304214
 30
0.0
 11
373.6447103987
 21
-271.1330424261
 31
0.0
  0
LINE
  5
1E4
  8
0
  6
CONTINUOUS
 62
     7
 10
373.6447103987
 20
-261.43304214
 30
0.0
 11
372.6447107004
 21
-261.43304214
 31
0.0
  0
LINE
  5
1E5
  8
0
  6
CONTINUOUS
 62
     7
 10
372.6447107004
 20
-261.43304214
 30
0.0
 11
372.6447107004
 21
-260.4330252123
 31
0.0
  0
LINE
  5
1E6
  8
0
  6
CONTINUOUS
 62
     7
 10
383.2447108547
 20
-271.1330424261
 30
0.0
 11
383.2447108547
 21
-261.43304214
 31
0.0
  0
LINE
  5
1E7
  8
0
  6
CONTINUOUS
 62
     7
 10
383.2447108547
 20
-261.43304214
 30
0.0
 11
384.2447105529
 21
-261.43304214
 31
0.0
  0
LINE
  5
1E8
  8
0
  6
CONTINUOUS
 62
     7
 10
384.2447105529
 20
-260.4330252123
 30
0.0
 11
372.6447107004
 21
-260.4330252123
 31
0.0
  0
LINE
  5
1E9
  8
0
  6
CONTINUOUS
 62
     7
 10
384.2447105529
 20
-260.4330252123
 30
0.0
 11
384.2447105529
 21
-261.43304214
 31
0.0
  0
LINE
  5
1EA
  8
0
  6
CONTINUOUS
 62
     7
 10
378.9447106504
 20
-271.1330424261
 30
0.0
 11
378.9447106504
 21
-280.0330291701
 31
0.0
  0
LINE
  5
1EB
  8
0
  6
CONTINUOUS
 62
     7
 10
381.5947106308
 20
-271.1330424261
 30
0.0
 11
381.5947106308
 21
-280.0330291701
 31
0.0
  0
LINE
  5
1EC
  8
0
  6
CONTINUOUS
 62
     7
 10
381.5947106308
 20
-280.0330291701
 30
0.0
 11
378.9447106504
 21
-280.0330291701
 31
0.0
  0
LINE
  5
1ED
  8
0
  6
CONTINUOUS
 62
     7
 10
382.3447105209
 20
-280.0330291701
 30
0.0
 11
382.3447105209
 21
-271.1330424261
 31
0.0
  0
LINE
  5
1EE
  8
0
  6
CONTINUOUS
 62
     7
 10
382.3447105209
 20
-280.0330291701
 30
0.0
 11
381.5947106308
 21
-280.0330291701
 31
0.0
  0
LINE
  5
1EF
  8
0
  6
CONTINUOUS
 62
     7
 10
374.7447106255
 20
-271.1330424261
 30
0.0
 11
374.7447106255
 21
-280.0330291701
 31
0.0
  0
LINE
  5
1F0
  8
0
  6
CONTINUOUS
 62
     7
 10
378.1447106124
 20
-280.0330291701
 30
0.0
 11
374.7447106255
 21
-280.0330291701
 31
0.0
  0
LINE
  5
1F1
  8
0
  6
CONTINUOUS
 62
     7
 10
378.1447106124
 20
-271.1330424261
 30
0.0
 11
378.1447106124
 21
-280.0330291701
 31
0.0
  0
LINE
  5
1F2
  8
0
  6
CONTINUOUS
 62
     7
 10
383.49471043
 20
-271.1330424261
 30
0.0
 11
383.2447108547
 21
-271.1330424261
 31
0.0
  0
LINE
  5
1F3
  8
0
  6
CONTINUOUS
 62
     7
 10
373.9447108204
 20
-200.4330228281
 30
0.0
 11
382.944710433
 21
-200.4330228281
 31
0.0
  0
LINE
  5
1F4
  8
0
  6
CONTINUOUS
 62
     7
 10
374.4447104367
 20
-225.4330287886
 30
0.0
 11
382.4447108167
 21
-225.4330287886
 31
0.0
  0
LINE
  5
1F5
  8
0
  6
CONTINUOUS
 62
     7
 10
378.4447106267
 20
-240.4330144835
 30
0.0
 11
374.9447105186
 21
-240.4330144835
 31
0.0
  0
LINE
  5
1F6
  8
0
  6
CONTINUOUS
 62
     7
 10
381.9447107347
 20
-240.4330144835
 30
0.0
 11
378.4447106267
 21
-240.4330144835
 31
0.0
  0
LINE
  5
1F7
  8
0
  6
CONTINUOUS
 62
     7
 10
373.3447104426
 20
-269.8830138159
 30
0.0
 11
370.8447104985
 21
-269.8830138159
 31
0.0
  0
LINE
  5
1F8
  8
0
  6
CONTINUOUS
 62
     7
 10
370.8447104985
 20
-269.8830138159
 30
0.0
 11
370.8447104985
 21
-264.6330367041
 31
0.0
  0
LINE
  5
1F9
  8
0
  6
CONTINUOUS
 62
     7
 10
370.8447104985
 20
-264.6330367041
 30
0.0
 11
370.1447107563
 21
-264.1330133391
 31
0.0
  0
LINE
  5
1FA
  8
0
  6
CONTINUOUS
 62
     7
 10
369.8447103346
 20
-264.1330133391
 30
0.0
 11
370.1447107563
 21
-264.1330133391
 31
0.0
  0
LINE
  5
1FB
  8
0
  6
CONTINUOUS
 62
     7
 10
369.8447103346
 20
-262.633032651
 30
0.0
 11
369.8447103346
 21
-264.1330133391
 31
0.0
  0
LINE
  5
1FC
  8
0
  6
CONTINUOUS
 62
     7
 10
369.8447103346
 20
-262.633032651
 30
0.0
 11
371.7583845103
 21
-262.633032651
 31
0.0
  0
LINE
  5
1FD
  8
0
  6
CONTINUOUS
 62
     7
 10
371.7583845103
 20
-262.633032651
 30
0.0
 11
372.2454718048
 21
-268.2004641009
 31
0.0
  0
ARC
  5
1FE
  8
0
  6
CONTINUOUS
 62
     7
 10
372.4447106267
 20
-268.183027978
 30
0.0
 40
0.2000000000000455
 50
185.0000000001
 51
270.0
  0
LINE
  5
1FF
  8
0
  6
CONTINUOUS
 62
     7
 10
372.4447105745
 20
-268.3830331278
 30
0.0
 11
373.3447104426
 21
-268.3830331278
 31
0.0
  0
ARC
  5
200
  8
0
  6
CONTINUOUS
 62
     7
 10
373.3447106267
 20
-270.183027978
 30
0.0
 40
0.3000000000000114
 50
0.0
 51
90.0
  0
ARC
  5
201
  8
0
  6
CONTINUOUS
 62
     7
 10
373.3447106267
 20
-268.083027978
 30
0.0
 40
0.3000000000000114
 50
270.0
 51
0.0
  0
LINE
  5
202
  8
0
  6
CONTINUOUS
 62
     7
 10
372.1447106185
 20
-274.5642732096
 30
0.0
 11
372.1447106185
 21
-269.8830138159
 31
0.0
  0
LINE
  5
203
  8
0
  6
CONTINUOUS
 62
     7
 10
372.1447106185
 20
-274.5642732096
 30
0.0
 11
373.6447103987
 21
-274.4330237818
 31
0.0
  0
LINE
  5
204
  8
0
  6
CONTINUOUS
 62
     7
 10
373.6447103987
 20
-275.9330342722
 30
0.0
 11
373.6447103987
 21
-274.4330237818
 31
0.0
  0
LINE
  5
205
  8
0
  6
CONTINUOUS
 62
     7
 10
370.8447104985
 20
-277.4330149603
 30
0.0
 11
372.1447106185
 21
-277.4330149603
 31
0.0
  0
LINE
  5
206
  8
0
  6
CONTINUOUS
 62
     7
 10
370.1447107563
 20
-276.7330180121
 30
0.0
 11
370.8447104985
 21
-277.4330149603
 31
0.0
  0
LINE
  5
207
  8
0
  6
CONTINUOUS
 62
     7
 10
370.1447107563
 20
-276.7330180121
 30
0.0
 11
370.1447107563
 21
-264.1330133391
 31
0.0
  0
LINE
  5
208
  8
0
  6
CONTINUOUS
 62
     7
 10
373.6447103987
 20
-275.9330342722
 30
0.0
 11
372.1447106185
 21
-277.4330149603
 31
0.0
  0
LINE
  5
209
  8
0
  6
CONTINUOUS
 62
     7
 10
378.9447106504
 20
-273.9330302191
 30
0.0
 11
378.469710626
 21
-273.9330302191
 31
0.0
  0
LINE
  5
20A
  8
0
  6
CONTINUOUS
 62
     7
 10
378.469710626
 20
-271.1330424261
 30
0.0
 11
378.469710626
 21
-273.9330302191
 31
0.0
  0
LINE
  5
20B
  8
0
  6
CONTINUOUS
 62
     7
 10
378.4197106273
 20
-273.9330302191
 30
0.0
 11
378.4197106273
 21
-271.1330424261
 31
0.0
  0
LINE
  5
20C
  8
0
  6
CONTINUOUS
 62
     7
 10
378.1447106124
 20
-273.9330302191
 30
0.0
 11
378.4197106273
 21
-273.9330302191
 31
0.0
  0
LINE
  5
20D
  8
0
  6
CONTINUOUS
 62
     7
 10
372.3447107444
 20
-268.35624084
 30
0.0
 11
372.3447107444
 21
-253.0330191565
 31
0.0
  0
LINE
  5
20E
  8
0
  6
CONTINUOUS
 62
     7
 10
384.5447105089
 20
-253.0330191565
 30
0.0
 11
381.0554846389
 21
-253.0330191565
 31
0.0
  0
LINE
  5
20F
  8
0
  6
CONTINUOUS
 62
     7
 10
379.5581414564
 20
-253.0330191565
 30
0.0
 11
377.6417440352
 21
-253.0330191565
 31
0.0
  0
LINE
  5
210
  8
0
  6
CONTINUOUS
 62
     7
 10
375.5954721676
 20
-253.0330191565
 30
0.0
 11
372.3447107444
 21
-253.0330191565
 31
0.0
  0
LINE
  5
211
  8
0
  6
CONTINUOUS
 62
     7
 10
383.49471043
 20
-269.5330153418
 30
0.0
 11
384.5447105089
 21
-269.5330153418
 31
0.0
  0
LINE
  5
212
  8
0
  6
CONTINUOUS
 62
     7
 10
384.5447105089
 20
-269.5330153418
 30
0.0
 11
384.5447105089
 21
-253.0330191565
 31
0.0
  0
LINE
  5
213
  8
0
  6
CONTINUOUS
 62
     7
 10
374.4697103942
 20
-250.6830166292
 30
0.0
 11
374.4697103942
 21
-253.0330191565
 31
0.0
  0
LINE
  5
214
  8
0
  6
CONTINUOUS
 62
     7
 10
379.5128588066
 20
-250.6830166292
 30
0.0
 11
377.8159897741
 21
-250.6830166292
 31
0.0
  0
LINE
  5
215
  8
0
  6
CONTINUOUS
 62
     7
 10
375.6166672068
 20
-250.6830166292
 30
0.0
 11
374.4697103942
 21
-250.6830166292
 31
0.0
  0
LINE
  5
216
  8
0
  6
CONTINUOUS
 62
     7
 10
372.3447107444
 20
-245.026714654
 30
0.0
 11
372.3447107444
 21
-241.2679265452
 31
0.0
  0
LINE
  5
217
  8
0
  6
CONTINUOUS
 62
     7
 10
384.5447105089
 20
-245.026714654
 30
0.0
 11
384.5447105089
 21
-241.2679265452
 31
0.0
  0
LINE
  5
218
  8
0
  6
CONTINUOUS
 62
     7
 10
372.3447107444
 20
-236.5330229712
 30
0.0
 11
374.9447105186
 21
-236.5330229712
 31
0.0
  0
LINE
  5
219
  8
0
  6
CONTINUOUS
 62
     7
 10
381.9447107347
 20
-236.5330229712
 30
0.0
 11
384.5447105089
 21
-236.5330229712
 31
0.0
  0
LINE
  5
21A
  8
0
  6
CONTINUOUS
 62
     7
 10
372.3447107444
 20
-237.0330165339
 30
0.0
 11
372.3447107444
 21
-236.5330229712
 31
0.0
  0
LINE
  5
21B
  8
0
  6
CONTINUOUS
 62
     7
 10
384.5447105089
 20
-237.0330165339
 30
0.0
 11
384.5447105089
 21
-236.5330229712
 31
0.0
  0
LINE
  5
21C
  8
0
  6
CONTINUOUS
 62
     7
 10
372.3447107444
 20
-241.2679265452
 30
0.0
 11
372.3447107444
 21
-237.0330165339
 31
0.0
  0
LINE
  5
21D
  8
0
  6
CONTINUOUS
 62
     7
 10
384.5447105089
 20
-241.2679265452
 30
0.0
 11
384.5447105089
 21
-237.0330165339
 31
0.0
  0
LINE
  5
21E
  8
0
  6
CONTINUOUS
 62
     7
 10
375.4197106431
 20
-246.3330398512
 30
0.0
 11
375.4197106431
 21
-246.8830417109
 31
0.0
  0
LINE
  5
21F
  8
0
  6
CONTINUOUS
 62
     7
 10
379.4197106002
 20
-246.8830417109
 30
0.0
 11
379.4197106002
 21
-246.3330398512
 31
0.0
  0
LINE
  5
220
  8
0
  6
CONTINUOUS
 62
     7
 10
375.4197106431
 20
-246.8830417109
 30
0.0
 11
375.64648769
 21
-246.8830417109
 31
0.0
  0
LINE
  5
221
  8
0
  6
CONTINUOUS
 62
     7
 10
378.098000507
 20
-246.8830417109
 30
0.0
 11
379.4197106002
 21
-246.8830417109
 31
0.0
  0
LINE
  5
222
  8
0
  6
CONTINUOUS
 62
     7
 10
375.4197106431
 20
-246.0330198717
 30
0.0
 11
375.4197106431
 21
-246.3330398512
 31
0.0
  0
LINE
  5
223
  8
0
  6
CONTINUOUS
 62
     7
 10
375.4197106431
 20
-246.0330198717
 30
0.0
 11
375.6529140486
 21
-246.0330198717
 31
0.0
  0
LINE
  5
224
  8
0
  6
CONTINUOUS
 62
     7
 10
378.1610818663
 20
-246.0330198717
 30
0.0
 11
379.4197106002
 21
-246.0330198717
 31
0.0
  0
LINE
  5
225
  8
0
  6
CONTINUOUS
 62
     7
 10
379.4197106002
 20
-246.3330398512
 30
0.0
 11
379.4197106002
 21
-246.0330198717
 31
0.0
  0
LINE
  5
226
  8
0
  6
CONTINUOUS
 62
     7
 10
381.0166994775
 20
-251.0330151034
 30
0.0
 11
384.5447105089
 21
-251.0330151034
 31
0.0
  0
LINE
  5
227
  8
0
  6
CONTINUOUS
 62
     7
 10
384.5447105089
 20
-253.0330191565
 30
0.0
 11
384.5447105089
 21
-251.0330151034
 31
0.0
  0
LINE
  5
228
  8
0
  6
CONTINUOUS
 62
     7
 10
372.3447107444
 20
-251.0330151034
 30
0.0
 11
374.4697103942
 21
-251.0330151034
 31
0.0
  0
LINE
  5
229
  8
0
  6
CONTINUOUS
 62
     7
 10
372.3447107444
 20
-253.0330191565
 30
0.0
 11
372.3447107444
 21
-251.0330151034
 31
0.0
  0
LINE
  5
22A
  8
0
  6
CONTINUOUS
 62
     7
 10
379.4197106002
 20
-246.0330198717
 30
0.0
 11
379.4221872198
 21
-246.0330198717
 31
0.0
  0
LINE
  5
22B
  8
0
  6
CONTINUOUS
 62
     7
 10
379.4387991041
 20
-246.8830417109
 30
0.0
 11
379.4197106002
 21
-246.8830417109
 31
0.0
  0
LINE
  5
22C
  8
0
  6
CONTINUOUS
 62
     7
 10
375.4197106431
 20
-246.8830417109
 30
0.0
 11
375.4197106431
 21
-247.7330337477
 31
0.0
  0
LINE
  5
22D
  8
0
  6
CONTINUOUS
 62
     7
 10
379.4197106002
 20
-247.7330337477
 30
0.0
 11
379.4197106002
 21
-246.8830417109
 31
0.0
  0
LINE
  5
22E
  8
0
  6
CONTINUOUS
 62
     7
 10
375.4197106431
 20
-247.7330337477
 30
0.0
 11
375.6400615642
 21
-247.7330337477
 31
0.0
  0
LINE
  5
22F
  8
0
  6
CONTINUOUS
 62
     7
 10
378.0349191769
 20
-247.7330337477
 30
0.0
 11
379.4197106002
 21
-247.7330337477
 31
0.0
  0
LINE
  5
230
  8
0
  6
CONTINUOUS
 62
     7
 10
374.4697103942
 20
-246.3330398512
 30
0.0
 11
375.4197106431
 21
-246.3330398512
 31
0.0
  0
LINE
  5
231
  8
0
  6
CONTINUOUS
 62
     7
 10
375.4197106431
 20
-246.0330198717
 30
0.0
 11
374.4697103942
 21
-246.0330198717
 31
0.0
  0
LINE
  5
232
  8
0
  6
CONTINUOUS
 62
     7
 10
374.4697103942
 20
-246.3330398512
 30
0.0
 11
374.4697103942
 21
-246.0330198717
 31
0.0
  0
LINE
  5
233
  8
0
  6
CONTINUOUS
 62
     7
 10
379.5032241581
 20
-250.1830230665
 30
0.0
 11
379.4197106002
 21
-250.1830230665
 31
0.0
  0
LINE
  5
234
  8
0
  6
CONTINUOUS
 62
     7
 10
375.4197106431
 20
-246.8830417109
 30
0.0
 11
374.4697103942
 21
-246.8830417109
 31
0.0
  0
LINE
  5
235
  8
0
  6
CONTINUOUS
 62
     7
 10
374.4697103942
 20
-246.8830417109
 30
0.0
 11
374.4697103942
 21
-246.3330398512
 31
0.0
  0
LINE
  5
236
  8
0
  6
CONTINUOUS
 62
     7
 10
375.4197106431
 20
-250.1830230665
 30
0.0
 11
374.4697103942
 21
-250.1830230665
 31
0.0
  0
LINE
  5
237
  8
0
  6
CONTINUOUS
 62
     7
 10
374.4697103942
 20
-250.1830230665
 30
0.0
 11
374.4697103942
 21
-246.8830417109
 31
0.0
  0
LINE
  5
238
  8
0
  6
CONTINUOUS
 62
     7
 10
375.4197106431
 20
-247.7330337477
 30
0.0
 11
375.4197106431
 21
-248.5830257845
 31
0.0
  0
LINE
  5
239
  8
0
  6
CONTINUOUS
 62
     7
 10
379.4197106002
 20
-248.5830257845
 30
0.0
 11
379.4197106002
 21
-247.7330337477
 31
0.0
  0
LINE
  5
23A
  8
0
  6
CONTINUOUS
 62
     7
 10
379.4197106002
 20
-248.5830257845
 30
0.0
 11
377.9718378176
 21
-248.5830257845
 31
0.0
  0
LINE
  5
23B
  8
0
  6
CONTINUOUS
 62
     7
 10
375.6336352056
 20
-248.5830257845
 30
0.0
 11
375.4197106431
 21
-248.5830257845
 31
0.0
  0
LINE
  5
23C
  8
0
  6
CONTINUOUS
 62
     7
 10
375.4197106431
 20
-248.5830257845
 30
0.0
 11
375.4197106431
 21
-249.4330178213
 31
0.0
  0
LINE
  5
23D
  8
0
  6
CONTINUOUS
 62
     7
 10
379.4197106002
 20
-249.4330178213
 30
0.0
 11
379.4197106002
 21
-248.5830257845
 31
0.0
  0
LINE
  5
23E
  8
0
  6
CONTINUOUS
 62
     7
 10
379.4197106002
 20
-249.4330178213
 30
0.0
 11
377.9087564875
 21
-249.4330178213
 31
0.0
  0
LINE
  5
23F
  8
0
  6
CONTINUOUS
 62
     7
 10
375.627208847
 20
-249.4330178213
 30
0.0
 11
375.4197106431
 21
-249.4330178213
 31
0.0
  0
LINE
  5
240
  8
0
  6
CONTINUOUS
 62
     7
 10
372.3447107444
 20
-245.908982606
 30
0.0
 11
375.6538518904
 21
-245.908982606
 31
0.0
  0
LINE
  5
241
  8
0
  6
CONTINUOUS
 62
     7
 10
378.1702883101
 20
-245.908982606
 30
0.0
 11
379.4197628707
 21
-245.908982606
 31
0.0
  0
LINE
  5
242
  8
0
  6
CONTINUOUS
 62
     7
 10
380.9181075743
 20
-245.908982606
 30
0.0
 11
384.5447105089
 21
-245.908982606
 31
0.0
  0
LINE
  5
243
  8
0
  6
CONTINUOUS
 62
     7
 10
372.3447107444
 20
-245.908982606
 30
0.0
 11
372.3447107444
 21
-245.026714654
 31
0.0
  0
LINE
  5
244
  8
0
  6
CONTINUOUS
 62
     7
 10
384.5447105089
 20
-245.908982606
 30
0.0
 11
384.5447105089
 21
-245.026714654
 31
0.0
  0
LINE
  5
245
  8
0
  6
CONTINUOUS
 62
     7
 10
375.4197106431
 20
-249.4330178213
 30
0.0
 11
375.4197106431
 21
-250.1830230665
 31
0.0
  0
LINE
  5
246
  8
0
  6
CONTINUOUS
 62
     7
 10
379.4197106002
 20
-250.1830230665
 30
0.0
 11
377.8530964595
 21
-250.1830230665
 31
0.0
  0
LINE
  5
247
  8
0
  6
CONTINUOUS
 62
     7
 10
375.6211769035
 20
-250.1830230665
 30
0.0
 11
375.4197106431
 21
-250.1830230665
 31
0.0
  0
LINE
  5
248
  8
0
  6
CONTINUOUS
 62
     7
 10
379.4197106002
 20
-249.4330178213
 30
0.0
 11
379.4197106002
 21
-250.1830230665
 31
0.0
  0
LINE
  5
249
  8
0
  6
CONTINUOUS
 62
     7
 10
374.4697103942
 20
-250.6830166292
 30
0.0
 11
374.4697103942
 21
-250.1830230665
 31
0.0
  0
LINE
  5
24A
  8
0
  6
CONTINUOUS
 62
     7
 10
372.3447107444
 20
-251.0330151034
 30
0.0
 11
372.3447107444
 21
-245.908982606
 31
0.0
  0
LINE
  5
24B
  8
0
  6
CONTINUOUS
 62
     7
 10
384.5447105089
 20
-251.0330151034
 30
0.0
 11
384.5447105089
 21
-245.908982606
 31
0.0
  0
LINE
  5
24C
  8
0
  6
CONTINUOUS
 62
     7
 10
378.9447106504
 20
-280.0330291701
 30
0.0
 11
378.1447106124
 21
-280.0330291701
 31
0.0
  0
LINE
  5
24D
  8
0
  6
CONTINUOUS
 62
     8
 10
361.2447100425
 20
18.6669719207
 30
0.0
 11
361.2447100425
 21
12.8751960385
 31
0.0
  0
LINE
  5
24E
  8
0
  6
CONTINUOUS
 62
     8
 10
361.2447100425
 20
12.5216436374
 30
0.0
 11
361.2447100425
 21
11.666972636
 31
0.0
  0
LINE
  5
24F
  8
0
  6
CONTINUOUS
 62
     8
 10
373.9447108204
 20
-224.9330352259
 30
0.0
 11
382.944710433
 21
-224.9330352259
 31
0.0
  0
LINE
  5
250
  8
0
  6
CONTINUOUS
 62
     8
 10
381.9447107347
 20
-225.9330223513
 30
0.0
 11
374.9447105186
 21
-225.9330223513
 31
0.0
  0
LINE
  5
251
  8
0
  6
CONTINUOUS
 62
     8
 10
384.5447105089
 20
-241.2679265452
 30
0.0
 11
380.8288088734
 21
-241.2679265452
 31
0.0
  0
LINE
  5
252
  8
0
  6
CONTINUOUS
 62
     8
 10
379.3290613069
 20
-241.2679265452
 30
0.0
 11
378.5147160418
 21
-241.2679265452
 31
0.0
  0
LINE
  5
253
  8
0
  6
CONTINUOUS
 62
     8
 10
375.6889399341
 20
-241.2679265452
 30
0.0
 11
372.3447107444
 21
-241.2679265452
 31
0.0
  0
LINE
  5
254
  8
0
  6
CONTINUOUS
 62
     8
 10
372.3447107444
 20
-245.026714654
 30
0.0
 11
375.6605222555
 21
-245.026714654
 31
0.0
  0
LINE
  5
255
  8
0
  6
CONTINUOUS
 62
     8
 10
378.2357632266
 20
-245.026714654
 30
0.0
 11
379.4025207138
 21
-245.026714654
 31
0.0
  0
LINE
  5
256
  8
0
  6
CONTINUOUS
 62
     8
 10
380.9011321249
 20
-245.026714654
 30
0.0
 11
384.5447105089
 21
-245.026714654
 31
0.0
  0
LINE
  5
257
  8
0
  6
CONTINUOUS
 62
     8
 10
384.5447105089
 20
-237.0330165339
 30
0.0
 11
381.9447107347
 21
-237.0330165339
 31
0.0
  0
LINE
  5
258
  8
0
  6
CONTINUOUS
 62
     8
 10
374.9447105186
 20
-237.0330165339
 30
0.0
 11
372.3447107444
 21
-237.0330165339
 31
0.0
  0
LINE
  5
259
  8
0
  6
CONTINUOUS
 62
     8
 10
375.4197106431
 20
-246.3330398512
 30
0.0
 11
375.6506460453
 21
-246.3330398512
 31
0.0
  0
LINE
  5
25A
  8
0
  6
CONTINUOUS
 62
     8
 10
378.1388178434
 20
-246.3330398512
 30
0.0
 11
379.4197106002
 21
-246.3330398512
 31
0.0
  0
LINE
  5
25B
  8
0
  6
CONTINUOUS
 62
     8
 10
379.4197106002
 20
-246.3330398512
 30
0.0
 11
379.4280502446
 21
-246.3330398512
 31
0.0
  0
LINE
  5
25C
  8
0
  6
CONTINUOUS
 62
     7
 10
66.4934102465
 20
6.9669713068
 30
0.0
 11
66.4934102465
 21
-200.4330228281
 31
0.0
  0
LINE
  5
25D
  8
0
  6
CONTINUOUS
 62
     7
 10
74.4934106265
 20
-200.4330228281
 30
0.0
 11
74.4934106265
 21
6.9669713068
 31
0.0
  0
LINE
  5
25E
  8
0
  6
CONTINUOUS
 62
     7
 10
67.4934104104
 20
6.9669713068
 30
0.0
 11
67.4934104104
 21
-236.5330229712
 31
0.0
  0
LINE
  5
25F
  8
0
  6
CONTINUOUS
 62
     7
 10
73.4934104626
 20
-236.5330229712
 30
0.0
 11
73.4934104626
 21
6.9669713068
 31
0.0
  0
LINE
  5
260
  8
0
  6
CONTINUOUS
 62
     7
 10
83.9934107867
 20
11.666972636
 30
0.0
 11
86.5934110266
 21
11.666972636
 31
0.0
  0
LINE
  5
261
  8
0
  6
CONTINUOUS
 62
     7
 10
86.5934110266
 20
18.6669719207
 30
0.0
 11
83.9934107867
 21
18.6669719207
 31
0.0
  0
LINE
  5
262
  8
0
  6
CONTINUOUS
 62
     7
 10
65.2434105073
 20
9.1913123417
 30
0.0
 11
65.2434105073
 21
6.9669713068
 31
0.0
  0
LINE
  5
263
  8
0
  6
CONTINUOUS
 62
     7
 10
75.7434103657
 20
6.9669713068
 30
0.0
 11
75.7434103657
 21
9.1967549908
 31
0.0
  0
LINE
  5
264
  8
0
  6
CONTINUOUS
 62
     7
 10
84.293410277
 20
18.866971581
 30
0.0
 11
83.9934107867
 21
18.866971581
 31
0.0
  0
ARC
  5
265
  8
0
  6
CONTINUOUS
 62
     7
 10
87.6934104365
 20
12.966972022
 30
0.0
 40
1.300000000000253
 50
270.0
 51
0.0
  0
LINE
  5
266
  8
0
  6
CONTINUOUS
 62
     7
 10
86.5934110266
 20
11.666972636
 30
0.0
 11
87.6934110206
 21
11.666972636
 31
0.0
  0
LINE
  5
267
  8
0
  6
CONTINUOUS
 62
     7
 10
87.6934110206
 20
18.6669719207
 30
0.0
 11
86.5934110266
 21
18.6669719207
 31
0.0
  0
ARC
  5
268
  8
0
  6
CONTINUOUS
 62
     7
 10
87.6934104365
 20
17.366972022
 30
0.0
 40
1.300000000000253
 50
0.0
 51
90.0
  0
ARC
  5
269
  8
0
  6
CONTINUOUS
 62
     7
 10
66.4934104365
 20
-224.933027978
 30
0.0
 40
0.5
 50
180.0
 51
270.0
  0
ARC
  5
26A
  8
0
  6
CONTINUOUS
 62
     7
 10
74.4934104365
 20
-224.933027978
 30
0.0
 40
0.5
 50
270.0
 51
0.0
  0
LINE
  5
26B
  8
0
  6
CONTINUOUS
 62
     7
 10
65.9934106302
 20
-200.4330228281
 30
0.0
 11
65.9934106302
 21
-224.9330352259
 31
0.0
  0
LINE
  5
26C
  8
0
  6
CONTINUOUS
 62
     7
 10
74.9934102428
 20
-224.9330352259
 30
0.0
 11
74.9934102428
 21
-200.4330228281
 31
0.0
  0
ARC
  5
26D
  8
0
  6
CONTINUOUS
 62
     7
 10
66.4934104365
 20
-225.933027978
 30
0.0
 40
0.5
 50
0.0
 51
90.0
  0
ARC
  5
26E
  8
0
  6
CONTINUOUS
 62
     7
 10
74.4934104365
 20
-225.933027978
 30
0.0
 40
0.5
 50
90.0
 51
180.0
  0
LINE
  5
26F
  8
0
  6
CONTINUOUS
 62
     7
 10
65.4434106332
 20
-269.5330153418
 30
0.0
 11
65.4434106332
 21
-271.1330424261
 31
0.0
  0
LINE
  5
270
  8
0
  6
CONTINUOUS
 62
     7
 10
66.9934103284
 20
-225.9330223513
 30
0.0
 11
66.9934103284
 21
-236.5330229712
 31
0.0
  0
LINE
  5
271
  8
0
  6
CONTINUOUS
 62
     7
 10
73.9934105445
 20
-236.5330229712
 30
0.0
 11
73.9934105445
 21
-225.9330223513
 31
0.0
  0
LINE
  5
272
  8
0
  6
CONTINUOUS
 62
     7
 10
65.4934105482
 20
9.1704134631
 30
0.0
 11
65.4934105482
 21
6.9669713068
 31
0.0
  0
LINE
  5
273
  8
0
  6
CONTINUOUS
 62
     7
 10
75.4934103247
 20
6.9669713068
 30
0.0
 11
75.4934103247
 21
9.1753159451
 31
0.0
  0
CIRCLE
  5
274
  8
0
  6
CONTINUOUS
 62
     7
 10
105.4934104365
 20
97.466972022
 30
0.0
 40
3.25
  0
ARC
  5
275
  8
0
  6
CONTINUOUS
 62
     7
 10
104.7934104365
 20
96.766972022
 30
0.0
 40
8.200000000000017
 50
0.0
 51
90.0
  0
LINE
  5
276
  8
0
  6
CONTINUOUS
 62
     7
 10
98.9934104514
 20
104.9669724691
 30
0.0
 11
104.793409912
 21
104.9669724691
 31
0.0
  0
LINE
  5
277
  8
0
  6
CONTINUOUS
 62
     7
 10
112.9934108835
 20
96.7669714975
 30
0.0
 11
112.9934108835
 21
90.9669720369
 31
0.0
  0
CIRCLE
  5
278
  8
0
  6
CONTINUOUS
 62
     7
 10
35.4934104365
 20
27.466972022
 30
0.0
 40
3.250000000000007
  0
ARC
  5
279
  8
0
  6
CONTINUOUS
 62
     7
 10
36.1934104365
 20
28.166972022
 30
0.0
 40
8.200000000000014
 50
180.0
 51
270.0
  0
LINE
  5
27A
  8
0
  6
CONTINUOUS
 62
     7
 10
27.9934099894
 20
28.1669725466
 30
0.0
 11
27.9934099894
 21
33.9669720071
 31
0.0
  0
LINE
  5
27B
  8
0
  6
CONTINUOUS
 62
     7
 10
41.9934104216
 20
19.966971575
 30
0.0
 11
36.193410961
 21
19.966971575
 31
0.0
  0
ARC
  5
27C
  8
0
  6
CONTINUOUS
 62
     7
 10
104.7934104365
 20
28.166972022
 30
0.0
 40
8.200000000000017
 50
270.0
 51
0.0
  0
CIRCLE
  5
27D
  8
0
  6
CONTINUOUS
 62
     7
 10
105.4934104365
 20
27.466972022
 30
0.0
 40
3.25
  0
LINE
  5
27E
  8
0
  6
CONTINUOUS
 62
     7
 10
98.9934104514
 20
19.966971575
 30
0.0
 11
104.793409912
 21
19.966971575
 31
0.0
  0
LINE
  5
27F
  8
0
  6
CONTINUOUS
 62
     7
 10
112.9934108835
 20
28.1669725466
 30
0.0
 11
112.9934108835
 21
33.9669720071
 31
0.0
  0
ARC
  5
280
  8
0
  6
CONTINUOUS
 62
     7
 10
36.1934104365
 20
96.766972022
 30
0.0
 40
8.200000000000017
 50
90.0
 51
180.0
  0
CIRCLE
  5
281
  8
0
  6
CONTINUOUS
 62
     7
 10
35.4934104365
 20
97.466972022
 30
0.0
 40
3.250000000000007
  0
LINE
  5
282
  8
0
  6
CONTINUOUS
 62
     7
 10
27.9934099894
 20
96.7669714975
 30
0.0
 11
27.9934099894
 21
90.9669720369
 31
0.0
  0
LINE
  5
283
  8
0
  6
CONTINUOUS
 62
     7
 10
41.9934104216
 20
104.9669724691
 30
0.0
 11
36.193410961
 21
104.9669724691
 31
0.0
  0
ARC
  5
284
  8
0
  6
CONTINUOUS
 62
     7
 10
70.4934104365
 20
62.466972022
 30
0.0
 40
37.49999999999996
 50
290.6913327582
 51
249.3086672418
  0
ARC
  5
285
  8
0
  6
CONTINUOUS
 62
     7
 10
70.4934104365
 20
62.466972022
 30
0.0
 40
40.96410161513775
 50
288.8719335987
 51
251.1280664013
  0
LINE
  5
286
  8
0
  6
CONTINUOUS
 62
     7
 10
57.2434105929
 20
19.966971575
 30
0.0
 11
57.2434105929
 21
27.3858164239
 31
0.0
  0
LINE
  5
287
  8
0
  6
CONTINUOUS
 62
     7
 10
57.2434105929
 20
19.966971575
 30
0.0
 11
83.74341028
 21
19.966971575
 31
0.0
  0
LINE
  5
288
  8
0
  6
CONTINUOUS
 62
     7
 10
83.74341028
 20
19.966971575
 30
0.0
 11
83.74341028
 21
27.3858164239
 31
0.0
  0
LINE
  5
289
  8
0
  6
CONTINUOUS
 62
     7
 10
41.9934104216
 20
27.466971873
 30
0.0
 11
41.9934104216
 21
19.966971575
 31
0.0
  0
ARC
  5
28A
  8
0
  6
CONTINUOUS
 62
     7
 10
35.4934093901
 20
27.4669709757
 30
0.0
 40
6.500001031461819
 50
0.0000079099
 51
89.9999920901
  0
LINE
  5
28B
  8
0
  6
CONTINUOUS
 62
     7
 10
27.9934099894
 20
33.9669720071
 30
0.0
 11
35.4934102875
 21
33.9669720071
 31
0.0
  0
LINE
  5
28C
  8
0
  6
CONTINUOUS
 62
     7
 10
27.9934099894
 20
90.9669720369
 30
0.0
 11
27.9934099894
 21
33.9669720071
 31
0.0
  0
LINE
  5
28D
  8
0
  6
CONTINUOUS
 62
     7
 10
35.4934102875
 20
90.9669720369
 30
0.0
 11
27.9934099894
 21
90.9669720369
 31
0.0
  0
ARC
  5
28E
  8
0
  6
CONTINUOUS
 62
     7
 10
35.4934093901
 20
97.4669730684
 30
0.0
 40
6.500001031461826
 50
270.0000079099
 51
359.9999920901
  0
LINE
  5
28F
  8
0
  6
CONTINUOUS
 62
     7
 10
41.9934104216
 20
104.9669724691
 30
0.0
 11
41.9934104216
 21
97.466972171
 31
0.0
  0
LINE
  5
290
  8
0
  6
CONTINUOUS
 62
     7
 10
98.9934104514
 20
104.9669724691
 30
0.0
 11
41.9934104216
 21
104.9669724691
 31
0.0
  0
LINE
  5
291
  8
0
  6
CONTINUOUS
 62
     7
 10
98.9934104514
 20
97.466972171
 30
0.0
 11
98.9934104514
 21
104.9669724691
 31
0.0
  0
ARC
  5
292
  8
0
  6
CONTINUOUS
 62
     7
 10
105.4934114828
 20
97.4669730684
 30
0.0
 40
6.500001031461826
 50
180.0000079099
 51
269.9999920901
  0
LINE
  5
293
  8
0
  6
CONTINUOUS
 62
     7
 10
112.9934108835
 20
90.9669720369
 30
0.0
 11
105.4934105855
 21
90.9669720369
 31
0.0
  0
LINE
  5
294
  8
0
  6
CONTINUOUS
 62
     7
 10
112.9934108835
 20
90.9669720369
 30
0.0
 11
112.9934108835
 21
33.9669720071
 31
0.0
  0
LINE
  5
295
  8
0
  6
CONTINUOUS
 62
     7
 10
105.4934105855
 20
33.9669720071
 30
0.0
 11
112.9934108835
 21
33.9669720071
 31
0.0
  0
ARC
  5
296
  8
0
  6
CONTINUOUS
 62
     7
 10
105.4934114828
 20
27.4669709757
 30
0.0
 40
6.500001031461815
 50
90.0000079099
 51
179.9999920901
  0
LINE
  5
297
  8
0
  6
CONTINUOUS
 62
     7
 10
98.9934104514
 20
19.966971575
 30
0.0
 11
98.9934104514
 21
27.466971873
 31
0.0
  0
LINE
  5
298
  8
0
  6
CONTINUOUS
 62
     7
 10
83.74341028
 20
19.966971575
 30
0.0
 11
98.9934104514
 21
19.966971575
 31
0.0
  0
LINE
  5
299
  8
0
  6
CONTINUOUS
 62
     7
 10
41.9934104216
 20
19.966971575
 30
0.0
 11
57.2434105929
 21
19.966971575
 31
0.0
  0
LINE
  5
29A
  8
0
  6
CONTINUOUS
 62
     7
 10
56.9934100863
 20
10.5054457474
 30
0.0
 11
57.4934101683
 21
10.3922341752
 31
0.0
  0
LINE
  5
29B
  8
0
  6
CONTINUOUS
 62
     7
 10
83.4934107047
 20
10.3922341752
 30
0.0
 11
83.9934107867
 21
10.5054457474
 31
0.0
  0
LINE
  5
29C
  8
0
  6
CONTINUOUS
 62
     7
 10
56.9934100863
 20
10.5054457474
 30
0.0
 11
56.9934100863
 21
19.966971575
 31
0.0
  0
LINE
  5
29D
  8
0
  6
CONTINUOUS
 62
     7
 10
83.9934107867
 20
10.5054457474
 30
0.0
 11
83.9934107867
 21
19.966971575
 31
0.0
  0
LINE
  5
29E
  8
0
  6
CONTINUOUS
 62
     7
 10
86.5934110266
 20
18.6669719207
 30
0.0
 11
86.5934110266
 21
11.666972636
 31
0.0
  0
LINE
  5
29F
  8
0
  6
CONTINUOUS
 62
     7
 10
75.4934103247
 20
6.9669713068
 30
0.0
 11
75.7434103657
 21
6.9669713068
 31
0.0
  0
LINE
  5
2A0
  8
0
  6
CONTINUOUS
 62
     7
 10
65.2434105073
 20
6.9669713068
 30
0.0
 11
65.4934105482
 21
6.9669713068
 31
0.0
  0
LINE
  5
2A1
  8
0
  6
CONTINUOUS
 62
     7
 10
84.293410277
 20
18.866971581
 30
0.0
 11
84.293410277
 21
18.6669719207
 31
0.0
  0
LINE
  5
2A2
  8
0
  6
CONTINUOUS
 62
     7
 10
88.9934106749
 20
16.5357519674
 30
0.0
 11
88.9934106749
 21
12.9669722903
 31
0.0
  0
POLYLINE
  5
2A3
  8
0
  6
CONTINUOUS
 62
     7
 66
     1
 10
0.0
 20
0.0
 30
0.0
 70
   128
  0
VERTEX
  5
6A6
  8
0
  6
CONTINUOUS
 62
     7
 10
87.6934110206
 20
17.4587485182
 30
0.0
  0
VERTEX
  5
6A7
  8
0
  6
CONTINUOUS
 62
     7
 10
88.1228047442
 20
17.4070191371
 30
0.0
  0
VERTEX
  5
6A8
  8
0
  6
CONTINUOUS
 62
     7
 10
88.5037845951
 20
17.2577318537
 30
0.0
  0
VERTEX
  5
6A9
  8
0
  6
CONTINUOUS
 62
     7
 10
88.7938282472
 20
17.0276057708
 30
0.0
  0
VERTEX
  5
6AA
  8
0
  6
CONTINUOUS
 62
     7
 10
88.960650472
 20
16.7419989395
 30
0.0
  0
VERTEX
  5
6AB
  8
0
  6
CONTINUOUS
 62
     7
 10
88.9934106749
 20
16.5357519674
 30
0.0
  0
SEQEND
  5
732
  8
0
  6
CONTINUOUS
 62
     7
  0
LINE
  5
2A4
  8
0
  6
CONTINUOUS
 62
     7
 10
87.6934110206
 20
17.8123009193
 30
0.0
 11
87.6934110206
 21
17.4587485182
 31
0.0
  0
LINE
  5
2A5
  8
0
  6
CONTINUOUS
 62
     7
 10
88.9934106749
 20
17.3669722664
 30
0.0
 11
88.9934106749
 21
16.8893080938
 31
0.0
  0
POLYLINE
  5
2A6
  8
0
  6
CONTINUOUS
 62
     7
 66
     1
 10
0.0
 20
0.0
 30
0.0
 70
   128
  0
VERTEX
  5
6AC
  8
0
  6
CONTINUOUS
 62
     7
 10
88.9934106749
 20
16.8893080938
 30
0.0
  0
VERTEX
  5
6AD
  8
0
  6
CONTINUOUS
 62
     7
 10
88.919644339
 20
17.196216135
 30
0.0
  0
VERTEX
  5
6AE
  8
0
  6
CONTINUOUS
 62
     7
 10
88.706038056
 20
17.4684901523
 30
0.0
  0
VERTEX
  5
6AF
  8
0
  6
CONTINUOUS
 62
     7
 10
88.3781566304
 20
17.6740740227
 30
0.0
  0
VERTEX
  5
6B0
  8
0
  6
CONTINUOUS
 62
     7
 10
87.9738266599
 20
17.7906048286
 30
0.0
  0
VERTEX
  5
6B1
  8
0
  6
CONTINUOUS
 62
     7
 10
87.6934110206
 20
17.8123009193
 30
0.0
  0
SEQEND
  5
733
  8
0
  6
CONTINUOUS
 62
     7
  0
LINE
  5
2A7
  8
0
  6
CONTINUOUS
 62
     7
 10
88.9934106749
 20
16.8893080938
 30
0.0
 11
88.9934106749
 21
16.5357519674
 31
0.0
  0
LINE
  5
2A8
  8
0
  6
CONTINUOUS
 62
     7
 10
75.2934106645
 20
-269.5330153418
 30
0.0
 11
75.2934106645
 21
-271.1330424261
 31
0.0
  0
LINE
  5
2A9
  8
0
  6
CONTINUOUS
 62
     7
 10
75.2934106645
 20
-271.1330424261
 30
0.0
 11
73.5934105255
 21
-271.1330424261
 31
0.0
  0
LINE
  5
2AA
  8
0
  6
CONTINUOUS
 62
     7
 10
67.3934103474
 20
-271.1330424261
 30
0.0
 11
65.6934102085
 21
-271.1330424261
 31
0.0
  0
LINE
  5
2AB
  8
0
  6
CONTINUOUS
 62
     7
 10
65.6934102085
 20
-271.1330424261
 30
0.0
 11
65.6934102085
 21
-269.5330153418
 31
0.0
  0
LINE
  5
2AC
  8
0
  6
CONTINUOUS
 62
     7
 10
74.1934104376
 20
-280.0330291701
 30
0.0
 11
74.1934104376
 21
-271.1330424261
 31
0.0
  0
LINE
  5
2AD
  8
0
  6
CONTINUOUS
 62
     7
 10
74.1934104376
 20
-280.0330291701
 30
0.0
 11
73.5934105255
 21
-280.0330291701
 31
0.0
  0
LINE
  5
2AE
  8
0
  6
CONTINUOUS
 62
     7
 10
66.5934105423
 20
-280.0330291701
 30
0.0
 11
66.5934105423
 21
-271.1330424261
 31
0.0
  0
LINE
  5
2AF
  8
0
  6
CONTINUOUS
 62
     7
 10
67.3934103474
 20
-280.0330291701
 30
0.0
 11
66.5934105423
 21
-280.0330291701
 31
0.0
  0
LINE
  5
2B0
  8
0
  6
CONTINUOUS
 62
     7
 10
73.4934104626
 20
-225.4330287886
 30
0.0
 11
74.4934106265
 21
-225.4330287886
 31
0.0
  0
LINE
  5
2B1
  8
0
  6
CONTINUOUS
 62
     7
 10
66.4934102465
 20
-225.4330287886
 30
0.0
 11
67.4934104104
 21
-225.4330287886
 31
0.0
  0
LINE
  5
2B2
  8
0
  6
CONTINUOUS
 62
     7
 10
73.4934104626
 20
-200.4330228281
 30
0.0
 11
74.9934102428
 21
-200.4330228281
 31
0.0
  0
LINE
  5
2B3
  8
0
  6
CONTINUOUS
 62
     7
 10
65.9934106302
 20
-200.4330228281
 30
0.0
 11
67.4934104104
 21
-200.4330228281
 31
0.0
  0
LINE
  5
2B4
  8
0
  6
CONTINUOUS
 62
     7
 10
65.4434106332
 20
-271.1330424261
 30
0.0
 11
65.6934102085
 21
-271.1330424261
 31
0.0
  0
ARC
  5
2B5
  8
0
  6
CONTINUOUS
 62
     7
 10
75.5934104365
 20
-270.183027978
 30
0.0
 40
0.2999999999999829
 50
90.0
 51
180.0
  0
ARC
  5
2B6
  8
0
  6
CONTINUOUS
 62
     7
 10
76.4934104365
 20
-268.183027978
 30
0.0
 40
0.2000000000000337
 50
300.0000000055
 51
354.9999999999
  0
LINE
  5
2B7
  8
0
  6
CONTINUOUS
 62
     7
 10
76.6926492583
 20
-268.2004641009
 30
0.0
 11
77.1797365528
 21
-262.633032651
 31
0.0
  0
LINE
  5
2B8
  8
0
  6
CONTINUOUS
 62
     7
 10
77.1797365528
 20
-262.633032651
 30
0.0
 11
79.0934107285
 21
-262.633032651
 31
0.0
  0
LINE
  5
2B9
  8
0
  6
CONTINUOUS
 62
     7
 10
79.0934107285
 20
-264.1330133391
 30
0.0
 11
79.0934107285
 21
-262.633032651
 31
0.0
  0
LINE
  5
2BA
  8
0
  6
CONTINUOUS
 62
     7
 10
78.7934103068
 20
-264.1330133391
 30
0.0
 11
79.0934107285
 21
-264.1330133391
 31
0.0
  0
LINE
  5
2BB
  8
0
  6
CONTINUOUS
 62
     7
 10
78.7934103068
 20
-264.1330133391
 30
0.0
 11
78.0934105646
 21
-264.6330367041
 31
0.0
  0
LINE
  5
2BC
  8
0
  6
CONTINUOUS
 62
     7
 10
78.0934105646
 20
-264.6330367041
 30
0.0
 11
78.0934105646
 21
-269.8830138159
 31
0.0
  0
LINE
  5
2BD
  8
0
  6
CONTINUOUS
 62
     7
 10
78.0934105646
 20
-269.8830138159
 30
0.0
 11
75.5934106205
 21
-269.8830138159
 31
0.0
  0
LINE
  5
2BE
  8
0
  6
CONTINUOUS
 62
     7
 10
76.7934104447
 20
-277.4330149603
 30
0.0
 11
78.0934105646
 21
-277.4330149603
 31
0.0
  0
LINE
  5
2BF
  8
0
  6
CONTINUOUS
 62
     7
 10
76.7934104447
 20
-277.4330149603
 30
0.0
 11
75.2934106645
 21
-275.9330342722
 31
0.0
  0
LINE
  5
2C0
  8
0
  6
CONTINUOUS
 62
     7
 10
76.7934104447
 20
-274.5642732096
 30
0.0
 11
75.2934106645
 21
-274.4330237818
 31
0.0
  0
LINE
  5
2C1
  8
0
  6
CONTINUOUS
 62
     7
 10
75.2934106645
 20
-275.9330342722
 30
0.0
 11
75.2934106645
 21
-274.4330237818
 31
0.0
  0
LINE
  5
2C2
  8
0
  6
CONTINUOUS
 62
     7
 10
76.7934104447
 20
-269.8830138159
 30
0.0
 11
76.7934104447
 21
-274.5642732096
 31
0.0
  0
LINE
  5
2C3
  8
0
  6
CONTINUOUS
 62
     7
 10
78.7934103068
 20
-264.1330133391
 30
0.0
 11
78.7934103068
 21
-276.7330180121
 31
0.0
  0
LINE
  5
2C4
  8
0
  6
CONTINUOUS
 62
     7
 10
78.0934105646
 20
-277.4330149603
 30
0.0
 11
78.7934103068
 21
-276.7330180121
 31
0.0
  0
LINE
  5
2C5
  8
0
  6
CONTINUOUS
 62
     7
 10
83.4934107047
 20
10.3922341752
 30
0.0
 11
83.4934107047
 21
19.966971575
 31
0.0
  0
ARC
  5
2C6
  8
0
  6
CONTINUOUS
 62
     7
 10
70.4934104365
 20
68.966972022
 30
0.0
 40
59.99999999999999
 50
257.4866746371
 51
282.5133253629
  0
LINE
  5
2C7
  8
0
  6
CONTINUOUS
 62
     7
 10
57.4934101683
 20
10.3922341752
 30
0.0
 11
57.4934101683
 21
19.966971575
 31
0.0
  0
LINE
  5
2C8
  8
0
  6
CONTINUOUS
 62
     7
 10
70.4934104365
 20
6.9669713068
 30
0.0
 11
75.4934103247
 21
6.9669713068
 31
0.0
  0
LINE
  5
2C9
  8
0
  6
CONTINUOUS
 62
     7
 10
65.4934105482
 20
6.9669713068
 30
0.0
 11
70.4934104365
 21
6.9669713068
 31
0.0
  0
LINE
  5
2CA
  8
0
  6
CONTINUOUS
 62
     7
 10
76.5934103188
 20
-253.0330191565
 30
0.0
 11
64.3934105542
 21
-253.0330191565
 31
0.0
  0
LINE
  5
2CB
  8
0
  6
CONTINUOUS
 62
     7
 10
76.5934103188
 20
-253.0330191565
 30
0.0
 11
76.5934103188
 21
-269.5330153418
 31
0.0
  0
LINE
  5
2CC
  8
0
  6
CONTINUOUS
 62
     7
 10
72.9934103806
 20
-269.5330153418
 30
0.0
 11
76.5934103188
 21
-269.5330153418
 31
0.0
  0
LINE
  5
2CD
  8
0
  6
CONTINUOUS
 62
     7
 10
72.9934103806
 20
-273.9330302191
 30
0.0
 11
72.9934103806
 21
-269.5330153418
 31
0.0
  0
LINE
  5
2CE
  8
0
  6
CONTINUOUS
 62
     7
 10
70.5184104358
 20
-273.9330302191
 30
0.0
 11
72.9934103806
 21
-273.9330302191
 31
0.0
  0
LINE
  5
2CF
  8
0
  6
CONTINUOUS
 62
     7
 10
70.5184104358
 20
-269.5330153418
 30
0.0
 11
70.5184104358
 21
-273.9330302191
 31
0.0
  0
LINE
  5
2D0
  8
0
  6
CONTINUOUS
 62
     7
 10
70.5184104358
 20
-269.5330153418
 30
0.0
 11
70.4684104371
 21
-269.5330153418
 31
0.0
  0
LINE
  5
2D1
  8
0
  6
CONTINUOUS
 62
     7
 10
67.9934104924
 20
-273.9330302191
 30
0.0
 11
70.4684104371
 21
-273.9330302191
 31
0.0
  0
LINE
  5
2D2
  8
0
  6
CONTINUOUS
 62
     7
 10
67.9934104924
 20
-269.5330153418
 30
0.0
 11
67.9934104924
 21
-273.9330302191
 31
0.0
  0
LINE
  5
2D3
  8
0
  6
CONTINUOUS
 62
     7
 10
64.3934105542
 20
-269.5330153418
 30
0.0
 11
67.9934104924
 21
-269.5330153418
 31
0.0
  0
LINE
  5
2D4
  8
0
  6
CONTINUOUS
 62
     7
 10
64.3934105542
 20
-253.0330191565
 30
0.0
 11
64.3934105542
 21
-269.5330153418
 31
0.0
  0
LINE
  5
2D5
  8
0
  6
CONTINUOUS
 62
     7
 10
70.4684104371
 20
-273.9330302191
 30
0.0
 11
70.4684104371
 21
-269.5330153418
 31
0.0
  0
LINE
  5
2D6
  8
0
  6
CONTINUOUS
 62
     7
 10
74.4684106689
 20
-250.6830166292
 30
0.0
 11
68.4684103839
 21
-250.6830166292
 31
0.0
  0
LINE
  5
2D7
  8
0
  6
CONTINUOUS
 62
     7
 10
68.4684103839
 20
-250.6830166292
 30
0.0
 11
68.4684103839
 21
-253.0330191565
 31
0.0
  0
LINE
  5
2D8
  8
0
  6
CONTINUOUS
 62
     7
 10
74.4684106689
 20
-253.0330191565
 30
0.0
 11
74.4684106689
 21
-250.6830166292
 31
0.0
  0
LINE
  5
2D9
  8
0
  6
CONTINUOUS
 62
     7
 10
64.3934105542
 20
-245.026714654
 30
0.0
 11
76.5934103188
 21
-245.026714654
 31
0.0
  0
LINE
  5
2DA
  8
0
  6
CONTINUOUS
 62
     7
 10
64.3934105542
 20
-241.2679265452
 30
0.0
 11
76.5934103188
 21
-241.2679265452
 31
0.0
  0
LINE
  5
2DB
  8
0
  6
CONTINUOUS
 62
     7
 10
76.5934103188
 20
-241.2679265452
 30
0.0
 11
76.5934103188
 21
-245.026714654
 31
0.0
  0
LINE
  5
2DC
  8
0
  6
CONTINUOUS
 62
     7
 10
64.3934105542
 20
-241.2679265452
 30
0.0
 11
64.3934105542
 21
-245.026714654
 31
0.0
  0
LINE
  5
2DD
  8
0
  6
CONTINUOUS
 62
     7
 10
76.5934103188
 20
-237.0330165339
 30
0.0
 11
64.3934105542
 21
-237.0330165339
 31
0.0
  0
LINE
  5
2DE
  8
0
  6
CONTINUOUS
 62
     7
 10
76.5934103188
 20
-237.0330165339
 30
0.0
 11
76.5934103188
 21
-241.2679265452
 31
0.0
  0
LINE
  5
2DF
  8
0
  6
CONTINUOUS
 62
     7
 10
64.3934105542
 20
-237.0330165339
 30
0.0
 11
64.3934105542
 21
-241.2679265452
 31
0.0
  0
LINE
  5
2E0
  8
0
  6
CONTINUOUS
 62
     7
 10
64.3934105542
 20
-236.5330229712
 30
0.0
 11
76.5934103188
 21
-236.5330229712
 31
0.0
  0
LINE
  5
2E1
  8
0
  6
CONTINUOUS
 62
     7
 10
76.5934103188
 20
-236.5330229712
 30
0.0
 11
76.5934103188
 21
-237.0330165339
 31
0.0
  0
LINE
  5
2E2
  8
0
  6
CONTINUOUS
 62
     7
 10
64.3934105542
 20
-236.5330229712
 30
0.0
 11
64.3934105542
 21
-237.0330165339
 31
0.0
  0
LINE
  5
2E3
  8
0
  6
CONTINUOUS
 62
     7
 10
73.5184104201
 20
-246.3330398512
 30
0.0
 11
73.5184104201
 21
-246.0330198717
 31
0.0
  0
LINE
  5
2E4
  8
0
  6
CONTINUOUS
 62
     7
 10
69.5184104629
 20
-246.3330398512
 30
0.0
 11
73.5184104201
 21
-246.3330398512
 31
0.0
  0
LINE
  5
2E5
  8
0
  6
CONTINUOUS
 62
     7
 10
69.5184104629
 20
-246.0330198717
 30
0.0
 11
69.5184104629
 21
-246.3330398512
 31
0.0
  0
LINE
  5
2E6
  8
0
  6
CONTINUOUS
 62
     7
 10
69.5184104629
 20
-246.0330198717
 30
0.0
 11
73.5184104201
 21
-246.0330198717
 31
0.0
  0
LINE
  5
2E7
  8
0
  6
CONTINUOUS
 62
     7
 10
73.5184104201
 20
-246.8830417109
 30
0.0
 11
73.5184104201
 21
-246.3330398512
 31
0.0
  0
LINE
  5
2E8
  8
0
  6
CONTINUOUS
 62
     7
 10
69.5184104629
 20
-246.8830417109
 30
0.0
 11
73.5184104201
 21
-246.8830417109
 31
0.0
  0
LINE
  5
2E9
  8
0
  6
CONTINUOUS
 62
     7
 10
69.5184104629
 20
-246.3330398512
 30
0.0
 11
69.5184104629
 21
-246.8830417109
 31
0.0
  0
LINE
  5
2EA
  8
0
  6
CONTINUOUS
 62
     7
 10
76.5934103188
 20
-251.0330151034
 30
0.0
 11
74.4684106689
 21
-251.0330151034
 31
0.0
  0
LINE
  5
2EB
  8
0
  6
CONTINUOUS
 62
     7
 10
76.5934103188
 20
-251.0330151034
 30
0.0
 11
76.5934103188
 21
-253.0330191565
 31
0.0
  0
LINE
  5
2EC
  8
0
  6
CONTINUOUS
 62
     7
 10
68.4684103839
 20
-251.0330151034
 30
0.0
 11
64.3934105542
 21
-251.0330151034
 31
0.0
  0
LINE
  5
2ED
  8
0
  6
CONTINUOUS
 62
     7
 10
64.3934105542
 20
-251.0330151034
 30
0.0
 11
64.3934105542
 21
-253.0330191565
 31
0.0
  0
LINE
  5
2EE
  8
0
  6
CONTINUOUS
 62
     7
 10
74.4684106689
 20
-246.8830417109
 30
0.0
 11
73.5184104201
 21
-246.8830417109
 31
0.0
  0
LINE
  5
2EF
  8
0
  6
CONTINUOUS
 62
     7
 10
73.5184104201
 20
-250.1830230665
 30
0.0
 11
74.4684106689
 21
-250.1830230665
 31
0.0
  0
LINE
  5
2F0
  8
0
  6
CONTINUOUS
 62
     7
 10
74.4684106689
 20
-246.8830417109
 30
0.0
 11
74.4684106689
 21
-250.1830230665
 31
0.0
  0
LINE
  5
2F1
  8
0
  6
CONTINUOUS
 62
     7
 10
69.5184104629
 20
-247.7330337477
 30
0.0
 11
73.5184104201
 21
-247.7330337477
 31
0.0
  0
LINE
  5
2F2
  8
0
  6
CONTINUOUS
 62
     7
 10
69.5184104629
 20
-246.8830417109
 30
0.0
 11
69.5184104629
 21
-247.7330337477
 31
0.0
  0
LINE
  5
2F3
  8
0
  6
CONTINUOUS
 62
     7
 10
73.5184104201
 20
-247.7330337477
 30
0.0
 11
73.5184104201
 21
-246.8830417109
 31
0.0
  0
LINE
  5
2F4
  8
0
  6
CONTINUOUS
 62
     7
 10
74.4684106689
 20
-246.3330398512
 30
0.0
 11
73.5184104201
 21
-246.3330398512
 31
0.0
  0
LINE
  5
2F5
  8
0
  6
CONTINUOUS
 62
     7
 10
74.4684106689
 20
-246.3330398512
 30
0.0
 11
74.4684106689
 21
-246.8830417109
 31
0.0
  0
LINE
  5
2F6
  8
0
  6
CONTINUOUS
 62
     7
 10
69.5184104629
 20
-246.3330398512
 30
0.0
 11
68.4684103839
 21
-246.3330398512
 31
0.0
  0
LINE
  5
2F7
  8
0
  6
CONTINUOUS
 62
     7
 10
68.4684103839
 20
-246.0330198717
 30
0.0
 11
69.5184104629
 21
-246.0330198717
 31
0.0
  0
LINE
  5
2F8
  8
0
  6
CONTINUOUS
 62
     7
 10
68.4684103839
 20
-246.0330198717
 30
0.0
 11
68.4684103839
 21
-246.3330398512
 31
0.0
  0
LINE
  5
2F9
  8
0
  6
CONTINUOUS
 62
     7
 10
69.5184104629
 20
-246.8830417109
 30
0.0
 11
68.4684103839
 21
-246.8830417109
 31
0.0
  0
LINE
  5
2FA
  8
0
  6
CONTINUOUS
 62
     7
 10
68.4684103839
 20
-246.3330398512
 30
0.0
 11
68.4684103839
 21
-246.8830417109
 31
0.0
  0
LINE
  5
2FB
  8
0
  6
CONTINUOUS
 62
     7
 10
69.5184104629
 20
-250.1830230665
 30
0.0
 11
68.4684103839
 21
-250.1830230665
 31
0.0
  0
LINE
  5
2FC
  8
0
  6
CONTINUOUS
 62
     7
 10
68.4684103839
 20
-246.8830417109
 30
0.0
 11
68.4684103839
 21
-250.1830230665
 31
0.0
  0
LINE
  5
2FD
  8
0
  6
CONTINUOUS
 62
     7
 10
73.5184104201
 20
-246.0330198717
 30
0.0
 11
74.4684106689
 21
-246.0330198717
 31
0.0
  0
LINE
  5
2FE
  8
0
  6
CONTINUOUS
 62
     7
 10
74.4684106689
 20
-246.0330198717
 30
0.0
 11
74.4684106689
 21
-246.3330398512
 31
0.0
  0
LINE
  5
2FF
  8
0
  6
CONTINUOUS
 62
     7
 10
69.5184104629
 20
-247.7330337477
 30
0.0
 11
69.5184104629
 21
-248.5830257845
 31
0.0
  0
LINE
  5
300
  8
0
  6
CONTINUOUS
 62
     7
 10
73.5184104201
 20
-248.5830257845
 30
0.0
 11
73.5184104201
 21
-247.7330337477
 31
0.0
  0
LINE
  5
301
  8
0
  6
CONTINUOUS
 62
     7
 10
73.5184104201
 20
-248.5830257845
 30
0.0
 11
69.5184104629
 21
-248.5830257845
 31
0.0
  0
LINE
  5
302
  8
0
  6
CONTINUOUS
 62
     7
 10
73.5184104201
 20
-249.4330178213
 30
0.0
 11
73.5184104201
 21
-248.5830257845
 31
0.0
  0
LINE
  5
303
  8
0
  6
CONTINUOUS
 62
     7
 10
73.5184104201
 20
-249.4330178213
 30
0.0
 11
69.5184104629
 21
-249.4330178213
 31
0.0
  0
LINE
  5
304
  8
0
  6
CONTINUOUS
 62
     7
 10
69.5184104629
 20
-248.5830257845
 30
0.0
 11
69.5184104629
 21
-249.4330178213
 31
0.0
  0
LINE
  5
305
  8
0
  6
CONTINUOUS
 62
     7
 10
76.5934103188
 20
-245.908982606
 30
0.0
 11
64.3934105542
 21
-245.908982606
 31
0.0
  0
LINE
  5
306
  8
0
  6
CONTINUOUS
 62
     7
 10
76.5934103188
 20
-245.026714654
 30
0.0
 11
76.5934103188
 21
-245.908982606
 31
0.0
  0
LINE
  5
307
  8
0
  6
CONTINUOUS
 62
     7
 10
64.3934105542
 20
-245.026714654
 30
0.0
 11
64.3934105542
 21
-245.908982606
 31
0.0
  0
LINE
  5
308
  8
0
  6
CONTINUOUS
 62
     7
 10
73.5184104201
 20
-250.1830230665
 30
0.0
 11
73.5184104201
 21
-249.4330178213
 31
0.0
  0
LINE
  5
309
  8
0
  6
CONTINUOUS
 62
     7
 10
73.5184104201
 20
-250.1830230665
 30
0.0
 11
69.5184104629
 21
-250.1830230665
 31
0.0
  0
LINE
  5
30A
  8
0
  6
CONTINUOUS
 62
     7
 10
69.5184104629
 20
-250.1830230665
 30
0.0
 11
69.5184104629
 21
-249.4330178213
 31
0.0
  0
LINE
  5
30B
  8
0
  6
CONTINUOUS
 62
     7
 10
68.4684103839
 20
-250.1830230665
 30
0.0
 11
68.4684103839
 21
-250.6830166292
 31
0.0
  0
LINE
  5
30C
  8
0
  6
CONTINUOUS
 62
     7
 10
74.4684106689
 20
-250.6830166292
 30
0.0
 11
74.4684106689
 21
-250.1830230665
 31
0.0
  0
LINE
  5
30D
  8
0
  6
CONTINUOUS
 62
     7
 10
76.5934103188
 20
-245.908982606
 30
0.0
 11
76.5934103188
 21
-251.0330151034
 31
0.0
  0
LINE
  5
30E
  8
0
  6
CONTINUOUS
 62
     7
 10
64.3934105542
 20
-245.908982606
 30
0.0
 11
64.3934105542
 21
-251.0330151034
 31
0.0
  0
LINE
  5
30F
  8
0
  6
CONTINUOUS
 62
     7
 10
73.5934105255
 20
-280.0330291701
 30
0.0
 11
73.5934105255
 21
-269.5330153418
 31
0.0
  0
LINE
  5
310
  8
0
  6
CONTINUOUS
 62
     7
 10
73.5934105255
 20
-280.0330291701
 30
0.0
 11
73.1934105065
 21
-280.0330291701
 31
0.0
  0
LINE
  5
311
  8
0
  6
CONTINUOUS
 62
     7
 10
73.1934105065
 20
-280.0330291701
 30
0.0
 11
73.1934105065
 21
-269.5330153418
 31
0.0
  0
LINE
  5
312
  8
0
  6
CONTINUOUS
 62
     7
 10
67.7934103664
 20
-280.0330291701
 30
0.0
 11
67.7934103664
 21
-269.5330153418
 31
0.0
  0
LINE
  5
313
  8
0
  6
CONTINUOUS
 62
     7
 10
73.1934105065
 20
-280.0330291701
 30
0.0
 11
67.7934103664
 21
-280.0330291701
 31
0.0
  0
LINE
  5
314
  8
0
  6
CONTINUOUS
 62
     7
 10
67.3934103474
 20
-280.0330291701
 30
0.0
 11
67.3934103474
 21
-269.5330153418
 31
0.0
  0
LINE
  5
315
  8
0
  6
CONTINUOUS
 62
     7
 10
67.7934103664
 20
-280.0330291701
 30
0.0
 11
67.3934103474
 21
-280.0330291701
 31
0.0
  0
LINE
  5
316
  8
0
  6
CONTINUOUS
 62
     8
 10
87.6934110206
 20
11.666972636
 30
0.0
 11
87.6934110206
 21
17.4587485182
 31
0.0
  0
LINE
  5
317
  8
0
  6
CONTINUOUS
 62
     8
 10
87.6934110206
 20
17.8123009193
 30
0.0
 11
87.6934110206
 21
18.6669719207
 31
0.0
  0
LINE
  5
318
  8
0
  6
CONTINUOUS
 62
     8
 10
73.4934104626
 20
-224.9330352259
 30
0.0
 11
74.9934102428
 21
-224.9330352259
 31
0.0
  0
LINE
  5
319
  8
0
  6
CONTINUOUS
 62
     8
 10
65.9934106302
 20
-224.9330352259
 30
0.0
 11
67.4934104104
 21
-224.9330352259
 31
0.0
  0
LINE
  5
31A
  8
0
  6
CONTINUOUS
 62
     8
 10
67.4934104104
 20
-225.9330223513
 30
0.0
 11
66.9934103284
 21
-225.9330223513
 31
0.0
  0
LINE
  5
31B
  8
0
  6
CONTINUOUS
 62
     8
 10
73.9934105445
 20
-225.9330223513
 30
0.0
 11
73.4934104626
 21
-225.9330223513
 31
0.0
  0
LINE
  5
31C
  8
0
  6
CONTINUOUS
 62
     7
 10
265.1068373898
 20
195.0516662154
 30
0.0
 11
263.1068372948
 21
195.0516662154
 31
0.0
  0
LINE
  5
31D
  8
0
  6
CONTINUOUS
 62
     7
 10
263.1068372948
 20
135.0516675565
 30
0.0
 11
265.1068373898
 21
135.0516675565
 31
0.0
  0
LINE
  5
31E
  8
0
  6
CONTINUOUS
 62
     7
 10
300.1068377717
 20
172.051667102
 30
0.0
 11
265.1068373898
 21
172.051667102
 31
0.0
  0
LINE
  5
31F
  8
0
  6
CONTINUOUS
 62
     7
 10
265.1068373898
 20
158.0516666699
 30
0.0
 11
300.1068377717
 21
158.0516666699
 31
0.0
  0
ARC
  5
320
  8
0
  6
CONTINUOUS
 62
     7
 10
346.8667473348
 20
165.051666886
 30
0.0
 40
200.0
 50
191.8189919667
 51
192.268898996
  0
ARC
  5
321
  8
0
  6
CONTINUOUS
 62
     7
 10
346.8667473348
 20
165.051666886
 30
0.0
 40
200.0
 50
167.731101004
 51
168.1810080333
  0
LINE
  5
322
  8
0
  6
CONTINUOUS
 62
     7
 10
151.1068338377
 20
206.0157673959
 30
0.0
 11
149.1068372352
 21
202.5516683761
 31
0.0
  0
LINE
  5
323
  8
0
  6
CONTINUOUS
 62
     7
 10
149.1068372352
 20
127.5516653959
 30
0.0
 11
151.1068338377
 21
124.0875663761
 31
0.0
  0
LINE
  5
324
  8
0
  6
CONTINUOUS
 62
     7
 10
263.1068372948
 20
199.3516663615
 30
0.0
 11
253.1068375183
 21
199.3516663615
 31
0.0
  0
LINE
  5
325
  8
0
  6
CONTINUOUS
 62
     7
 10
253.1068375183
 20
199.3516663615
 30
0.0
 11
253.1068375183
 21
207.551667333
 31
0.0
  0
LINE
  5
326
  8
0
  6
CONTINUOUS
 62
     7
 10
253.1068375183
 20
207.551667333
 30
0.0
 11
263.1068372948
 21
207.551667333
 31
0.0
  0
LINE
  5
327
  8
0
  6
CONTINUOUS
 62
     7
 10
263.1068372948
 20
207.551667333
 30
0.0
 11
263.1068372948
 21
199.3516663615
 31
0.0
  0
LINE
  5
328
  8
0
  6
CONTINUOUS
 62
     7
 10
253.1068375183
 20
130.7516674105
 30
0.0
 11
263.1068372948
 21
130.7516674105
 31
0.0
  0
LINE
  5
329
  8
0
  6
CONTINUOUS
 62
     7
 10
253.1068375183
 20
146.0516674969
 30
0.0
 11
253.1068375183
 21
130.7516674105
 31
0.0
  0
LINE
  5
32A
  8
0
  6
CONTINUOUS
 62
     7
 10
253.1068375183
 20
146.0516674969
 30
0.0
 11
246.7068372144
 21
146.0516674969
 31
0.0
  0
LINE
  5
32B
  8
0
  6
CONTINUOUS
 62
     7
 10
253.1068375183
 20
184.051666275
 30
0.0
 11
246.7068372144
 21
184.051666275
 31
0.0
  0
LINE
  5
32C
  8
0
  6
CONTINUOUS
 62
     7
 10
246.7068372144
 20
146.0516674969
 30
0.0
 11
246.7068372144
 21
184.051666275
 31
0.0
  0
LINE
  5
32D
  8
0
  6
CONTINUOUS
 62
     7
 10
253.1068375183
 20
184.051666275
 30
0.0
 11
253.1068375183
 21
199.3516663615
 31
0.0
  0
LINE
  5
32E
  8
0
  6
CONTINUOUS
 62
     7
 10
263.1068372948
 20
130.7516674105
 30
0.0
 11
263.1068372948
 21
199.3516663615
 31
0.0
  0
LINE
  5
32F
  8
0
  6
CONTINUOUS
 62
     7
 10
253.1068375183
 20
193.5516669009
 30
0.0
 11
246.7068372144
 21
193.5516669009
 31
0.0
  0
LINE
  5
330
  8
0
  6
CONTINUOUS
 62
     7
 10
246.7068372144
 20
193.5516669009
 30
0.0
 11
246.7068372144
 21
184.051666275
 31
0.0
  0
LINE
  5
331
  8
0
  6
CONTINUOUS
 62
     7
 10
253.1068375183
 20
136.5516668711
 30
0.0
 11
246.7068372144
 21
136.5516668711
 31
0.0
  0
LINE
  5
332
  8
0
  6
CONTINUOUS
 62
     7
 10
246.7068372144
 20
136.5516668711
 30
0.0
 11
246.7068372144
 21
146.0516674969
 31
0.0
  0
LINE
  5
333
  8
0
  6
CONTINUOUS
 62
     7
 10
263.1068372948
 20
122.5516664389
 30
0.0
 11
253.1068375183
 21
122.5516664389
 31
0.0
  0
LINE
  5
334
  8
0
  6
CONTINUOUS
 62
     7
 10
253.1068375183
 20
122.5516664389
 30
0.0
 11
253.1068375183
 21
130.7516674105
 31
0.0
  0
LINE
  5
335
  8
0
  6
CONTINUOUS
 62
     7
 10
263.1068372948
 20
130.7516674105
 30
0.0
 11
263.1068372948
 21
122.5516664389
 31
0.0
  0
LINE
  5
336
  8
0
  6
CONTINUOUS
 62
     7
 10
253.1068375183
 20
200.051667035
 30
0.0
 11
246.7068372144
 21
200.051667035
 31
0.0
  0
LINE
  5
337
  8
0
  6
CONTINUOUS
 62
     7
 10
246.7068372144
 20
200.051667035
 30
0.0
 11
246.7068372144
 21
193.5516669009
 31
0.0
  0
LINE
  5
338
  8
0
  6
CONTINUOUS
 62
     7
 10
253.1068375183
 20
130.051666737
 30
0.0
 11
246.7068372144
 21
130.051666737
 31
0.0
  0
LINE
  5
339
  8
0
  6
CONTINUOUS
 62
     7
 10
246.7068372144
 20
130.051666737
 30
0.0
 11
246.7068372144
 21
136.5516668711
 31
0.0
  0
LINE
  5
33A
  8
0
  6
CONTINUOUS
 62
     7
 10
265.1068373898
 20
195.0516662154
 30
0.0
 11
265.1068373898
 21
135.0516675565
 31
0.0
  0
LINE
  5
33B
  8
0
  6
CONTINUOUS
 62
     7
 10
253.1068375183
 20
205.5323811773
 30
0.0
 11
246.7068372144
 21
205.5323811773
 31
0.0
  0
LINE
  5
33C
  8
0
  6
CONTINUOUS
 62
     7
 10
253.1068375183
 20
207.551667333
 30
0.0
 11
246.7068372144
 21
207.551667333
 31
0.0
  0
LINE
  5
33D
  8
0
  6
CONTINUOUS
 62
     7
 10
246.7068372144
 20
207.551667333
 30
0.0
 11
246.7068372144
 21
205.5323811773
 31
0.0
  0
LINE
  5
33E
  8
0
  6
CONTINUOUS
 62
     7
 10
246.7068372144
 20
205.5323811773
 30
0.0
 11
246.7068372144
 21
200.051667035
 31
0.0
  0
LINE
  5
33F
  8
0
  6
CONTINUOUS
 62
     7
 10
253.1068375183
 20
124.5709525946
 30
0.0
 11
246.7068372144
 21
124.5709525946
 31
0.0
  0
LINE
  5
340
  8
0
  6
CONTINUOUS
 62
     7
 10
246.7068372144
 20
124.5709525946
 30
0.0
 11
246.7068372144
 21
130.051666737
 31
0.0
  0
LINE
  5
341
  8
0
  6
CONTINUOUS
 62
     7
 10
253.1068375183
 20
122.5516664389
 30
0.0
 11
246.7068372144
 21
122.5516664389
 31
0.0
  0
LINE
  5
342
  8
0
  6
CONTINUOUS
 62
     7
 10
246.7068372144
 20
122.5516664389
 30
0.0
 11
246.7068372144
 21
124.5709525946
 31
0.0
  0
LINE
  5
343
  8
0
  6
CONTINUOUS
 62
     7
 10
300.1068377717
 20
172.051667102
 30
0.0
 11
300.1068377717
 21
158.0516666699
 31
0.0
  0
LINE
  5
344
  8
0
  6
CONTINUOUS
 62
     7
 10
246.7068372144
 20
184.051666275
 30
0.0
 11
183.906837724
 21
184.051666275
 31
0.0
  0
LINE
  5
345
  8
0
  6
CONTINUOUS
 62
     7
 10
246.7068372144
 20
193.5516669009
 30
0.0
 11
183.906837724
 21
193.5516669009
 31
0.0
  0
LINE
  5
346
  8
0
  6
CONTINUOUS
 62
     7
 10
183.906837724
 20
184.051666275
 30
0.0
 11
183.906837724
 21
193.5516669009
 31
0.0
  0
LINE
  5
347
  8
0
  6
CONTINUOUS
 62
     7
 10
246.7068372144
 20
146.0516674969
 30
0.0
 11
183.906837724
 21
146.0516674969
 31
0.0
  0
LINE
  5
348
  8
0
  6
CONTINUOUS
 62
     7
 10
183.906837724
 20
146.0516674969
 30
0.0
 11
183.906837724
 21
184.051666275
 31
0.0
  0
LINE
  5
349
  8
0
  6
CONTINUOUS
 62
     7
 10
246.7068372144
 20
136.5516668711
 30
0.0
 11
183.906837724
 21
136.5516668711
 31
0.0
  0
LINE
  5
34A
  8
0
  6
CONTINUOUS
 62
     7
 10
183.906837724
 20
146.0516674969
 30
0.0
 11
183.906837724
 21
136.5516668711
 31
0.0
  0
LINE
  5
34B
  8
0
  6
CONTINUOUS
 62
     7
 10
246.7068372144
 20
200.051667035
 30
0.0
 11
183.906837724
 21
200.051667035
 31
0.0
  0
LINE
  5
34C
  8
0
  6
CONTINUOUS
 62
     7
 10
183.906837724
 20
193.5516669009
 30
0.0
 11
183.906837724
 21
200.051667035
 31
0.0
  0
LINE
  5
34D
  8
0
  6
CONTINUOUS
 62
     7
 10
246.7068372144
 20
130.051666737
 30
0.0
 11
183.906837724
 21
130.051666737
 31
0.0
  0
LINE
  5
34E
  8
0
  6
CONTINUOUS
 62
     7
 10
183.906837724
 20
136.5516668711
 30
0.0
 11
183.906837724
 21
130.051666737
 31
0.0
  0
LINE
  5
34F
  8
0
  6
CONTINUOUS
 62
     7
 10
246.7068372144
 20
205.5323811773
 30
0.0
 11
183.906837724
 21
205.5323811773
 31
0.0
  0
LINE
  5
350
  8
0
  6
CONTINUOUS
 62
     7
 10
183.906837724
 20
207.551667333
 30
0.0
 11
246.7068372144
 21
207.551667333
 31
0.0
  0
LINE
  5
351
  8
0
  6
CONTINUOUS
 62
     7
 10
183.906837724
 20
205.5323811773
 30
0.0
 11
183.906837724
 21
207.551667333
 31
0.0
  0
LINE
  5
352
  8
0
  6
CONTINUOUS
 62
     7
 10
183.906837724
 20
200.051667035
 30
0.0
 11
183.906837724
 21
205.5323811773
 31
0.0
  0
LINE
  5
353
  8
0
  6
CONTINUOUS
 62
     7
 10
246.7068372144
 20
124.5709525946
 30
0.0
 11
183.906837724
 21
124.5709525946
 31
0.0
  0
LINE
  5
354
  8
0
  6
CONTINUOUS
 62
     7
 10
183.906837724
 20
130.051666737
 30
0.0
 11
183.906837724
 21
124.5709525946
 31
0.0
  0
LINE
  5
355
  8
0
  6
CONTINUOUS
 62
     7
 10
183.906837724
 20
122.5516664389
 30
0.0
 11
246.7068372144
 21
122.5516664389
 31
0.0
  0
LINE
  5
356
  8
0
  6
CONTINUOUS
 62
     7
 10
183.906837724
 20
124.5709525946
 30
0.0
 11
183.906837724
 21
122.5516664389
 31
0.0
  0
LINE
  5
357
  8
0
  6
CONTINUOUS
 62
     7
 10
166.4068395121
 20
193.5516669009
 30
0.0
 11
183.906837724
 21
193.5516669009
 31
0.0
  0
LINE
  5
358
  8
0
  6
CONTINUOUS
 62
     7
 10
166.4068395121
 20
193.5516669009
 30
0.0
 11
183.906837724
 21
184.051666275
 31
0.0
  0
LINE
  5
359
  8
0
  6
CONTINUOUS
 62
     7
 10
166.4068395121
 20
136.5516668711
 30
0.0
 11
183.906837724
 21
146.0516674969
 31
0.0
  0
LINE
  5
35A
  8
0
  6
CONTINUOUS
 62
     7
 10
162.9068398697
 20
136.5516668711
 30
0.0
 11
166.4068395121
 21
136.5516668711
 31
0.0
  0
LINE
  5
35B
  8
0
  6
CONTINUOUS
 62
     7
 10
162.9068398697
 20
193.5516669009
 30
0.0
 11
166.4068395121
 21
193.5516669009
 31
0.0
  0
LINE
  5
35C
  8
0
  6
CONTINUOUS
 62
     7
 10
162.9068398697
 20
136.5516668711
 30
0.0
 11
162.9068398697
 21
193.5516669009
 31
0.0
  0
LINE
  5
35D
  8
0
  6
CONTINUOUS
 62
     7
 10
166.4068395121
 20
136.5516668711
 30
0.0
 11
183.906837724
 21
136.5516668711
 31
0.0
  0
LINE
  5
35E
  8
0
  6
CONTINUOUS
 62
     7
 10
162.9068398697
 20
200.051667035
 30
0.0
 11
183.906837724
 21
200.051667035
 31
0.0
  0
LINE
  5
35F
  8
0
  6
CONTINUOUS
 62
     7
 10
162.9068398697
 20
193.5516669009
 30
0.0
 11
162.9068398697
 21
200.051667035
 31
0.0
  0
LINE
  5
360
  8
0
  6
CONTINUOUS
 62
     7
 10
162.9068398697
 20
130.051666737
 30
0.0
 11
183.906837724
 21
130.051666737
 31
0.0
  0
LINE
  5
361
  8
0
  6
CONTINUOUS
 62
     7
 10
162.9068398697
 20
136.5516668711
 30
0.0
 11
162.9068398697
 21
130.051666737
 31
0.0
  0
LINE
  5
362
  8
0
  6
CONTINUOUS
 62
     7
 10
166.4068395121
 20
207.551667333
 30
0.0
 11
162.9068398697
 21
207.551667333
 31
0.0
  0
LINE
  5
363
  8
0
  6
CONTINUOUS
 62
     7
 10
183.906837724
 20
205.5323811773
 30
0.0
 11
166.4068395121
 21
207.551667333
 31
0.0
  0
LINE
  5
364
  8
0
  6
CONTINUOUS
 62
     7
 10
162.9068398697
 20
200.051667035
 30
0.0
 11
162.9068398697
 21
207.551667333
 31
0.0
  0
LINE
  5
365
  8
0
  6
CONTINUOUS
 62
     7
 10
166.4068395121
 20
207.551667333
 30
0.0
 11
183.906837724
 21
207.551667333
 31
0.0
  0
LINE
  5
366
  8
0
  6
CONTINUOUS
 62
     7
 10
183.906837724
 20
124.5709525946
 30
0.0
 11
166.4068395121
 21
122.5516664389
 31
0.0
  0
LINE
  5
367
  8
0
  6
CONTINUOUS
 62
     7
 10
166.4068395121
 20
122.5516664389
 30
0.0
 11
162.9068398697
 21
122.5516664389
 31
0.0
  0
LINE
  5
368
  8
0
  6
CONTINUOUS
 62
     7
 10
162.9068398697
 20
130.051666737
 30
0.0
 11
162.9068398697
 21
122.5516664389
 31
0.0
  0
LINE
  5
369
  8
0
  6
CONTINUOUS
 62
     7
 10
166.4068395121
 20
122.5516664389
 30
0.0
 11
183.906837724
 21
122.5516664389
 31
0.0
  0
LINE
  5
36A
  8
0
  6
CONTINUOUS
 62
     7
 10
151.1068338377
 20
206.0157673959
 30
0.0
 11
151.1068338377
 21
124.0875663761
 31
0.0
  0
LINE
  5
36B
  8
0
  6
CONTINUOUS
 62
     7
 10
153.5237872822
 20
207.551667333
 30
0.0
 11
151.4345327241
 21
207.551667333
 31
0.0
  0
ARC
  5
36C
  8
0
  6
CONTINUOUS
 62
     7
 10
346.8667473348
 20
165.051666886
 30
0.0
 40
197.9589603933098
 50
167.6026025321
 51
169.8163243056
  0
POLYLINE
  5
36D
  8
0
  6
CONTINUOUS
 62
     7
 66
     1
 10
0.0
 20
0.0
 30
0.0
 70
   128
  0
VERTEX
  5
6B2
  8
0
  6
CONTINUOUS
 62
     7
 10
152.0264291985
 20
193.5516669009
 30
0.0
  0
VERTEX
  5
6B3
  8
0
  6
CONTINUOUS
 62
     7
 10
151.7101222498
 20
193.9059103433
 30
0.0
  0
VERTEX
  5
6B4
  8
0
  6
CONTINUOUS
 62
     7
 10
151.5550384147
 20
194.9422432635
 30
0.0
  0
VERTEX
  5
6B5
  8
0
  6
CONTINUOUS
 62
     7
 10
151.5798339469
 20
196.5187507275
 30
0.0
  0
VERTEX
  5
6B6
  8
0
  6
CONTINUOUS
 62
     7
 10
151.7749870045
 20
198.4508315626
 30
0.0
  0
VERTEX
  5
6B7
  8
0
  6
CONTINUOUS
 62
     7
 10
152.0264291985
 20
200.051667035
 30
0.0
  0
SEQEND
  5
734
  8
0
  6
CONTINUOUS
 62
     7
  0
LINE
  5
36E
  8
0
  6
CONTINUOUS
 62
     7
 10
153.5237872822
 20
193.5516669009
 30
0.0
 11
152.0264291985
 21
193.5516669009
 31
0.0
  0
ARC
  5
36F
  8
0
  6
CONTINUOUS
 62
     7
 10
346.8667473348
 20
165.051666886
 30
0.0
 40
195.4322133119307
 50
171.6146187429
 51
188.3853812571
  0
LINE
  5
370
  8
0
  6
CONTINUOUS
 62
     7
 10
152.0264291985
 20
136.5516668711
 30
0.0
 11
153.5237872822
 21
136.5516668711
 31
0.0
  0
POLYLINE
  5
371
  8
0
  6
CONTINUOUS
 62
     7
 66
     1
 10
0.0
 20
0.0
 30
0.0
 70
   128
  0
VERTEX
  5
6B8
  8
0
  6
CONTINUOUS
 62
     7
 10
152.0264291985
 20
130.051666737
 30
0.0
  0
VERTEX
  5
6B9
  8
0
  6
CONTINUOUS
 62
     7
 10
151.7101222498
 20
132.16819042
 30
0.0
  0
VERTEX
  5
6BA
  8
0
  6
CONTINUOUS
 62
     7
 10
151.5550384147
 20
134.0696009401
 30
0.0
  0
VERTEX
  5
6BB
  8
0
  6
CONTINUOUS
 62
     7
 10
151.5798339469
 20
135.5077175949
 30
0.0
  0
VERTEX
  5
6BC
  8
0
  6
CONTINUOUS
 62
     7
 10
151.7749870045
 20
136.3514548693
 30
0.0
  0
VERTEX
  5
6BD
  8
0
  6
CONTINUOUS
 62
     7
 10
152.0264291985
 20
136.5516668711
 30
0.0
  0
SEQEND
  5
735
  8
0
  6
CONTINUOUS
 62
     7
  0
ARC
  5
372
  8
0
  6
CONTINUOUS
 62
     7
 10
346.8667473348
 20
165.051666886
 30
0.0
 40
197.9589603933098
 50
190.1836756944
 51
192.3973974679
  0
LINE
  5
373
  8
0
  6
CONTINUOUS
 62
     7
 10
153.5237872822
 20
122.5516664389
 30
0.0
 11
151.4345327241
 21
122.5516664389
 31
0.0
  0
LINE
  5
374
  8
0
  6
CONTINUOUS
 62
     7
 10
153.5237872822
 20
193.5516669009
 30
0.0
 11
162.9068398697
 21
193.5516669009
 31
0.0
  0
LINE
  5
375
  8
0
  6
CONTINUOUS
 62
     7
 10
153.5237872822
 20
136.5516668711
 30
0.0
 11
162.9068398697
 21
136.5516668711
 31
0.0
  0
LINE
  5
376
  8
0
  6
CONTINUOUS
 62
     7
 10
149.1068372352
 20
202.5516683761
 30
0.0
 11
149.1068372352
 21
127.5516653959
 31
0.0
  0
LINE
  5
377
  8
0
  6
CONTINUOUS
 62
     7
 10
152.0264291985
 20
200.051667035
 30
0.0
 11
162.9068398697
 21
200.051667035
 31
0.0
  0
LINE
  5
378
  8
0
  6
CONTINUOUS
 62
     7
 10
152.0264291985
 20
130.051666737
 30
0.0
 11
162.9068398697
 21
130.051666737
 31
0.0
  0
LINE
  5
379
  8
0
  6
CONTINUOUS
 62
     7
 10
153.5237872822
 20
207.551667333
 30
0.0
 11
162.9068398697
 21
207.551667333
 31
0.0
  0
LINE
  5
37A
  8
0
  6
CONTINUOUS
 62
     7
 10
153.5237872822
 20
122.5516664389
 30
0.0
 11
162.9068398697
 21
122.5516664389
 31
0.0
  0
LINE
  5
37B
  8
0
  6
CONTINUOUS
 62
     7
 10
146.9068372471
 20
171.1516667683
 30
0.0
 11
146.4068362339
 21
171.1516667683
 31
0.0
  0
LINE
  5
37C
  8
0
  6
CONTINUOUS
 62
     7
 10
146.9068372471
 20
171.1516667683
 30
0.0
 11
146.9068372471
 21
158.9516670037
 31
0.0
  0
LINE
  5
37D
  8
0
  6
CONTINUOUS
 62
     7
 10
146.4068362339
 20
158.9516670037
 30
0.0
 11
146.4068362339
 21
171.1516667683
 31
0.0
  0
LINE
  5
37E
  8
0
  6
CONTINUOUS
 62
     7
 10
146.9068372471
 20
158.9516670037
 30
0.0
 11
146.4068362339
 21
158.9516670037
 31
0.0
  0
LINE
  5
37F
  8
0
  6
CONTINUOUS
 62
     7
 10
149.1068372352
 20
171.1516667683
 30
0.0
 11
146.9068372471
 21
171.1516667683
 31
0.0
  0
LINE
  5
380
  8
0
  6
CONTINUOUS
 62
     7
 10
149.1068372352
 20
158.9516670037
 30
0.0
 11
146.9068372471
 21
158.9516670037
 31
0.0
  0
LINE
  5
381
  8
0
  6
CONTINUOUS
 62
     7
 10
146.2654167635
 20
161.0766666535
 30
0.0
 11
146.2654167635
 21
167.0766669385
 31
0.0
  0
LINE
  5
382
  8
0
  6
CONTINUOUS
 62
     7
 10
146.4068362339
 20
167.0766669385
 30
0.0
 11
146.2654167635
 21
167.0766669385
 31
0.0
  0
LINE
  5
383
  8
0
  6
CONTINUOUS
 62
     7
 10
146.2654167635
 20
161.0766666535
 30
0.0
 11
146.4068362339
 21
161.0766666535
 31
0.0
  0
LINE
  5
384
  8
0
  6
CONTINUOUS
 62
     7
 10
146.2068402989
 20
158.9516670037
 30
0.0
 11
146.2068402989
 21
171.1516667683
 31
0.0
  0
LINE
  5
385
  8
0
  6
CONTINUOUS
 62
     7
 10
146.4068362339
 20
171.1516667683
 30
0.0
 11
146.2068402989
 21
171.1516667683
 31
0.0
  0
LINE
  5
386
  8
0
  6
CONTINUOUS
 62
     7
 10
146.4068362339
 20
158.9516670037
 30
0.0
 11
146.2068402989
 21
158.9516670037
 31
0.0
  0
LINE
  5
387
  8
0
  6
CONTINUOUS
 62
     7
 10
265.1068373898
 20
295.755609319
 30
0.0
 11
263.1068372948
 21
295.755609319
 31
0.0
  0
LINE
  5
388
  8
0
  6
CONTINUOUS
 62
     7
 10
263.1068372948
 20
235.7556106601
 30
0.0
 11
265.1068373898
 21
235.7556106601
 31
0.0
  0
LINE
  5
389
  8
0
  6
CONTINUOUS
 62
     7
 10
300.1068377717
 20
272.7556102056
 30
0.0
 11
265.1068373898
 21
272.7556102056
 31
0.0
  0
LINE
  5
38A
  8
0
  6
CONTINUOUS
 62
     7
 10
265.1068373898
 20
258.7556097735
 30
0.0
 11
300.1068377717
 21
258.7556097735
 31
0.0
  0
LINE
  5
38B
  8
0
  6
CONTINUOUS
 62
     7
 10
178.8068407996
 20
321.2556107048
 30
0.0
 11
178.8068407996
 21
528.6556048397
 31
0.0
  0
LINE
  5
38C
  8
0
  6
CONTINUOUS
 62
     7
 10
170.8068394883
 20
528.6556048397
 30
0.0
 11
170.8068394883
 21
321.2556107048
 31
0.0
  0
ARC
  5
38D
  8
0
  6
CONTINUOUS
 62
     7
 10
346.8667473348
 20
265.7556099895
 30
0.0
 40
200.0
 50
191.8189919667
 51
192.268898996
  0
LINE
  5
38E
  8
0
  6
CONTINUOUS
 62
     7
 10
149.1068372352
 20
228.2556084994
 30
0.0
 11
151.1068338377
 21
224.7915094796
 31
0.0
  0
LINE
  5
38F
  8
0
  6
CONTINUOUS
 62
     7
 10
158.6068341358
 20
321.2556107048
 30
0.0
 11
158.6068341358
 21
564.7556049827
 31
0.0
  0
LINE
  5
390
  8
0
  6
CONTINUOUS
 62
     7
 10
152.6068368776
 20
564.7556049827
 30
0.0
 11
152.6068368776
 21
321.2556107048
 31
0.0
  0
LINE
  5
391
  8
0
  6
CONTINUOUS
 62
     7
 10
194.3401092513
 20
313.2393783037
 30
0.0
 11
182.0595929248
 21
319.2298760716
 31
0.0
  0
LINE
  5
392
  8
0
  6
CONTINUOUS
 62
     7
 10
169.5568406804
 20
319.255610377
 30
0.0
 11
165.8068368061
 21
319.255610377
 31
0.0
  0
LINE
  5
393
  8
0
  6
CONTINUOUS
 62
     7
 10
182.0068353636
 20
319.255610377
 30
0.0
 11
179.991758786
 21
319.255610377
 31
0.0
  0
LINE
  5
394
  8
0
  6
CONTINUOUS
 62
     7
 10
180.0568396075
 20
319.2499889139
 30
0.0
 11
180.0568396075
 21
321.2556107048
 31
0.0
  0
LINE
  5
395
  8
0
  6
CONTINUOUS
 62
     7
 10
169.5568406804
 20
321.2556107048
 30
0.0
 11
169.5568406804
 21
319.255610377
 31
0.0
  0
ARC
  5
396
  8
0
  6
CONTINUOUS
 62
     7
 10
178.8068372948
 20
553.1556099895
 30
0.0
 40
0.5000000000001137
 50
0.0
 51
90.0
  0
ARC
  5
397
  8
0
  6
CONTINUOUS
 62
     7
 10
170.8068372948
 20
553.1556099895
 30
0.0
 40
0.5000000000001137
 50
90.0
 51
180.0
  0
LINE
  5
398
  8
0
  6
CONTINUOUS
 62
     7
 10
179.3068343623
 20
528.6556048397
 30
0.0
 11
179.3068343623
 21
553.1556172375
 31
0.0
  0
LINE
  5
399
  8
0
  6
CONTINUOUS
 62
     7
 10
170.306838475
 20
553.1556172375
 30
0.0
 11
170.306838475
 21
528.6556048397
 31
0.0
  0
ARC
  5
39A
  8
0
  6
CONTINUOUS
 62
     7
 10
178.8068372948
 20
554.1556099895
 30
0.0
 40
0.5
 50
180.0
 51
270.0
  0
ARC
  5
39B
  8
0
  6
CONTINUOUS
 62
     7
 10
170.8068372948
 20
554.1556099895
 30
0.0
 40
0.5
 50
270.0
 51
0.0
  0
LINE
  5
39C
  8
0
  6
CONTINUOUS
 62
     7
 10
178.3068397863
 20
554.1556043629
 30
0.0
 11
178.3068397863
 21
568.655596495
 31
0.0
  0
LINE
  5
39D
  8
0
  6
CONTINUOUS
 62
     7
 10
171.3068405015
 20
568.655596495
 30
0.0
 11
171.3068405015
 21
554.1556043629
 31
0.0
  0
POLYLINE
  5
39E
  8
0
  6
CONTINUOUS
 62
     7
 66
     1
 10
0.0
 20
0.0
 30
0.0
 70
   128
  0
VERTEX
  5
6BE
  8
0
  6
CONTINUOUS
 62
     7
 10
170.4774046166
 20
588.6556072239
 30
0.0
  0
VERTEX
  5
6BF
  8
0
  6
CONTINUOUS
 62
     7
 10
171.5016806347
 20
580.1535410885
 30
0.0
  0
VERTEX
  5
6C0
  8
0
  6
CONTINUOUS
 62
     7
 10
172.8813046439
 20
568.655596495
 30
0.0
  0
SEQEND
  5
736
  8
0
  6
CONTINUOUS
 62
     7
  0
POLYLINE
  5
39F
  8
0
  6
CONTINUOUS
 62
     7
 66
     1
 10
0.0
 20
0.0
 30
0.0
 70
   128
  0
VERTEX
  5
6C1
  8
0
  6
CONTINUOUS
 62
     7
 10
174.3812331779
 20
568.655596495
 30
0.0
  0
VERTEX
  5
6C2
  8
0
  6
CONTINUOUS
 62
     7
 10
173.2364216669
 20
578.1576795582
 30
0.0
  0
VERTEX
  5
6C3
  8
0
  6
CONTINUOUS
 62
     7
 10
171.9767371042
 20
588.6556072239
 30
0.0
  0
SEQEND
  5
737
  8
0
  6
CONTINUOUS
 62
     7
  0
POLYLINE
  5
3A0
  8
0
  6
CONTINUOUS
 62
     7
 66
     1
 10
0.0
 20
0.0
 30
0.0
 70
   128
  0
VERTEX
  5
6C4
  8
0
  6
CONTINUOUS
 62
     7
 10
176.7324054463
 20
568.655596495
 30
0.0
  0
VERTEX
  5
6C5
  8
0
  6
CONTINUOUS
 62
     7
 10
178.3256301506
 20
578.1576795582
 30
0.0
  0
VERTEX
  5
6C6
  8
0
  6
CONTINUOUS
 62
     7
 10
180.0887504442
 20
588.6556072239
 30
0.0
  0
SEQEND
  5
738
  8
0
  6
CONTINUOUS
 62
     7
  0
POLYLINE
  5
3A1
  8
0
  6
CONTINUOUS
 62
     7
 66
     1
 10
0.0
 20
0.0
 30
0.0
 70
   128
  0
VERTEX
  5
6C7
  8
0
  6
CONTINUOUS
 62
     7
 10
178.5892912967
 20
588.6556072239
 30
0.0
  0
VERTEX
  5
6C8
  8
0
  6
CONTINUOUS
 62
     7
 10
177.1636301501
 20
580.1535410885
 30
0.0
  0
VERTEX
  5
6C9
  8
0
  6
CONTINUOUS
 62
     7
 10
175.232409857
 20
568.655596495
 30
0.0
  0
SEQEND
  5
739
  8
0
  6
CONTINUOUS
 62
     7
  0
POLYLINE
  5
3A2
  8
0
  6
CONTINUOUS
 62
     7
 66
     1
 10
0.0
 20
0.0
 30
0.0
 70
   128
  0
VERTEX
  5
6CA
  8
0
  6
CONTINUOUS
 62
     7
 10
170.4455384834
 20
588.6556072239
 30
0.0
  0
VERTEX
  5
6CB
  8
0
  6
CONTINUOUS
 62
     7
 10
171.3343107922
 20
578.6287052635
 30
0.0
  0
VERTEX
  5
6CC
  8
0
  6
CONTINUOUS
 62
     7
 10
171.5748825891
 20
575.7808549408
 30
0.0
  0
VERTEX
  5
6CD
  8
0
  6
CONTINUOUS
 62
     7
 10
172.1548581345
 20
568.655596495
 30
0.0
  0
SEQEND
  5
73A
  8
0
  6
CONTINUOUS
 62
     7
  0
POLYLINE
  5
3A3
  8
0
  6
CONTINUOUS
 62
     7
 66
     1
 10
0.0
 20
0.0
 30
0.0
 70
   128
  0
VERTEX
  5
6CE
  8
0
  6
CONTINUOUS
 62
     7
 10
177.4589488132
 20
568.655596495
 30
0.0
  0
VERTEX
  5
6CF
  8
0
  6
CONTINUOUS
 62
     7
 10
178.7241542561
 20
578.1576795582
 30
0.0
  0
VERTEX
  5
6D0
  8
0
  6
CONTINUOUS
 62
     7
 10
180.1234701498
 20
588.6556072239
 30
0.0
  0
SEQEND
  5
73B
  8
0
  6
CONTINUOUS
 62
     7
  0
POLYLINE
  5
3A4
  8
0
  6
CONTINUOUS
 62
     7
 66
     1
 10
0.0
 20
0.0
 30
0.0
 70
   128
  0
VERTEX
  5
6D1
  8
0
  6
CONTINUOUS
 62
     7
 10
175.6079787238
 20
570.8916349415
 30
0.0
  0
VERTEX
  5
6D2
  8
0
  6
CONTINUOUS
 62
     7
 10
175.7757061942
 20
578.1576795582
 30
0.0
  0
VERTEX
  5
6D3
  8
0
  6
CONTINUOUS
 62
     7
 10
176.0323861463
 20
588.6556072239
 30
0.0
  0
SEQEND
  5
73C
  8
0
  6
CONTINUOUS
 62
     7
  0
POLYLINE
  5
3A5
  8
0
  6
CONTINUOUS
 62
     7
 66
     1
 10
0.0
 20
0.0
 30
0.0
 70
   128
  0
VERTEX
  5
6D4
  8
0
  6
CONTINUOUS
 62
     7
 10
174.5338061674
 20
588.6556072239
 30
0.0
  0
VERTEX
  5
6D5
  8
0
  6
CONTINUOUS
 62
     7
 10
174.337975107
 20
580.1535410885
 30
0.0
  0
VERTEX
  5
6D6
  8
0
  6
CONTINUOUS
 62
     7
 10
174.1118872387
 20
570.891217709
 30
0.0
  0
SEQEND
  5
73D
  8
0
  6
CONTINUOUS
 62
     7
  0
LINE
  5
3A6
  8
0
  6
CONTINUOUS
 62
     7
 10
150.606840275
 20
319.255610377
 30
0.0
 11
149.6068382485
 21
319.255610377
 31
0.0
  0
LINE
  5
3A7
  8
0
  6
CONTINUOUS
 62
     7
 10
161.6068402154
 20
319.255610377
 30
0.0
 11
160.5449387653
 21
319.255610377
 31
0.0
  0
LINE
  5
3A8
  8
0
  6
CONTINUOUS
 62
     7
 10
160.6068381889
 20
319.2505179051
 30
0.0
 11
160.6068381889
 21
321.2556107048
 31
0.0
  0
LINE
  5
3A9
  8
0
  6
CONTINUOUS
 62
     7
 10
150.606840275
 20
321.2556107048
 30
0.0
 11
150.606840275
 21
319.255610377
 31
0.0
  0
LINE
  5
3AA
  8
0
  6
CONTINUOUS
 62
     7
 10
253.1068375183
 20
308.2556104366
 30
0.0
 11
263.1068372948
 21
308.2556104366
 31
0.0
  0
LINE
  5
3AB
  8
0
  6
CONTINUOUS
 62
     7
 10
263.1068372948
 20
308.2556104366
 30
0.0
 11
263.1068372948
 21
300.055609465
 31
0.0
  0
LINE
  5
3AC
  8
0
  6
CONTINUOUS
 62
     7
 10
263.1068372948
 20
300.055609465
 30
0.0
 11
253.1068375183
 21
300.055609465
 31
0.0
  0
LINE
  5
3AD
  8
0
  6
CONTINUOUS
 62
     7
 10
253.1068375183
 20
300.055609465
 30
0.0
 11
253.1068375183
 21
308.2556104366
 31
0.0
  0
LINE
  5
3AE
  8
0
  6
CONTINUOUS
 62
     7
 10
253.1068375183
 20
231.4556105141
 30
0.0
 11
263.1068372948
 21
231.4556105141
 31
0.0
  0
LINE
  5
3AF
  8
0
  6
CONTINUOUS
 62
     7
 10
253.1068375183
 20
231.4556105141
 30
0.0
 11
253.1068375183
 21
246.7556106005
 31
0.0
  0
LINE
  5
3B0
  8
0
  6
CONTINUOUS
 62
     7
 10
253.1068375183
 20
246.7556106005
 30
0.0
 11
246.7068372144
 21
246.7556106005
 31
0.0
  0
LINE
  5
3B1
  8
0
  6
CONTINUOUS
 62
     7
 10
253.1068375183
 20
284.7556093786
 30
0.0
 11
246.7068372144
 21
284.7556093786
 31
0.0
  0
LINE
  5
3B2
  8
0
  6
CONTINUOUS
 62
     7
 10
263.1068372948
 20
300.055609465
 30
0.0
 11
263.1068372948
 21
231.4556105141
 31
0.0
  0
LINE
  5
3B3
  8
0
  6
CONTINUOUS
 62
     7
 10
246.7068372144
 20
246.7556106005
 30
0.0
 11
246.7068372144
 21
284.7556093786
 31
0.0
  0
LINE
  5
3B4
  8
0
  6
CONTINUOUS
 62
     7
 10
253.1068375183
 20
300.055609465
 30
0.0
 11
253.1068375183
 21
284.7556093786
 31
0.0
  0
LINE
  5
3B5
  8
0
  6
CONTINUOUS
 62
     7
 10
253.1068375183
 20
294.2556100044
 30
0.0
 11
246.7068372144
 21
294.2556100044
 31
0.0
  0
LINE
  5
3B6
  8
0
  6
CONTINUOUS
 62
     7
 10
246.7068372144
 20
284.7556093786
 30
0.0
 11
246.7068372144
 21
294.2556100044
 31
0.0
  0
LINE
  5
3B7
  8
0
  6
CONTINUOUS
 62
     7
 10
253.1068375183
 20
237.2556099746
 30
0.0
 11
246.7068372144
 21
237.2556099746
 31
0.0
  0
LINE
  5
3B8
  8
0
  6
CONTINUOUS
 62
     7
 10
246.7068372144
 20
246.7556106005
 30
0.0
 11
246.7068372144
 21
237.2556099746
 31
0.0
  0
LINE
  5
3B9
  8
0
  6
CONTINUOUS
 62
     7
 10
263.1068372948
 20
223.2556095425
 30
0.0
 11
253.1068375183
 21
223.2556095425
 31
0.0
  0
LINE
  5
3BA
  8
0
  6
CONTINUOUS
 62
     7
 10
253.1068375183
 20
223.2556095425
 30
0.0
 11
253.1068375183
 21
231.4556105141
 31
0.0
  0
LINE
  5
3BB
  8
0
  6
CONTINUOUS
 62
     7
 10
263.1068372948
 20
231.4556105141
 30
0.0
 11
263.1068372948
 21
223.2556095425
 31
0.0
  0
LINE
  5
3BC
  8
0
  6
CONTINUOUS
 62
     7
 10
253.1068375183
 20
300.7556101385
 30
0.0
 11
246.7068372144
 21
300.7556101385
 31
0.0
  0
LINE
  5
3BD
  8
0
  6
CONTINUOUS
 62
     7
 10
246.7068372144
 20
294.2556100044
 30
0.0
 11
246.7068372144
 21
300.7556101385
 31
0.0
  0
LINE
  5
3BE
  8
0
  6
CONTINUOUS
 62
     7
 10
253.1068375183
 20
230.7556098405
 30
0.0
 11
246.7068372144
 21
230.7556098405
 31
0.0
  0
LINE
  5
3BF
  8
0
  6
CONTINUOUS
 62
     7
 10
246.7068372144
 20
237.2556099746
 30
0.0
 11
246.7068372144
 21
230.7556098405
 31
0.0
  0
LINE
  5
3C0
  8
0
  6
CONTINUOUS
 62
     7
 10
265.1068373898
 20
265.7556099895
 30
0.0
 11
265.1068373898
 21
235.7556106601
 31
0.0
  0
LINE
  5
3C1
  8
0
  6
CONTINUOUS
 62
     7
 10
265.1068373898
 20
295.755609319
 30
0.0
 11
265.1068373898
 21
265.7556099895
 31
0.0
  0
LINE
  5
3C2
  8
0
  6
CONTINUOUS
 62
     7
 10
253.1068375183
 20
306.2363242809
 30
0.0
 11
246.7068372144
 21
306.2363242809
 31
0.0
  0
LINE
  5
3C3
  8
0
  6
CONTINUOUS
 62
     7
 10
253.1068375183
 20
308.2556104366
 30
0.0
 11
246.7068372144
 21
308.2556104366
 31
0.0
  0
LINE
  5
3C4
  8
0
  6
CONTINUOUS
 62
     7
 10
246.7068372144
 20
306.2363242809
 30
0.0
 11
246.7068372144
 21
308.2556104366
 31
0.0
  0
LINE
  5
3C5
  8
0
  6
CONTINUOUS
 62
     7
 10
246.7068372144
 20
300.7556101385
 30
0.0
 11
246.7068372144
 21
306.2363242809
 31
0.0
  0
LINE
  5
3C6
  8
0
  6
CONTINUOUS
 62
     7
 10
253.1068375183
 20
225.2748956982
 30
0.0
 11
246.7068372144
 21
225.2748956982
 31
0.0
  0
LINE
  5
3C7
  8
0
  6
CONTINUOUS
 62
     7
 10
246.7068372144
 20
230.7556098405
 30
0.0
 11
246.7068372144
 21
225.2748956982
 31
0.0
  0
LINE
  5
3C8
  8
0
  6
CONTINUOUS
 62
     7
 10
253.1068375183
 20
223.2556095425
 30
0.0
 11
246.7068372144
 21
223.2556095425
 31
0.0
  0
LINE
  5
3C9
  8
0
  6
CONTINUOUS
 62
     7
 10
246.7068372144
 20
225.2748956982
 30
0.0
 11
246.7068372144
 21
223.2556095425
 31
0.0
  0
LINE
  5
3CA
  8
0
  6
CONTINUOUS
 62
     7
 10
300.1068377717
 20
265.7556099895
 30
0.0
 11
300.1068377717
 21
258.7556097735
 31
0.0
  0
LINE
  5
3CB
  8
0
  6
CONTINUOUS
 62
     7
 10
300.1068377717
 20
272.7556102056
 30
0.0
 11
300.1068377717
 21
265.7556099895
 31
0.0
  0
LINE
  5
3CC
  8
0
  6
CONTINUOUS
 62
     7
 10
183.906837724
 20
284.7556093786
 30
0.0
 11
246.7068372144
 21
284.7556093786
 31
0.0
  0
LINE
  5
3CD
  8
0
  6
CONTINUOUS
 62
     7
 10
246.7068372144
 20
294.2556100044
 30
0.0
 11
183.906837724
 21
294.2556100044
 31
0.0
  0
LINE
  5
3CE
  8
0
  6
CONTINUOUS
 62
     7
 10
183.906837724
 20
294.2556100044
 30
0.0
 11
183.906837724
 21
284.7556093786
 31
0.0
  0
LINE
  5
3CF
  8
0
  6
CONTINUOUS
 62
     7
 10
183.906837724
 20
246.7556106005
 30
0.0
 11
246.7068372144
 21
246.7556106005
 31
0.0
  0
LINE
  5
3D0
  8
0
  6
CONTINUOUS
 62
     7
 10
183.906837724
 20
246.7556106005
 30
0.0
 11
183.906837724
 21
284.7556093786
 31
0.0
  0
LINE
  5
3D1
  8
0
  6
CONTINUOUS
 62
     7
 10
246.7068372144
 20
237.2556099746
 30
0.0
 11
183.906837724
 21
237.2556099746
 31
0.0
  0
LINE
  5
3D2
  8
0
  6
CONTINUOUS
 62
     7
 10
183.906837724
 20
237.2556099746
 30
0.0
 11
183.906837724
 21
246.7556106005
 31
0.0
  0
LINE
  5
3D3
  8
0
  6
CONTINUOUS
 62
     7
 10
246.7068372144
 20
300.7556101385
 30
0.0
 11
183.906837724
 21
300.7556101385
 31
0.0
  0
LINE
  5
3D4
  8
0
  6
CONTINUOUS
 62
     7
 10
183.906837724
 20
300.7556101385
 30
0.0
 11
183.906837724
 21
294.2556100044
 31
0.0
  0
LINE
  5
3D5
  8
0
  6
CONTINUOUS
 62
     7
 10
246.7068372144
 20
230.7556098405
 30
0.0
 11
183.906837724
 21
230.7556098405
 31
0.0
  0
LINE
  5
3D6
  8
0
  6
CONTINUOUS
 62
     7
 10
183.906837724
 20
230.7556098405
 30
0.0
 11
183.906837724
 21
237.2556099746
 31
0.0
  0
LINE
  5
3D7
  8
0
  6
CONTINUOUS
 62
     7
 10
246.7068372144
 20
306.2363242809
 30
0.0
 11
183.906837724
 21
306.2363242809
 31
0.0
  0
LINE
  5
3D8
  8
0
  6
CONTINUOUS
 62
     7
 10
246.7068372144
 20
308.2556104366
 30
0.0
 11
183.906837724
 21
308.2556104366
 31
0.0
  0
LINE
  5
3D9
  8
0
  6
CONTINUOUS
 62
     7
 10
183.906837724
 20
308.2556104366
 30
0.0
 11
183.906837724
 21
306.2363242809
 31
0.0
  0
LINE
  5
3DA
  8
0
  6
CONTINUOUS
 62
     7
 10
183.906837724
 20
306.2363242809
 30
0.0
 11
183.906837724
 21
300.7556101385
 31
0.0
  0
LINE
  5
3DB
  8
0
  6
CONTINUOUS
 62
     7
 10
246.7068372144
 20
225.2748956982
 30
0.0
 11
183.906837724
 21
225.2748956982
 31
0.0
  0
LINE
  5
3DC
  8
0
  6
CONTINUOUS
 62
     7
 10
183.906837724
 20
225.2748956982
 30
0.0
 11
183.906837724
 21
230.7556098405
 31
0.0
  0
LINE
  5
3DD
  8
0
  6
CONTINUOUS
 62
     7
 10
246.7068372144
 20
223.2556095425
 30
0.0
 11
183.906837724
 21
223.2556095425
 31
0.0
  0
LINE
  5
3DE
  8
0
  6
CONTINUOUS
 62
     7
 10
183.906837724
 20
223.2556095425
 30
0.0
 11
183.906837724
 21
225.2748956982
 31
0.0
  0
LINE
  5
3DF
  8
0
  6
CONTINUOUS
 62
     7
 10
166.4068395121
 20
294.2556100044
 30
0.0
 11
183.906837724
 21
284.7556093786
 31
0.0
  0
LINE
  5
3E0
  8
0
  6
CONTINUOUS
 62
     7
 10
166.4068395121
 20
237.2556099746
 30
0.0
 11
183.906837724
 21
246.7556106005
 31
0.0
  0
LINE
  5
3E1
  8
0
  6
CONTINUOUS
 62
     7
 10
166.4068395121
 20
237.2556099746
 30
0.0
 11
162.9068398697
 21
237.2556099746
 31
0.0
  0
LINE
  5
3E2
  8
0
  6
CONTINUOUS
 62
     7
 10
166.4068395121
 20
294.2556100044
 30
0.0
 11
162.9068398697
 21
294.2556100044
 31
0.0
  0
LINE
  5
3E3
  8
0
  6
CONTINUOUS
 62
     7
 10
162.9068398697
 20
237.2556099746
 30
0.0
 11
162.9068398697
 21
294.2556100044
 31
0.0
  0
LINE
  5
3E4
  8
0
  6
CONTINUOUS
 62
     7
 10
183.906837724
 20
294.2556100044
 30
0.0
 11
166.4068395121
 21
294.2556100044
 31
0.0
  0
LINE
  5
3E5
  8
0
  6
CONTINUOUS
 62
     7
 10
183.906837724
 20
237.2556099746
 30
0.0
 11
166.4068395121
 21
237.2556099746
 31
0.0
  0
LINE
  5
3E6
  8
0
  6
CONTINUOUS
 62
     7
 10
162.9068398697
 20
300.7556101385
 30
0.0
 11
183.906837724
 21
300.7556101385
 31
0.0
  0
LINE
  5
3E7
  8
0
  6
CONTINUOUS
 62
     7
 10
162.9068398697
 20
300.7556101385
 30
0.0
 11
162.9068398697
 21
294.2556100044
 31
0.0
  0
LINE
  5
3E8
  8
0
  6
CONTINUOUS
 62
     7
 10
162.9068398697
 20
230.7556098405
 30
0.0
 11
183.906837724
 21
230.7556098405
 31
0.0
  0
LINE
  5
3E9
  8
0
  6
CONTINUOUS
 62
     7
 10
162.9068398697
 20
230.7556098405
 30
0.0
 11
162.9068398697
 21
237.2556099746
 31
0.0
  0
LINE
  5
3EA
  8
0
  6
CONTINUOUS
 62
     7
 10
166.4068395121
 20
308.2556104366
 30
0.0
 11
183.906837724
 21
306.2363242809
 31
0.0
  0
LINE
  5
3EB
  8
0
  6
CONTINUOUS
 62
     7
 10
166.4068395121
 20
308.2556104366
 30
0.0
 11
183.906837724
 21
308.2556104366
 31
0.0
  0
LINE
  5
3EC
  8
0
  6
CONTINUOUS
 62
     7
 10
162.9068398697
 20
308.2556104366
 30
0.0
 11
166.4068395121
 21
308.2556104366
 31
0.0
  0
LINE
  5
3ED
  8
0
  6
CONTINUOUS
 62
     7
 10
162.9068398697
 20
308.2556104366
 30
0.0
 11
162.9068398697
 21
300.7556101385
 31
0.0
  0
LINE
  5
3EE
  8
0
  6
CONTINUOUS
 62
     7
 10
166.4068395121
 20
223.2556095425
 30
0.0
 11
183.906837724
 21
225.2748956982
 31
0.0
  0
LINE
  5
3EF
  8
0
  6
CONTINUOUS
 62
     7
 10
162.9068398697
 20
223.2556095425
 30
0.0
 11
166.4068395121
 21
223.2556095425
 31
0.0
  0
LINE
  5
3F0
  8
0
  6
CONTINUOUS
 62
     7
 10
162.9068398697
 20
223.2556095425
 30
0.0
 11
162.9068398697
 21
230.7556098405
 31
0.0
  0
LINE
  5
3F1
  8
0
  6
CONTINUOUS
 62
     7
 10
166.4068395121
 20
223.2556095425
 30
0.0
 11
183.906837724
 21
223.2556095425
 31
0.0
  0
LINE
  5
3F2
  8
0
  6
CONTINUOUS
 62
     7
 10
151.1068338377
 20
304.5176429752
 30
0.0
 11
151.1068338377
 21
224.7915094796
 31
0.0
  0
ARC
  5
3F3
  8
0
  6
CONTINUOUS
 62
     7
 10
346.8667473348
 20
265.7556099895
 30
0.0
 40
199.5606110934721
 50
167.7036655404
 51
168.7998518644
  0
LINE
  5
3F4
  8
0
  6
CONTINUOUS
 62
     7
 10
153.5237872822
 20
308.2556104366
 30
0.0
 11
151.8842125161
 21
308.2556104366
 31
0.0
  0
ARC
  5
3F5
  8
0
  6
CONTINUOUS
 62
     7
 10
346.8667473348
 20
265.7556099895
 30
0.0
 40
197.9589603933099
 50
167.6026025321
 51
169.8163243056
  0
POLYLINE
  5
3F6
  8
0
  6
CONTINUOUS
 62
     7
 66
     1
 10
0.0
 20
0.0
 30
0.0
 70
   128
  0
VERTEX
  5
6D7
  8
0
  6
CONTINUOUS
 62
     7
 10
152.0264291985
 20
294.2556100044
 30
0.0
  0
VERTEX
  5
6D8
  8
0
  6
CONTINUOUS
 62
     7
 10
151.7101222498
 20
294.6098534468
 30
0.0
  0
VERTEX
  5
6D9
  8
0
  6
CONTINUOUS
 62
     7
 10
151.5550384147
 20
295.646186367
 30
0.0
  0
VERTEX
  5
6DA
  8
0
  6
CONTINUOUS
 62
     7
 10
151.5798339469
 20
297.2226938311
 30
0.0
  0
VERTEX
  5
6DB
  8
0
  6
CONTINUOUS
 62
     7
 10
151.7749870045
 20
299.1547746662
 30
0.0
  0
VERTEX
  5
6DC
  8
0
  6
CONTINUOUS
 62
     7
 10
152.0264291985
 20
300.7556101385
 30
0.0
  0
SEQEND
  5
73E
  8
0
  6
CONTINUOUS
 62
     7
  0
LINE
  5
3F7
  8
0
  6
CONTINUOUS
 62
     7
 10
153.5237872822
 20
294.2556100044
 30
0.0
 11
152.0264291985
 21
294.2556100044
 31
0.0
  0
ARC
  5
3F8
  8
0
  6
CONTINUOUS
 62
     7
 10
346.8667473348
 20
265.7556099895
 30
0.0
 40
195.4322133119308
 50
171.6146187429
 51
188.3853812571
  0
LINE
  5
3F9
  8
0
  6
CONTINUOUS
 62
     7
 10
152.0264291985
 20
237.2556099746
 30
0.0
 11
153.5237872822
 21
237.2556099746
 31
0.0
  0
POLYLINE
  5
3FA
  8
0
  6
CONTINUOUS
 62
     7
 66
     1
 10
0.0
 20
0.0
 30
0.0
 70
   128
  0
VERTEX
  5
6DD
  8
0
  6
CONTINUOUS
 62
     7
 10
152.0264291985
 20
230.7556098405
 30
0.0
  0
VERTEX
  5
6DE
  8
0
  6
CONTINUOUS
 62
     7
 10
151.7101222498
 20
232.8721335236
 30
0.0
  0
VERTEX
  5
6DF
  8
0
  6
CONTINUOUS
 62
     7
 10
151.5550384147
 20
234.7735440437
 30
0.0
  0
VERTEX
  5
6E0
  8
0
  6
CONTINUOUS
 62
     7
 10
151.5798339469
 20
236.2116606984
 30
0.0
  0
VERTEX
  5
6E1
  8
0
  6
CONTINUOUS
 62
     7
 10
151.7749870045
 20
237.0553979728
 30
0.0
  0
VERTEX
  5
6E2
  8
0
  6
CONTINUOUS
 62
     7
 10
152.0264291985
 20
237.2556099746
 30
0.0
  0
SEQEND
  5
73F
  8
0
  6
CONTINUOUS
 62
     7
  0
ARC
  5
3FB
  8
0
  6
CONTINUOUS
 62
     7
 10
346.8667473348
 20
265.7556099895
 30
0.0
 40
197.9589603933099
 50
190.1836756944
 51
192.3973974679
  0
LINE
  5
3FC
  8
0
  6
CONTINUOUS
 62
     7
 10
151.4345327241
 20
223.2556095425
 30
0.0
 11
153.5237872822
 21
223.2556095425
 31
0.0
  0
LINE
  5
3FD
  8
0
  6
CONTINUOUS
 62
     7
 10
153.5237872822
 20
294.2556100044
 30
0.0
 11
162.9068398697
 21
294.2556100044
 31
0.0
  0
LINE
  5
3FE
  8
0
  6
CONTINUOUS
 62
     7
 10
153.5237872822
 20
237.2556099746
 30
0.0
 11
162.9068398697
 21
237.2556099746
 31
0.0
  0
LINE
  5
3FF
  8
0
  6
CONTINUOUS
 62
     7
 10
149.1068372352
 20
300.8367655877
 30
0.0
 11
149.1068372352
 21
228.2556084994
 31
0.0
  0
POLYLINE
  5
400
  8
0
  6
CONTINUOUS
 62
     7
 66
     1
 10
0.0
 20
0.0
 30
0.0
 70
   128
  0
VERTEX
  5
6E3
  8
0
  6
CONTINUOUS
 62
     7
 10
149.1068372352
 20
300.8367655877
 30
0.0
  0
VERTEX
  5
6E4
  8
0
  6
CONTINUOUS
 62
     7
 10
150.8753890021
 20
304.0937421922
 30
0.0
  0
VERTEX
  5
6E5
  8
0
  6
CONTINUOUS
 62
     7
 10
151.1068338377
 20
304.5176429752
 30
0.0
  0
SEQEND
  5
740
  8
0
  6
CONTINUOUS
 62
     7
  0
LINE
  5
401
  8
0
  6
CONTINUOUS
 62
     7
 10
152.0264291985
 20
300.7556101385
 30
0.0
 11
162.9068398697
 21
300.7556101385
 31
0.0
  0
LINE
  5
402
  8
0
  6
CONTINUOUS
 62
     7
 10
152.0264291985
 20
230.7556098405
 30
0.0
 11
162.9068398697
 21
230.7556098405
 31
0.0
  0
LINE
  5
403
  8
0
  6
CONTINUOUS
 62
     7
 10
153.5237872822
 20
308.2556104366
 30
0.0
 11
162.9068398697
 21
308.2556104366
 31
0.0
  0
LINE
  5
404
  8
0
  6
CONTINUOUS
 62
     7
 10
153.5237872822
 20
223.2556095425
 30
0.0
 11
162.9068398697
 21
223.2556095425
 31
0.0
  0
LINE
  5
405
  8
0
  6
CONTINUOUS
 62
     7
 10
151.8842125161
 20
308.2556104366
 30
0.0
 11
149.1068372352
 21
308.2556104366
 31
0.0
  0
LINE
  5
406
  8
0
  6
CONTINUOUS
 62
     7
 10
149.1068372352
 20
308.2556104366
 30
0.0
 11
149.1068372352
 21
300.8367655877
 31
0.0
  0
LINE
  5
407
  8
0
  6
CONTINUOUS
 62
     7
 10
182.0068353636
 20
319.255610377
 30
0.0
 11
182.0068353636
 21
317.7171362642
 31
0.0
  0
LINE
  5
408
  8
0
  6
CONTINUOUS
 62
     7
 10
194.3068349583
 20
313.1711719636
 30
0.0
 11
194.3068349583
 21
312.4987533394
 31
0.0
  0
POLYLINE
  5
409
  8
0
  6
CONTINUOUS
 62
     7
 66
     1
 10
0.0
 20
0.0
 30
0.0
 70
   128
  0
VERTEX
  5
6E6
  8
0
  6
CONTINUOUS
 62
     7
 10
190.3068343027
 20
313.6683566574
 30
0.0
  0
VERTEX
  5
6E7
  8
0
  6
CONTINUOUS
 62
     7
 10
191.6659990175
 20
313.0597969595
 30
0.0
  0
VERTEX
  5
6E8
  8
0
  6
CONTINUOUS
 62
     7
 10
192.9145151598
 20
312.6111937765
 30
0.0
  0
VERTEX
  5
6E9
  8
0
  6
CONTINUOUS
 62
     7
 10
193.7786483986
 20
312.4034864906
 30
0.0
  0
VERTEX
  5
6EA
  8
0
  6
CONTINUOUS
 62
     7
 10
194.2230904324
 20
312.4032890502
 30
0.0
  0
VERTEX
  5
6EB
  8
0
  6
CONTINUOUS
 62
     7
 10
194.3068349583
 20
312.4987533394
 30
0.0
  0
SEQEND
  5
741
  8
0
  6
CONTINUOUS
 62
     7
  0
LINE
  5
40A
  8
0
  6
CONTINUOUS
 62
     7
 10
190.3068343027
 20
313.6683566574
 30
0.0
 11
182.0068353636
 21
317.7171362642
 31
0.0
  0
LINE
  5
40B
  8
0
  6
CONTINUOUS
 62
     7
 10
194.3068349583
 20
312.4987533394
 30
0.0
 11
194.3068349583
 21
308.2556104366
 31
0.0
  0
LINE
  5
40C
  8
0
  6
CONTINUOUS
 62
     7
 10
190.3068343027
 20
308.2556104366
 30
0.0
 11
190.3068343027
 21
313.6683566574
 31
0.0
  0
LINE
  5
40D
  8
0
  6
CONTINUOUS
 62
     7
 10
182.0068353636
 20
317.7171362642
 30
0.0
 11
165.8068368061
 21
317.7171362642
 31
0.0
  0
POLYLINE
  5
40E
  8
0
  6
CONTINUOUS
 62
     7
 66
     1
 10
0.0
 20
0.0
 30
0.0
 70
   128
  0
VERTEX
  5
6EC
  8
0
  6
CONTINUOUS
 62
     7
 10
169.5568406804
 20
319.255610377
 30
0.0
  0
VERTEX
  5
6ED
  8
0
  6
CONTINUOUS
 62
     7
 10
169.8514664395
 20
319.2305466238
 30
0.0
  0
VERTEX
  5
6EE
  8
0
  6
CONTINUOUS
 62
     7
 10
170.7015627844
 20
319.1663002673
 30
0.0
  0
VERTEX
  5
6EF
  8
0
  6
CONTINUOUS
 62
     7
 10
172.0150628908
 20
319.090647072
 30
0.0
  0
VERTEX
  5
6F0
  8
0
  6
CONTINUOUS
 62
     7
 10
173.6464047654
 20
319.0367458466
 30
0.0
  0
VERTEX
  5
6F1
  8
0
  6
CONTINUOUS
 62
     7
 10
175.4050919635
 20
319.0284757022
 30
0.0
  0
VERTEX
  5
6F2
  8
0
  6
CONTINUOUS
 62
     7
 10
177.0916351898
 20
319.0691335205
 30
0.0
  0
VERTEX
  5
6F3
  8
0
  6
CONTINUOUS
 62
     7
 10
178.5236144288
 20
319.1409347657
 30
0.0
  0
VERTEX
  5
6F4
  8
0
  6
CONTINUOUS
 62
     7
 10
179.5416692121
 20
319.2127285603
 30
0.0
  0
VERTEX
  5
6F5
  8
0
  6
CONTINUOUS
 62
     7
 10
180.0256812794
 20
319.252890915
 30
0.0
  0
VERTEX
  5
6F6
  8
0
  6
CONTINUOUS
 62
     7
 10
179.991758786
 20
319.2499702874
 30
0.0
  0
SEQEND
  5
742
  8
0
  6
CONTINUOUS
 62
     7
  0
LINE
  5
40F
  8
0
  6
CONTINUOUS
 62
     7
 10
165.8068368061
 20
317.7171362642
 30
0.0
 11
165.8068368061
 21
319.255610377
 31
0.0
  0
LINE
  5
410
  8
0
  6
CONTINUOUS
 62
     7
 10
165.8068368061
 20
317.7171362642
 30
0.0
 11
165.8068368061
 21
308.2556104366
 31
0.0
  0
LINE
  5
411
  8
0
  6
CONTINUOUS
 62
     7
 10
180.0568396075
 20
321.2556107048
 30
0.0
 11
169.5568406804
 21
321.2556107048
 31
0.0
  0
LINE
  5
412
  8
0
  6
CONTINUOUS
 62
     7
 10
168.4068361146
 20
588.6556072239
 30
0.0
 11
182.2068387492
 21
588.6556072239
 31
0.0
  0
LINE
  5
413
  8
0
  6
CONTINUOUS
 62
     7
 10
182.2068387492
 20
589.6556241516
 30
0.0
 11
168.4068361146
 21
589.6556241516
 31
0.0
  0
LINE
  5
414
  8
0
  6
CONTINUOUS
 62
     7
 10
182.2068387492
 20
588.6556072239
 30
0.0
 11
182.2068387492
 21
589.6556241516
 31
0.0
  0
LINE
  5
415
  8
0
  6
CONTINUOUS
 62
     7
 10
168.4068361146
 20
588.6556072239
 30
0.0
 11
168.4068361146
 21
589.6556241516
 31
0.0
  0
LINE
  5
416
  8
0
  6
CONTINUOUS
 62
     7
 10
179.7568345292
 20
589.6556241516
 30
0.0
 11
179.7568345292
 21
599.3556244377
 31
0.0
  0
LINE
  5
417
  8
0
  6
CONTINUOUS
 62
     7
 10
179.2568409665
 20
599.3556244377
 30
0.0
 11
179.2568409665
 21
589.6556241516
 31
0.0
  0
LINE
  5
418
  8
0
  6
CONTINUOUS
 62
     7
 10
179.2568409665
 20
599.3556244377
 30
0.0
 11
179.7568345292
 21
599.3556244377
 31
0.0
  0
LINE
  5
419
  8
0
  6
CONTINUOUS
 62
     7
 10
179.2068401201
 20
599.3556244377
 30
0.0
 11
179.2068401201
 21
589.6556241516
 31
0.0
  0
LINE
  5
41A
  8
0
  6
CONTINUOUS
 62
     7
 10
178.7068391068
 20
599.3556244377
 30
0.0
 11
178.7068391068
 21
589.6556241516
 31
0.0
  0
LINE
  5
41B
  8
0
  6
CONTINUOUS
 62
     7
 10
178.7068391068
 20
599.3556244377
 30
0.0
 11
179.2068401201
 21
599.3556244377
 31
0.0
  0
LINE
  5
41C
  8
0
  6
CONTINUOUS
 62
     7
 10
175.8318388684
 20
589.6556241516
 30
0.0
 11
175.8318388684
 21
599.3556244377
 31
0.0
  0
LINE
  5
41D
  8
0
  6
CONTINUOUS
 62
     7
 10
175.3318378551
 20
589.6556241516
 30
0.0
 11
175.3318378551
 21
599.3556244377
 31
0.0
  0
LINE
  5
41E
  8
0
  6
CONTINUOUS
 62
     7
 10
175.3318378551
 20
599.3556244377
 30
0.0
 11
175.8318388684
 21
599.3556244377
 31
0.0
  0
LINE
  5
41F
  8
0
  6
CONTINUOUS
 62
     7
 10
175.2818370087
 20
599.3556244377
 30
0.0
 11
175.2818370087
 21
589.6556241516
 31
0.0
  0
LINE
  5
420
  8
0
  6
CONTINUOUS
 62
     7
 10
174.7818359954
 20
599.3556244377
 30
0.0
 11
174.7818359954
 21
589.6556241516
 31
0.0
  0
LINE
  5
421
  8
0
  6
CONTINUOUS
 62
     7
 10
174.7818359954
 20
599.3556244377
 30
0.0
 11
175.2818370087
 21
599.3556244377
 31
0.0
  0
LINE
  5
422
  8
0
  6
CONTINUOUS
 62
     7
 10
180.3068363888
 20
589.6556241516
 30
0.0
 11
180.3068363888
 21
599.3556244377
 31
0.0
  0
LINE
  5
423
  8
0
  6
CONTINUOUS
 62
     7
 10
179.8068353755
 20
589.6556241516
 30
0.0
 11
179.8068353755
 21
599.3556244377
 31
0.0
  0
LINE
  5
424
  8
0
  6
CONTINUOUS
 62
     7
 10
179.8068353755
 20
599.3556244377
 30
0.0
 11
180.3068363888
 21
599.3556244377
 31
0.0
  0
LINE
  5
425
  8
0
  6
CONTINUOUS
 62
     7
 10
171.3568338974
 20
599.3556244377
 30
0.0
 11
171.3568338974
 21
589.6556241516
 31
0.0
  0
LINE
  5
426
  8
0
  6
CONTINUOUS
 62
     7
 10
170.8568403347
 20
599.3556244377
 30
0.0
 11
170.8568403347
 21
589.6556241516
 31
0.0
  0
LINE
  5
427
  8
0
  6
CONTINUOUS
 62
     7
 10
171.3568338974
 20
599.3556244377
 30
0.0
 11
170.8568403347
 21
599.3556244377
 31
0.0
  0
LINE
  5
428
  8
0
  6
CONTINUOUS
 62
     7
 10
174.7818359954
 20
599.3556244377
 30
0.0
 11
171.3568338974
 21
599.3556244377
 31
0.0
  0
LINE
  5
429
  8
0
  6
CONTINUOUS
 62
     7
 10
182.2068387492
 20
599.3556244377
 30
0.0
 11
180.3068363888
 21
599.3556244377
 31
0.0
  0
LINE
  5
42A
  8
0
  6
CONTINUOUS
 62
     7
 10
182.2068387492
 20
599.3556244377
 30
0.0
 11
182.2068387492
 21
589.6556241516
 31
0.0
  0
LINE
  5
42B
  8
0
  6
CONTINUOUS
 62
     7
 10
179.7568345292
 20
599.3556244377
 30
0.0
 11
179.8068353755
 21
599.3556244377
 31
0.0
  0
LINE
  5
42C
  8
0
  6
CONTINUOUS
 62
     7
 10
179.2068401201
 20
599.3556244377
 30
0.0
 11
179.2568409665
 21
599.3556244377
 31
0.0
  0
LINE
  5
42D
  8
0
  6
CONTINUOUS
 62
     7
 10
178.7068391068
 20
599.3556244377
 30
0.0
 11
175.8318388684
 21
599.3556244377
 31
0.0
  0
LINE
  5
42E
  8
0
  6
CONTINUOUS
 62
     7
 10
175.2818370087
 20
599.3556244377
 30
0.0
 11
175.3318378551
 21
599.3556244377
 31
0.0
  0
LINE
  5
42F
  8
0
  6
CONTINUOUS
 62
     7
 10
168.4068361146
 20
599.3556244377
 30
0.0
 11
170.8568403347
 21
599.3556244377
 31
0.0
  0
LINE
  5
430
  8
0
  6
CONTINUOUS
 62
     7
 10
168.4068361146
 20
599.3556244377
 30
0.0
 11
168.4068361146
 21
589.6556241516
 31
0.0
  0
LINE
  5
431
  8
0
  6
CONTINUOUS
 62
     7
 10
178.806833349
 20
553.6556108002
 30
0.0
 11
170.8068394883
 21
553.6556108002
 31
0.0
  0
LINE
  5
432
  8
0
  6
CONTINUOUS
 62
     7
 10
179.3068343623
 20
528.6556048397
 30
0.0
 11
170.306838475
 21
528.6556048397
 31
0.0
  0
LINE
  5
433
  8
0
  6
CONTINUOUS
 62
     7
 10
172.8068360908
 20
599.3556244377
 30
0.0
 11
172.8068360908
 21
608.2556111816
 31
0.0
  0
LINE
  5
434
  8
0
  6
CONTINUOUS
 62
     7
 10
169.4068381412
 20
608.2556111816
 30
0.0
 11
169.4068381412
 21
599.3556244377
 31
0.0
  0
LINE
  5
435
  8
0
  6
CONTINUOUS
 62
     7
 10
169.4068381412
 20
608.2556111816
 30
0.0
 11
172.8068360908
 21
608.2556111816
 31
0.0
  0
LINE
  5
436
  8
0
  6
CONTINUOUS
 62
     7
 10
178.5568365676
 20
599.3556244377
 30
0.0
 11
178.5568365676
 21
608.2556111816
 31
0.0
  0
LINE
  5
437
  8
0
  6
CONTINUOUS
 62
     7
 10
177.806838773
 20
608.2556111816
 30
0.0
 11
177.806838773
 21
599.3556244377
 31
0.0
  0
LINE
  5
438
  8
0
  6
CONTINUOUS
 62
     7
 10
178.5568365676
 20
608.2556111816
 30
0.0
 11
177.806838773
 21
608.2556111816
 31
0.0
  0
LINE
  5
439
  8
0
  6
CONTINUOUS
 62
     7
 10
181.2068367226
 20
599.3556244377
 30
0.0
 11
181.2068367226
 21
608.2556111816
 31
0.0
  0
LINE
  5
43A
  8
0
  6
CONTINUOUS
 62
     7
 10
180.456838928
 20
608.2556111816
 30
0.0
 11
180.456838928
 21
599.3556244377
 31
0.0
  0
LINE
  5
43B
  8
0
  6
CONTINUOUS
 62
     7
 10
180.456838928
 20
608.2556111816
 30
0.0
 11
181.2068367226
 21
608.2556111816
 31
0.0
  0
LINE
  5
43C
  8
0
  6
CONTINUOUS
 62
     7
 10
178.5568365676
 20
608.2556111816
 30
0.0
 11
180.456838928
 21
608.2556111816
 31
0.0
  0
LINE
  5
43D
  8
0
  6
CONTINUOUS
 62
     7
 10
174.356839977
 20
599.3556244377
 30
0.0
 11
174.356839977
 21
608.2556111816
 31
0.0
  0
LINE
  5
43E
  8
0
  6
CONTINUOUS
 62
     7
 10
173.6068347318
 20
608.2556111816
 30
0.0
 11
173.6068347318
 21
599.3556244377
 31
0.0
  0
LINE
  5
43F
  8
0
  6
CONTINUOUS
 62
     7
 10
174.356839977
 20
608.2556111816
 30
0.0
 11
173.6068347318
 21
608.2556111816
 31
0.0
  0
LINE
  5
440
  8
0
  6
CONTINUOUS
 62
     7
 10
176.2568348868
 20
608.2556111816
 30
0.0
 11
176.2568348868
 21
599.3556244377
 31
0.0
  0
LINE
  5
441
  8
0
  6
CONTINUOUS
 62
     7
 10
174.356839977
 20
608.2556111816
 30
0.0
 11
176.2568348868
 21
608.2556111816
 31
0.0
  0
LINE
  5
442
  8
0
  6
CONTINUOUS
 62
     7
 10
177.006840132
 20
599.3556244377
 30
0.0
 11
177.006840132
 21
608.2556111816
 31
0.0
  0
LINE
  5
443
  8
0
  6
CONTINUOUS
 62
     7
 10
176.2568348868
 20
608.2556111816
 30
0.0
 11
177.006840132
 21
608.2556111816
 31
0.0
  0
LINE
  5
444
  8
0
  6
CONTINUOUS
 62
     7
 10
171.3068405015
 20
568.655596495
 30
0.0
 11
178.3068397863
 21
568.655596495
 31
0.0
  0
LINE
  5
445
  8
0
  6
CONTINUOUS
 62
     7
 10
161.6068402154
 20
317.8303478364
 30
0.0
 11
149.6068382485
 21
317.8303478364
 31
0.0
  0
LINE
  5
446
  8
0
  6
CONTINUOUS
 62
     7
 10
149.6068382485
 20
317.8303478364
 30
0.0
 11
149.6068382485
 21
319.255610377
 31
0.0
  0
LINE
  5
447
  8
0
  6
CONTINUOUS
 62
     7
 10
161.6068402154
 20
317.8303478364
 30
0.0
 11
161.6068402154
 21
319.255610377
 31
0.0
  0
POLYLINE
  5
448
  8
0
  6
CONTINUOUS
 62
     7
 66
     1
 10
0.0
 20
0.0
 30
0.0
 70
   128
  0
VERTEX
  5
6F7
  8
0
  6
CONTINUOUS
 62
     7
 10
150.606840275
 20
319.255610377
 30
0.0
  0
VERTEX
  5
6F8
  8
0
  6
CONTINUOUS
 62
     7
 10
150.8875558002
 20
319.2328674797
 30
0.0
  0
VERTEX
  5
6F9
  8
0
  6
CONTINUOUS
 62
     7
 10
151.697560571
 20
319.1745741371
 30
0.0
  0
VERTEX
  5
6FA
  8
0
  6
CONTINUOUS
 62
     7
 10
152.9487887247
 20
319.1059654657
 30
0.0
  0
VERTEX
  5
6FB
  8
0
  6
CONTINUOUS
 62
     7
 10
154.502361439
 20
319.0571120087
 30
0.0
  0
VERTEX
  5
6FC
  8
0
  6
CONTINUOUS
 62
     7
 10
156.1774531229
 20
319.0496353511
 30
0.0
  0
VERTEX
  5
6FD
  8
0
  6
CONTINUOUS
 62
     7
 10
157.7841559274
 20
319.0865455273
 30
0.0
  0
VERTEX
  5
6FE
  8
0
  6
CONTINUOUS
 62
     7
 10
159.1479996068
 20
319.1516859535
 30
0.0
  0
VERTEX
  5
6FF
  8
0
  6
CONTINUOUS
 62
     7
 10
160.1170221193
 20
319.2167779509
 30
0.0
  0
VERTEX
  5
700
  8
0
  6
CONTINUOUS
 62
     7
 10
160.5773487909
 20
319.2531591359
 30
0.0
  0
VERTEX
  5
701
  8
0
  6
CONTINUOUS
 62
     7
 10
160.5449387653
 20
319.250503004
 30
0.0
  0
SEQEND
  5
743
  8
0
  6
CONTINUOUS
 62
     7
  0
LINE
  5
449
  8
0
  6
CONTINUOUS
 62
     7
 10
149.6068382485
 20
317.8303478364
 30
0.0
 11
149.6068382485
 21
308.2556104366
 31
0.0
  0
LINE
  5
44A
  8
0
  6
CONTINUOUS
 62
     7
 10
161.6068402154
 20
317.8303478364
 30
0.0
 11
161.6068402154
 21
308.2556104366
 31
0.0
  0
LINE
  5
44B
  8
0
  6
CONTINUOUS
 62
     7
 10
160.6068381889
 20
321.2556107048
 30
0.0
 11
150.606840275
 21
321.2556107048
 31
0.0
  0
LINE
  5
44C
  8
0
  6
CONTINUOUS
 62
     7
 10
146.4068362339
 20
565.2555985454
 30
0.0
 11
146.4068362339
 21
569.4905085567
 31
0.0
  0
ARC
  5
44D
  8
0
  6
CONTINUOUS
 62
     7
 10
151.4068372948
 20
569.4905082045
 30
0.0
 40
5.000000000000704
 50
131.2570117043
 51
180.0
  0
LINE
  5
44E
  8
0
  6
CONTINUOUS
 62
     7
 10
148.1096515281
 20
573.2492966656
 30
0.0
 11
149.1154128535
 21
574.1315646175
 31
0.0
  0
LINE
  5
44F
  8
0
  6
CONTINUOUS
 62
     7
 10
149.1154128535
 20
574.1315646175
 30
0.0
 11
149.1154128535
 21
579.2555971149
 31
0.0
  0
LINE
  5
450
  8
0
  6
CONTINUOUS
 62
     7
 10
149.1154128535
 20
579.2555971149
 30
0.0
 11
147.1154162509
 21
581.255601168
 31
0.0
  0
LINE
  5
451
  8
0
  6
CONTINUOUS
 62
     7
 10
147.1154162509
 20
581.255601168
 30
0.0
 11
146.2068402989
 21
581.255601168
 31
0.0
  0
LINE
  5
452
  8
0
  6
CONTINUOUS
 62
     7
 10
146.2068402989
 20
581.255601168
 30
0.0
 11
146.2068402989
 21
597.7555973533
 31
0.0
  0
LINE
  5
453
  8
0
  6
CONTINUOUS
 62
     7
 10
146.2068402989
 20
597.7555973533
 30
0.0
 11
165.006838165
 21
597.7555973533
 31
0.0
  0
LINE
  5
454
  8
0
  6
CONTINUOUS
 62
     7
 10
165.006838165
 20
597.7555973533
 30
0.0
 11
165.006838165
 21
581.255601168
 31
0.0
  0
LINE
  5
455
  8
0
  6
CONTINUOUS
 62
     7
 10
165.006838165
 20
581.255601168
 30
0.0
 11
164.098262213
 21
581.255601168
 31
0.0
  0
LINE
  5
456
  8
0
  6
CONTINUOUS
 62
     7
 10
164.098262213
 20
581.255601168
 30
0.0
 11
162.0982581599
 21
579.2555971149
 31
0.0
  0
LINE
  5
457
  8
0
  6
CONTINUOUS
 62
     7
 10
162.0982581599
 20
579.2555971149
 30
0.0
 11
162.0982581599
 21
574.1315646175
 31
0.0
  0
LINE
  5
458
  8
0
  6
CONTINUOUS
 62
     7
 10
162.0982581599
 20
574.1315646175
 30
0.0
 11
163.1040269358
 21
573.2492966656
 31
0.0
  0
ARC
  5
459
  8
0
  6
CONTINUOUS
 62
     7
 10
159.8068372948
 20
569.4905082045
 30
0.0
 40
5.000000000001233
 50
0.0
 51
48.7429882957
  0
LINE
  5
45A
  8
0
  6
CONTINUOUS
 62
     7
 10
164.8068347795
 20
569.4905085567
 30
0.0
 11
164.8068347795
 21
565.2555985454
 31
0.0
  0
ARC
  5
45B
  8
0
  6
CONTINUOUS
 62
     7
 10
164.3068372948
 20
565.2556099895
 30
0.0
 40
0.5000000000001137
 50
270.0
 51
0.0
  0
LINE
  5
45C
  8
0
  6
CONTINUOUS
 62
     7
 10
164.3068337662
 20
564.7556049827
 30
0.0
 11
146.9068372471
 21
564.7556049827
 31
0.0
  0
ARC
  5
45D
  8
0
  6
CONTINUOUS
 62
     7
 10
146.9068372948
 20
565.2556099895
 30
0.0
 40
0.5000000000001137
 50
180.0
 51
270.0
  0
LINE
  5
45E
  8
0
  6
CONTINUOUS
 62
     7
 10
149.9568367226
 20
608.2556111816
 30
0.0
 11
149.9568367226
 21
597.7555973533
 31
0.0
  0
LINE
  5
45F
  8
0
  6
CONTINUOUS
 62
     7
 10
149.9568367226
 20
608.2556111816
 30
0.0
 11
150.3568360431
 21
608.2556111816
 31
0.0
  0
LINE
  5
460
  8
0
  6
CONTINUOUS
 62
     7
 10
150.3568360431
 20
608.2556111816
 30
0.0
 11
150.3568360431
 21
597.7555973533
 31
0.0
  0
LINE
  5
461
  8
0
  6
CONTINUOUS
 62
     7
 10
150.3568360431
 20
608.2556111816
 30
0.0
 11
159.2568376882
 21
608.2556111816
 31
0.0
  0
LINE
  5
462
  8
0
  6
CONTINUOUS
 62
     7
 10
159.2568376882
 20
608.2556111816
 30
0.0
 11
159.2568376882
 21
597.7555973533
 31
0.0
  0
LINE
  5
463
  8
0
  6
CONTINUOUS
 62
     7
 10
159.2568376882
 20
608.2556111816
 30
0.0
 11
159.9604705198
 21
608.2556111816
 31
0.0
  0
LINE
  5
464
  8
0
  6
CONTINUOUS
 62
     7
 10
159.9604705198
 20
608.2556111816
 30
0.0
 11
159.9604705198
 21
597.7555973533
 31
0.0
  0
LINE
  5
465
  8
0
  6
CONTINUOUS
 62
     7
 10
161.1382881029
 20
608.2556111816
 30
0.0
 11
161.1382881029
 21
597.7555973533
 31
0.0
  0
LINE
  5
466
  8
0
  6
CONTINUOUS
 62
     7
 10
159.9604705198
 20
608.2556111816
 30
0.0
 11
161.1382881029
 21
608.2556111816
 31
0.0
  0
LINE
  5
467
  8
0
  6
CONTINUOUS
 62
     7
 10
146.2068402989
 20
602.1556122307
 30
0.0
 11
148.7068379147
 21
602.1556122307
 31
0.0
  0
LINE
  5
468
  8
0
  6
CONTINUOUS
 62
     7
 10
148.7068379147
 20
602.1556122307
 30
0.0
 11
148.7068379147
 21
597.7555973533
 31
0.0
  0
LINE
  5
469
  8
0
  6
CONTINUOUS
 62
     7
 10
146.2068402989
 20
597.7555973533
 30
0.0
 11
146.2068402989
 21
602.1556122307
 31
0.0
  0
LINE
  5
46A
  8
0
  6
CONTINUOUS
 62
     7
 10
162.5068405492
 20
597.7555973533
 30
0.0
 11
162.5068405492
 21
602.1556122307
 31
0.0
  0
LINE
  5
46B
  8
0
  6
CONTINUOUS
 62
     7
 10
162.5068405492
 20
602.1556122307
 30
0.0
 11
165.006838165
 21
602.1556122307
 31
0.0
  0
LINE
  5
46C
  8
0
  6
CONTINUOUS
 62
     7
 10
165.006838165
 20
602.1556122307
 30
0.0
 11
165.006838165
 21
597.7555973533
 31
0.0
  0
LINE
  5
46D
  8
0
  6
CONTINUOUS
 62
     7
 10
149.1154128535
 20
574.6556086544
 30
0.0
 11
148.715413533
 21
574.2556018833
 31
0.0
  0
LINE
  5
46E
  8
0
  6
CONTINUOUS
 62
     7
 10
148.715413533
 20
574.2556018833
 30
0.0
 11
147.6654181106
 21
574.2556018833
 31
0.0
  0
ARC
  5
46F
  8
0
  6
CONTINUOUS
 62
     7
 10
147.6654159386
 20
574.5556099895
 30
0.0
 40
0.3000000000000682
 50
180.0
 51
270.0
  0
LINE
  5
470
  8
0
  6
CONTINUOUS
 62
     7
 10
147.3654130323
 20
574.5556218628
 30
0.0
 11
147.3654130323
 21
575.1056237224
 31
0.0
  0
LINE
  5
471
  8
0
  6
CONTINUOUS
 62
     7
 10
147.3654130323
 20
575.1056237224
 30
0.0
 11
148.6154192908
 21
578.4056050781
 31
0.0
  0
LINE
  5
472
  8
0
  6
CONTINUOUS
 62
     7
 10
148.6154192908
 20
578.4056050781
 30
0.0
 11
148.6154192908
 21
578.9055986408
 31
0.0
  0
LINE
  5
473
  8
0
  6
CONTINUOUS
 62
     7
 10
148.6154192908
 20
578.9055986408
 30
0.0
 11
146.2654167635
 21
581.255601168
 31
0.0
  0
LINE
  5
474
  8
0
  6
CONTINUOUS
 62
     7
 10
162.5982591732
 20
578.4056050781
 30
0.0
 11
163.8482579811
 21
575.1056237224
 31
0.0
  0
LINE
  5
475
  8
0
  6
CONTINUOUS
 62
     7
 10
163.8482579811
 20
575.1056237224
 30
0.0
 11
163.8482579811
 21
574.5556218628
 31
0.0
  0
ARC
  5
476
  8
0
  6
CONTINUOUS
 62
     7
 10
163.5482586511
 20
574.5556099895
 30
0.0
 40
0.3000000000000682
 50
270.0
 51
0.0
  0
LINE
  5
477
  8
0
  6
CONTINUOUS
 62
     7
 10
163.5482603533
 20
574.2556018833
 30
0.0
 11
162.4982574804
 21
574.2556018833
 31
0.0
  0
LINE
  5
478
  8
0
  6
CONTINUOUS
 62
     7
 10
162.4982574804
 20
574.2556018833
 30
0.0
 11
162.0982581599
 21
574.6556086544
 31
0.0
  0
LINE
  5
479
  8
0
  6
CONTINUOUS
 62
     7
 10
164.9482617004
 20
581.255601168
 30
0.0
 11
162.5982591732
 21
578.9055986408
 31
0.0
  0
LINE
  5
47A
  8
0
  6
CONTINUOUS
 62
     7
 10
162.5982591732
 20
578.9055986408
 30
0.0
 11
162.5982591732
 21
578.4056050781
 31
0.0
  0
LINE
  5
47B
  8
0
  6
CONTINUOUS
 62
     7
 10
161.2568342907
 20
608.2556111816
 30
0.0
 11
161.2568342907
 21
597.7555973533
 31
0.0
  0
LINE
  5
47C
  8
0
  6
CONTINUOUS
 62
     7
 10
161.1382881029
 20
608.2556111816
 30
0.0
 11
161.2568342907
 21
608.2556111816
 31
0.0
  0
LINE
  5
47D
  8
0
  6
CONTINUOUS
 62
     7
 10
164.170227371
 20
575.1056237224
 30
0.0
 11
164.170227371
 21
574.5556218628
 31
0.0
  0
ARC
  5
47E
  8
0
  6
CONTINUOUS
 62
     7
 10
163.870228348
 20
574.5556099895
 30
0.0
 40
0.2999999999999829
 50
270.0
 51
0.0
  0
LINE
  5
47F
  8
0
  6
CONTINUOUS
 62
     7
 10
163.8482579811
 20
575.1056237224
 30
0.0
 11
164.170227371
 21
575.1056237224
 31
0.0
  0
LINE
  5
480
  8
0
  6
CONTINUOUS
 62
     7
 10
163.5482603533
 20
574.2556018833
 30
0.0
 11
163.8702297432
 21
574.2556018833
 31
0.0
  0
LINE
  5
481
  8
0
  6
CONTINUOUS
 62
     7
 10
147.0434436424
 20
574.5556218628
 30
0.0
 11
147.0434436424
 21
575.1056237224
 31
0.0
  0
LINE
  5
482
  8
0
  6
CONTINUOUS
 62
     7
 10
147.0434436424
 20
575.1056237224
 30
0.0
 11
147.3654130323
 21
575.1056237224
 31
0.0
  0
ARC
  5
483
  8
0
  6
CONTINUOUS
 62
     7
 10
147.3434462416
 20
574.5556099895
 30
0.0
 40
0.3000000000000398
 50
180.0
 51
270.0
  0
LINE
  5
484
  8
0
  6
CONTINUOUS
 62
     7
 10
147.3434487207
 20
574.2556018833
 30
0.0
 11
147.6654181106
 21
574.2556018833
 31
0.0
  0
LINE
  5
485
  8
0
  6
CONTINUOUS
 62
     7
 10
163.5262885911
 20
575.9556157593
 30
0.0
 11
163.8482579811
 21
575.9556157593
 31
0.0
  0
LINE
  5
486
  8
0
  6
CONTINUOUS
 62
     7
 10
163.8482579811
 20
575.9556157593
 30
0.0
 11
163.8482579811
 21
575.1056237224
 31
0.0
  0
LINE
  5
487
  8
0
  6
CONTINUOUS
 62
     7
 10
147.3654130323
 20
575.9556157593
 30
0.0
 11
147.6873824222
 21
575.9556157593
 31
0.0
  0
LINE
  5
488
  8
0
  6
CONTINUOUS
 62
     7
 10
147.3654130323
 20
575.1056237224
 30
0.0
 11
147.3654130323
 21
575.9556157593
 31
0.0
  0
LINE
  5
489
  8
0
  6
CONTINUOUS
 62
     7
 10
163.2043192012
 20
576.8056077961
 30
0.0
 11
163.5262885911
 21
576.8056077961
 31
0.0
  0
LINE
  5
48A
  8
0
  6
CONTINUOUS
 62
     7
 10
163.5262885911
 20
576.8056077961
 30
0.0
 11
163.5262885911
 21
575.9556157593
 31
0.0
  0
LINE
  5
48B
  8
0
  6
CONTINUOUS
 62
     7
 10
147.6873824222
 20
576.8056077961
 30
0.0
 11
148.0093518121
 21
576.8056077961
 31
0.0
  0
LINE
  5
48C
  8
0
  6
CONTINUOUS
 62
     7
 10
147.6873824222
 20
575.9556157593
 30
0.0
 11
147.6873824222
 21
576.8056077961
 31
0.0
  0
LINE
  5
48D
  8
0
  6
CONTINUOUS
 62
     7
 10
162.8823498113
 20
577.6555998329
 30
0.0
 11
163.2043192012
 21
577.6555998329
 31
0.0
  0
LINE
  5
48E
  8
0
  6
CONTINUOUS
 62
     7
 10
163.2043192012
 20
577.6555998329
 30
0.0
 11
163.2043192012
 21
576.8056077961
 31
0.0
  0
LINE
  5
48F
  8
0
  6
CONTINUOUS
 62
     7
 10
148.0093518121
 20
577.6555998329
 30
0.0
 11
148.3313286526
 21
577.6555998329
 31
0.0
  0
LINE
  5
490
  8
0
  6
CONTINUOUS
 62
     7
 10
148.0093518121
 20
576.8056077961
 30
0.0
 11
148.0093518121
 21
577.6555998329
 31
0.0
  0
LINE
  5
491
  8
0
  6
CONTINUOUS
 62
     7
 10
162.5982591732
 20
578.4056050781
 30
0.0
 11
162.8823498113
 21
578.4056050781
 31
0.0
  0
LINE
  5
492
  8
0
  6
CONTINUOUS
 62
     7
 10
162.8823498113
 20
577.6555998329
 30
0.0
 11
162.8823498113
 21
578.4056050781
 31
0.0
  0
LINE
  5
493
  8
0
  6
CONTINUOUS
 62
     7
 10
148.3313286526
 20
578.4056050781
 30
0.0
 11
148.3313286526
 21
577.6555998329
 31
0.0
  0
LINE
  5
494
  8
0
  6
CONTINUOUS
 62
     7
 10
148.3313286526
 20
578.4056050781
 30
0.0
 11
148.6154192908
 21
578.4056050781
 31
0.0
  0
LINE
  5
495
  8
0
  6
CONTINUOUS
 62
     8
 10
179.3068343623
 20
553.1556172375
 30
0.0
 11
170.306838475
 21
553.1556172375
 31
0.0
  0
LINE
  5
496
  8
0
  6
CONTINUOUS
 62
     8
 10
171.3068405015
 20
554.1556043629
 30
0.0
 11
178.3068397863
 21
554.1556043629
 31
0.0
  0
LINE
  5
497
  8
0
  6
CONTINUOUS
 62
     7
 10
265.1068373898
 20
723.6251210404
 30
0.0
 11
263.1068372948
 21
723.6251210404
 31
0.0
  0
LINE
  5
498
  8
0
  6
CONTINUOUS
 62
     7
 10
263.1068372948
 20
663.6251223815
 30
0.0
 11
265.1068373898
 21
663.6251223815
 31
0.0
  0
LINE
  5
499
  8
0
  6
CONTINUOUS
 62
     7
 10
300.1068377717
 20
700.625121927
 30
0.0
 11
265.1068373898
 21
700.625121927
 31
0.0
  0
LINE
  5
49A
  8
0
  6
CONTINUOUS
 62
     7
 10
265.1068373898
 20
686.6251214949
 30
0.0
 11
300.1068377717
 21
686.6251214949
 31
0.0
  0
ARC
  5
49B
  8
0
  6
CONTINUOUS
 62
     7
 10
346.8667473348
 20
693.6251217109
 30
0.0
 40
200.0
 50
191.8189919667
 51
192.268898996
  0
ARC
  5
49C
  8
0
  6
CONTINUOUS
 62
     7
 10
346.8667473348
 20
693.6251217109
 30
0.0
 40
200.0
 50
167.731101004
 51
168.1810080333
  0
LINE
  5
49D
  8
0
  6
CONTINUOUS
 62
     7
 10
151.1068338377
 20
734.5892222208
 30
0.0
 11
149.1068372352
 21
731.1251232011
 31
0.0
  0
LINE
  5
49E
  8
0
  6
CONTINUOUS
 62
     7
 10
149.1068372352
 20
656.1251202208
 30
0.0
 11
151.1068338377
 21
652.6610212011
 31
0.0
  0
LINE
  5
49F
  8
0
  6
CONTINUOUS
 62
     7
 10
174.3068391306
 20
707.1251220611
 30
0.0
 11
174.3068391306
 21
709.725122301
 31
0.0
  0
LINE
  5
4A0
  8
0
  6
CONTINUOUS
 62
     7
 10
167.3068398459
 20
709.725122301
 30
0.0
 11
167.3068398459
 21
707.1251220611
 31
0.0
  0
LINE
  5
4A1
  8
0
  6
CONTINUOUS
 62
     7
 10
183.7068343384
 20
707.1251220611
 30
0.0
 11
183.7068343384
 21
707.4251215515
 31
0.0
  0
LINE
  5
4A2
  8
0
  6
CONTINUOUS
 62
     7
 10
177.9068404658
 20
707.4251215515
 30
0.0
 11
177.9068404658
 21
707.1251220611
 31
0.0
  0
ARC
  5
4A3
  8
0
  6
CONTINUOUS
 62
     7
 10
168.6068372948
 20
710.8251217109
 30
0.0
 40
1.300000000000182
 50
90.0
 51
180.0
  0
LINE
  5
4A4
  8
0
  6
CONTINUOUS
 62
     7
 10
174.3068391306
 20
709.725122301
 30
0.0
 11
174.3068391306
 21
710.8251222951
 31
0.0
  0
LINE
  5
4A5
  8
0
  6
CONTINUOUS
 62
     7
 10
167.3068398459
 20
710.8251222951
 30
0.0
 11
167.3068398459
 21
709.725122301
 31
0.0
  0
ARC
  5
4A6
  8
0
  6
CONTINUOUS
 62
     7
 10
173.0068372948
 20
710.8251217109
 30
0.0
 40
1.300000000000182
 50
0.0
 51
90.0
  0
LINE
  5
4A7
  8
0
  6
CONTINUOUS
 62
     7
 10
253.1068375183
 20
736.125122158
 30
0.0
 11
263.1068372948
 21
736.125122158
 31
0.0
  0
LINE
  5
4A8
  8
0
  6
CONTINUOUS
 62
     7
 10
263.1068372948
 20
736.125122158
 30
0.0
 11
263.1068372948
 21
727.9251211864
 31
0.0
  0
LINE
  5
4A9
  8
0
  6
CONTINUOUS
 62
     7
 10
263.1068372948
 20
727.9251211864
 30
0.0
 11
253.1068375183
 21
727.9251211864
 31
0.0
  0
LINE
  5
4AA
  8
0
  6
CONTINUOUS
 62
     7
 10
253.1068375183
 20
727.9251211864
 30
0.0
 11
253.1068375183
 21
736.125122158
 31
0.0
  0
LINE
  5
4AB
  8
0
  6
CONTINUOUS
 62
     7
 10
253.1068375183
 20
659.3251222355
 30
0.0
 11
263.1068372948
 21
659.3251222355
 31
0.0
  0
LINE
  5
4AC
  8
0
  6
CONTINUOUS
 62
     7
 10
253.1068375183
 20
674.6251223219
 30
0.0
 11
253.1068375183
 21
659.3251222355
 31
0.0
  0
LINE
  5
4AD
  8
0
  6
CONTINUOUS
 62
     7
 10
253.1068375183
 20
674.6251223219
 30
0.0
 11
246.7068372144
 21
674.6251223219
 31
0.0
  0
LINE
  5
4AE
  8
0
  6
CONTINUOUS
 62
     7
 10
253.1068375183
 20
712.6251211
 30
0.0
 11
246.7068372144
 21
712.6251211
 31
0.0
  0
LINE
  5
4AF
  8
0
  6
CONTINUOUS
 62
     7
 10
253.1068375183
 20
712.6251211
 30
0.0
 11
253.1068375183
 21
727.9251211864
 31
0.0
  0
LINE
  5
4B0
  8
0
  6
CONTINUOUS
 62
     7
 10
246.7068372144
 20
712.6251211
 30
0.0
 11
246.7068372144
 21
674.6251223219
 31
0.0
  0
LINE
  5
4B1
  8
0
  6
CONTINUOUS
 62
     7
 10
263.1068372948
 20
727.9251211864
 30
0.0
 11
263.1068372948
 21
659.3251222355
 31
0.0
  0
LINE
  5
4B2
  8
0
  6
CONTINUOUS
 62
     7
 10
253.1068375183
 20
722.1251217258
 30
0.0
 11
246.7068372144
 21
722.1251217258
 31
0.0
  0
LINE
  5
4B3
  8
0
  6
CONTINUOUS
 62
     7
 10
246.7068372144
 20
722.1251217258
 30
0.0
 11
246.7068372144
 21
712.6251211
 31
0.0
  0
LINE
  5
4B4
  8
0
  6
CONTINUOUS
 62
     7
 10
253.1068375183
 20
665.125121696
 30
0.0
 11
246.7068372144
 21
665.125121696
 31
0.0
  0
LINE
  5
4B5
  8
0
  6
CONTINUOUS
 62
     7
 10
246.7068372144
 20
665.125121696
 30
0.0
 11
246.7068372144
 21
674.6251223219
 31
0.0
  0
LINE
  5
4B6
  8
0
  6
CONTINUOUS
 62
     7
 10
263.1068372948
 20
651.1251212639
 30
0.0
 11
253.1068375183
 21
651.1251212639
 31
0.0
  0
LINE
  5
4B7
  8
0
  6
CONTINUOUS
 62
     7
 10
253.1068375183
 20
651.1251212639
 30
0.0
 11
253.1068375183
 21
659.3251222355
 31
0.0
  0
LINE
  5
4B8
  8
0
  6
CONTINUOUS
 62
     7
 10
263.1068372948
 20
659.3251222355
 30
0.0
 11
263.1068372948
 21
651.1251212639
 31
0.0
  0
LINE
  5
4B9
  8
0
  6
CONTINUOUS
 62
     7
 10
253.1068375183
 20
728.62512186
 30
0.0
 11
246.7068372144
 21
728.62512186
 31
0.0
  0
LINE
  5
4BA
  8
0
  6
CONTINUOUS
 62
     7
 10
246.7068372144
 20
728.62512186
 30
0.0
 11
246.7068372144
 21
722.1251217258
 31
0.0
  0
LINE
  5
4BB
  8
0
  6
CONTINUOUS
 62
     7
 10
253.1068375183
 20
658.6251215619
 30
0.0
 11
246.7068372144
 21
658.6251215619
 31
0.0
  0
LINE
  5
4BC
  8
0
  6
CONTINUOUS
 62
     7
 10
246.7068372144
 20
658.6251215619
 30
0.0
 11
246.7068372144
 21
665.125121696
 31
0.0
  0
LINE
  5
4BD
  8
0
  6
CONTINUOUS
 62
     7
 10
265.1068373898
 20
723.6251210404
 30
0.0
 11
265.1068373898
 21
663.6251223815
 31
0.0
  0
LINE
  5
4BE
  8
0
  6
CONTINUOUS
 62
     7
 10
253.1068375183
 20
734.1058360023
 30
0.0
 11
246.7068372144
 21
734.1058360023
 31
0.0
  0
LINE
  5
4BF
  8
0
  6
CONTINUOUS
 62
     7
 10
253.1068375183
 20
736.125122158
 30
0.0
 11
246.7068372144
 21
736.125122158
 31
0.0
  0
LINE
  5
4C0
  8
0
  6
CONTINUOUS
 62
     7
 10
246.7068372144
 20
736.125122158
 30
0.0
 11
246.7068372144
 21
734.1058360023
 31
0.0
  0
LINE
  5
4C1
  8
0
  6
CONTINUOUS
 62
     7
 10
246.7068372144
 20
734.1058360023
 30
0.0
 11
246.7068372144
 21
728.62512186
 31
0.0
  0
LINE
  5
4C2
  8
0
  6
CONTINUOUS
 62
     7
 10
253.1068375183
 20
653.1444074196
 30
0.0
 11
246.7068372144
 21
653.1444074196
 31
0.0
  0
LINE
  5
4C3
  8
0
  6
CONTINUOUS
 62
     7
 10
246.7068372144
 20
653.1444074196
 30
0.0
 11
246.7068372144
 21
658.6251215619
 31
0.0
  0
LINE
  5
4C4
  8
0
  6
CONTINUOUS
 62
     7
 10
253.1068375183
 20
651.1251212639
 30
0.0
 11
246.7068372144
 21
651.1251212639
 31
0.0
  0
LINE
  5
4C5
  8
0
  6
CONTINUOUS
 62
     7
 10
246.7068372144
 20
651.1251212639
 30
0.0
 11
246.7068372144
 21
653.1444074196
 31
0.0
  0
LINE
  5
4C6
  8
0
  6
CONTINUOUS
 62
     7
 10
300.1068377717
 20
700.625121927
 30
0.0
 11
300.1068377717
 21
686.6251214949
 31
0.0
  0
LINE
  5
4C7
  8
0
  6
CONTINUOUS
 62
     7
 10
246.7068372144
 20
712.6251211
 30
0.0
 11
183.906837724
 21
712.6251211
 31
0.0
  0
LINE
  5
4C8
  8
0
  6
CONTINUOUS
 62
     7
 10
246.7068372144
 20
722.1251217258
 30
0.0
 11
183.906837724
 21
722.1251217258
 31
0.0
  0
LINE
  5
4C9
  8
0
  6
CONTINUOUS
 62
     7
 10
183.906837724
 20
712.6251211
 30
0.0
 11
183.906837724
 21
722.1251217258
 31
0.0
  0
LINE
  5
4CA
  8
0
  6
CONTINUOUS
 62
     7
 10
246.7068372144
 20
674.6251223219
 30
0.0
 11
183.906837724
 21
674.6251223219
 31
0.0
  0
LINE
  5
4CB
  8
0
  6
CONTINUOUS
 62
     7
 10
183.906837724
 20
712.6251211
 30
0.0
 11
183.906837724
 21
707.1251220611
 31
0.0
  0
LINE
  5
4CC
  8
0
  6
CONTINUOUS
 62
     7
 10
183.906837724
 20
680.1251213608
 30
0.0
 11
183.906837724
 21
674.6251223219
 31
0.0
  0
LINE
  5
4CD
  8
0
  6
CONTINUOUS
 62
     7
 10
246.7068372144
 20
665.125121696
 30
0.0
 11
183.906837724
 21
665.125121696
 31
0.0
  0
LINE
  5
4CE
  8
0
  6
CONTINUOUS
 62
     7
 10
183.906837724
 20
674.6251223219
 30
0.0
 11
183.906837724
 21
665.125121696
 31
0.0
  0
LINE
  5
4CF
  8
0
  6
CONTINUOUS
 62
     7
 10
246.7068372144
 20
728.62512186
 30
0.0
 11
183.906837724
 21
728.62512186
 31
0.0
  0
LINE
  5
4D0
  8
0
  6
CONTINUOUS
 62
     7
 10
183.906837724
 20
722.1251217258
 30
0.0
 11
183.906837724
 21
728.62512186
 31
0.0
  0
LINE
  5
4D1
  8
0
  6
CONTINUOUS
 62
     7
 10
246.7068372144
 20
658.6251215619
 30
0.0
 11
183.906837724
 21
658.6251215619
 31
0.0
  0
LINE
  5
4D2
  8
0
  6
CONTINUOUS
 62
     7
 10
183.906837724
 20
665.125121696
 30
0.0
 11
183.906837724
 21
658.6251215619
 31
0.0
  0
LINE
  5
4D3
  8
0
  6
CONTINUOUS
 62
     7
 10
246.7068372144
 20
734.1058360023
 30
0.0
 11
183.906837724
 21
734.1058360023
 31
0.0
  0
LINE
  5
4D4
  8
0
  6
CONTINUOUS
 62
     7
 10
183.906837724
 20
736.125122158
 30
0.0
 11
246.7068372144
 21
736.125122158
 31
0.0
  0
LINE
  5
4D5
  8
0
  6
CONTINUOUS
 62
     7
 10
183.906837724
 20
734.1058360023
 30
0.0
 11
183.906837724
 21
736.125122158
 31
0.0
  0
LINE
  5
4D6
  8
0
  6
CONTINUOUS
 62
     7
 10
183.906837724
 20
728.62512186
 30
0.0
 11
183.906837724
 21
734.1058360023
 31
0.0
  0
LINE
  5
4D7
  8
0
  6
CONTINUOUS
 62
     7
 10
246.7068372144
 20
653.1444074196
 30
0.0
 11
183.906837724
 21
653.1444074196
 31
0.0
  0
LINE
  5
4D8
  8
0
  6
CONTINUOUS
 62
     7
 10
183.906837724
 20
658.6251215619
 30
0.0
 11
183.906837724
 21
653.1444074196
 31
0.0
  0
LINE
  5
4D9
  8
0
  6
CONTINUOUS
 62
     7
 10
183.906837724
 20
651.1251212639
 30
0.0
 11
246.7068372144
 21
651.1251212639
 31
0.0
  0
LINE
  5
4DA
  8
0
  6
CONTINUOUS
 62
     7
 10
183.906837724
 20
653.1444074196
 30
0.0
 11
183.906837724
 21
651.1251212639
 31
0.0
  0
LINE
  5
4DB
  8
0
  6
CONTINUOUS
 62
     7
 10
166.4068395121
 20
665.125121696
 30
0.0
 11
183.906837724
 21
674.6251223219
 31
0.0
  0
LINE
  5
4DC
  8
0
  6
CONTINUOUS
 62
     7
 10
162.9068398697
 20
665.125121696
 30
0.0
 11
166.4068395121
 21
665.125121696
 31
0.0
  0
LINE
  5
4DD
  8
0
  6
CONTINUOUS
 62
     7
 10
162.9068398697
 20
722.1251217258
 30
0.0
 11
166.4068395121
 21
722.1251217258
 31
0.0
  0
LINE
  5
4DE
  8
0
  6
CONTINUOUS
 62
     7
 10
166.4068395121
 20
722.1251217258
 30
0.0
 11
183.906837724
 21
712.6251211
 31
0.0
  0
LINE
  5
4DF
  8
0
  6
CONTINUOUS
 62
     7
 10
162.9068398697
 20
722.1251217258
 30
0.0
 11
162.9068398697
 21
699.7251215932
 31
0.0
  0
LINE
  5
4E0
  8
0
  6
CONTINUOUS
 62
     7
 10
162.9068398697
 20
687.5251218287
 30
0.0
 11
162.9068398697
 21
665.125121696
 31
0.0
  0
LINE
  5
4E1
  8
0
  6
CONTINUOUS
 62
     7
 10
166.4068395121
 20
722.1251217258
 30
0.0
 11
183.906837724
 21
722.1251217258
 31
0.0
  0
LINE
  5
4E2
  8
0
  6
CONTINUOUS
 62
     7
 10
166.4068395121
 20
665.125121696
 30
0.0
 11
183.906837724
 21
665.125121696
 31
0.0
  0
LINE
  5
4E3
  8
0
  6
CONTINUOUS
 62
     7
 10
162.9068398697
 20
728.62512186
 30
0.0
 11
183.906837724
 21
728.62512186
 31
0.0
  0
LINE
  5
4E4
  8
0
  6
CONTINUOUS
 62
     7
 10
162.9068398697
 20
722.1251217258
 30
0.0
 11
162.9068398697
 21
728.62512186
 31
0.0
  0
LINE
  5
4E5
  8
0
  6
CONTINUOUS
 62
     7
 10
162.9068398697
 20
658.6251215619
 30
0.0
 11
183.906837724
 21
658.6251215619
 31
0.0
  0
LINE
  5
4E6
  8
0
  6
CONTINUOUS
 62
     7
 10
162.9068398697
 20
665.125121696
 30
0.0
 11
162.9068398697
 21
658.6251215619
 31
0.0
  0
LINE
  5
4E7
  8
0
  6
CONTINUOUS
 62
     7
 10
183.906837724
 20
734.1058360023
 30
0.0
 11
166.4068395121
 21
736.125122158
 31
0.0
  0
LINE
  5
4E8
  8
0
  6
CONTINUOUS
 62
     7
 10
166.4068395121
 20
736.125122158
 30
0.0
 11
183.906837724
 21
736.125122158
 31
0.0
  0
LINE
  5
4E9
  8
0
  6
CONTINUOUS
 62
     7
 10
166.4068395121
 20
736.125122158
 30
0.0
 11
162.9068398697
 21
736.125122158
 31
0.0
  0
LINE
  5
4EA
  8
0
  6
CONTINUOUS
 62
     7
 10
162.9068398697
 20
728.62512186
 30
0.0
 11
162.9068398697
 21
736.125122158
 31
0.0
  0
LINE
  5
4EB
  8
0
  6
CONTINUOUS
 62
     7
 10
183.906837724
 20
653.1444074196
 30
0.0
 11
166.4068395121
 21
651.1251212639
 31
0.0
  0
LINE
  5
4EC
  8
0
  6
CONTINUOUS
 62
     7
 10
166.4068395121
 20
651.1251212639
 30
0.0
 11
162.9068398697
 21
651.1251212639
 31
0.0
  0
LINE
  5
4ED
  8
0
  6
CONTINUOUS
 62
     7
 10
162.9068398697
 20
658.6251215619
 30
0.0
 11
162.9068398697
 21
651.1251212639
 31
0.0
  0
LINE
  5
4EE
  8
0
  6
CONTINUOUS
 62
     7
 10
166.4068395121
 20
651.1251212639
 30
0.0
 11
183.906837724
 21
651.1251212639
 31
0.0
  0
LINE
  5
4EF
  8
0
  6
CONTINUOUS
 62
     7
 10
151.1068338377
 20
680.3751218674
 30
0.0
 11
151.1068338377
 21
652.6610212011
 31
0.0
  0
LINE
  5
4F0
  8
0
  6
CONTINUOUS
 62
     7
 10
151.1068338377
 20
734.5892222208
 30
0.0
 11
151.1068338377
 21
706.8751215545
 31
0.0
  0
ARC
  5
4F1
  8
0
  6
CONTINUOUS
 62
     7
 10
346.8667473348
 20
693.6251217109
 30
0.0
 40
195.4322133119307
 50
183.887546864
 51
188.3853812571
  0
LINE
  5
4F2
  8
0
  6
CONTINUOUS
 62
     7
 10
152.0264291985
 20
665.125121696
 30
0.0
 11
153.5237872822
 21
665.125121696
 31
0.0
  0
POLYLINE
  5
4F3
  8
0
  6
CONTINUOUS
 62
     7
 66
     1
 10
0.0
 20
0.0
 30
0.0
 70
   128
  0
VERTEX
  5
702
  8
0
  6
CONTINUOUS
 62
     7
 10
152.0264291985
 20
658.6251215619
 30
0.0
  0
VERTEX
  5
703
  8
0
  6
CONTINUOUS
 62
     7
 10
151.7101222498
 20
660.741645245
 30
0.0
  0
VERTEX
  5
704
  8
0
  6
CONTINUOUS
 62
     7
 10
151.5550384147
 20
662.6430557651
 30
0.0
  0
VERTEX
  5
705
  8
0
  6
CONTINUOUS
 62
     7
 10
151.5798339469
 20
664.0811724198
 30
0.0
  0
VERTEX
  5
706
  8
0
  6
CONTINUOUS
 62
     7
 10
151.7749870045
 20
664.9249096942
 30
0.0
  0
VERTEX
  5
707
  8
0
  6
CONTINUOUS
 62
     7
 10
152.0264291985
 20
665.125121696
 30
0.0
  0
SEQEND
  5
744
  8
0
  6
CONTINUOUS
 62
     7
  0
ARC
  5
4F4
  8
0
  6
CONTINUOUS
 62
     7
 10
346.8667473348
 20
693.6251217109
 30
0.0
 40
197.9589603933098
 50
190.1836756944
 51
192.3973974679
  0
LINE
  5
4F5
  8
0
  6
CONTINUOUS
 62
     7
 10
151.4345327241
 20
651.1251212639
 30
0.0
 11
153.5237872822
 21
651.1251212639
 31
0.0
  0
LINE
  5
4F6
  8
0
  6
CONTINUOUS
 62
     7
 10
151.4345327241
 20
736.125122158
 30
0.0
 11
153.5237872822
 21
736.125122158
 31
0.0
  0
ARC
  5
4F7
  8
0
  6
CONTINUOUS
 62
     7
 10
346.8667473348
 20
693.6251217109
 30
0.0
 40
197.9589603933098
 50
167.6026025321
 51
169.8163243056
  0
POLYLINE
  5
4F8
  8
0
  6
CONTINUOUS
 62
     7
 66
     1
 10
0.0
 20
0.0
 30
0.0
 70
   128
  0
VERTEX
  5
708
  8
0
  6
CONTINUOUS
 62
     7
 10
152.0264291985
 20
722.1251217258
 30
0.0
  0
VERTEX
  5
709
  8
0
  6
CONTINUOUS
 62
     7
 10
151.7101222498
 20
722.4793651683
 30
0.0
  0
VERTEX
  5
70A
  8
0
  6
CONTINUOUS
 62
     7
 10
151.5550384147
 20
723.5156980885
 30
0.0
  0
VERTEX
  5
70B
  8
0
  6
CONTINUOUS
 62
     7
 10
151.5798339469
 20
725.0922055525
 30
0.0
  0
VERTEX
  5
70C
  8
0
  6
CONTINUOUS
 62
     7
 10
151.7749870045
 20
727.0242863876
 30
0.0
  0
VERTEX
  5
70D
  8
0
  6
CONTINUOUS
 62
     7
 10
152.0264291985
 20
728.62512186
 30
0.0
  0
SEQEND
  5
745
  8
0
  6
CONTINUOUS
 62
     7
  0
LINE
  5
4F9
  8
0
  6
CONTINUOUS
 62
     7
 10
153.5237872822
 20
722.1251217258
 30
0.0
 11
152.0264291985
 21
722.1251217258
 31
0.0
  0
ARC
  5
4FA
  8
0
  6
CONTINUOUS
 62
     7
 10
346.8667473348
 20
693.6251217109
 30
0.0
 40
195.4322133119307
 50
171.6146187429
 51
176.112453136
  0
LINE
  5
4FB
  8
0
  6
CONTINUOUS
 62
     7
 10
151.8842125161
 20
680.3751218674
 30
0.0
 11
149.1068372352
 21
680.3751218674
 31
0.0
  0
LINE
  5
4FC
  8
0
  6
CONTINUOUS
 62
     7
 10
151.8842125161
 20
706.8751215545
 30
0.0
 11
149.1068372352
 21
706.8751215545
 31
0.0
  0
LINE
  5
4FD
  8
0
  6
CONTINUOUS
 62
     7
 10
153.5237872822
 20
722.1251217258
 30
0.0
 11
162.9068398697
 21
722.1251217258
 31
0.0
  0
LINE
  5
4FE
  8
0
  6
CONTINUOUS
 62
     7
 10
153.5237872822
 20
665.125121696
 30
0.0
 11
162.9068398697
 21
665.125121696
 31
0.0
  0
LINE
  5
4FF
  8
0
  6
CONTINUOUS
 62
     7
 10
149.1068372352
 20
680.3751218674
 30
0.0
 11
149.1068372352
 21
687.5251218287
 31
0.0
  0
LINE
  5
500
  8
0
  6
CONTINUOUS
 62
     7
 10
149.1068372352
 20
699.7251215932
 30
0.0
 11
149.1068372352
 21
706.8751215545
 31
0.0
  0
LINE
  5
501
  8
0
  6
CONTINUOUS
 62
     7
 10
149.1068372352
 20
680.3751218674
 30
0.0
 11
149.1068372352
 21
656.1251202208
 31
0.0
  0
LINE
  5
502
  8
0
  6
CONTINUOUS
 62
     7
 10
149.1068372352
 20
731.1251232011
 30
0.0
 11
149.1068372352
 21
706.8751215545
 31
0.0
  0
LINE
  5
503
  8
0
  6
CONTINUOUS
 62
     7
 10
152.0264291985
 20
728.62512186
 30
0.0
 11
162.9068398697
 21
728.62512186
 31
0.0
  0
LINE
  5
504
  8
0
  6
CONTINUOUS
 62
     7
 10
152.0264291985
 20
658.6251215619
 30
0.0
 11
162.9068398697
 21
658.6251215619
 31
0.0
  0
LINE
  5
505
  8
0
  6
CONTINUOUS
 62
     7
 10
153.5237872822
 20
736.125122158
 30
0.0
 11
162.9068398697
 21
736.125122158
 31
0.0
  0
LINE
  5
506
  8
0
  6
CONTINUOUS
 62
     7
 10
153.5237872822
 20
651.1251212639
 30
0.0
 11
162.9068398697
 21
651.1251212639
 31
0.0
  0
LINE
  5
507
  8
0
  6
CONTINUOUS
 62
     7
 10
182.0068353636
 20
680.1251213608
 30
0.0
 11
165.8068368061
 21
680.1251213608
 31
0.0
  0
LINE
  5
508
  8
0
  6
CONTINUOUS
 62
     7
 10
165.8068368061
 20
680.1251213608
 30
0.0
 11
165.8068368061
 21
707.1251220611
 31
0.0
  0
LINE
  5
509
  8
0
  6
CONTINUOUS
 62
     7
 10
165.8068368061
 20
707.1251220611
 30
0.0
 11
182.0068353636
 21
707.1251220611
 31
0.0
  0
LINE
  5
50A
  8
0
  6
CONTINUOUS
 62
     7
 10
182.0068353636
 20
707.1251220611
 30
0.0
 11
182.0068353636
 21
699.4251216372
 31
0.0
  0
LINE
  5
50B
  8
0
  6
CONTINUOUS
 62
     7
 10
182.0068353636
 20
687.8251217847
 30
0.0
 11
182.0068353636
 21
680.1251213608
 31
0.0
  0
LINE
  5
50C
  8
0
  6
CONTINUOUS
 62
     7
 10
190.3068343027
 20
707.1251220611
 30
0.0
 11
182.0068353636
 21
707.1251220611
 31
0.0
  0
ARC
  5
50D
  8
0
  6
CONTINUOUS
 62
     7
 10
190.3068411746
 20
703.1251282774
 30
0.0
 40
3.999993783696473
 50
359.9999015663
 51
90.0000984337
  0
LINE
  5
50E
  8
0
  6
CONTINUOUS
 62
     7
 10
194.3068349583
 20
703.1251214055
 30
0.0
 11
194.3068349583
 21
684.1251220164
 31
0.0
  0
ARC
  5
50F
  8
0
  6
CONTINUOUS
 62
     7
 10
190.3068403183
 20
684.1251160007
 30
0.0
 40
3.999994639971139
 50
269.9999138316
 51
0.0000861684
  0
LINE
  5
510
  8
0
  6
CONTINUOUS
 62
     7
 10
190.3068343027
 20
680.1251213608
 30
0.0
 11
182.0068353636
 21
680.1251213608
 31
0.0
  0
LINE
  5
511
  8
0
  6
CONTINUOUS
 62
     7
 10
167.3068398459
 20
709.725122301
 30
0.0
 11
174.3068391306
 21
709.725122301
 31
0.0
  0
LINE
  5
512
  8
0
  6
CONTINUOUS
 62
     7
 10
177.9068404658
 20
707.4251215515
 30
0.0
 11
183.7068343384
 21
707.4251215515
 31
0.0
  0
LINE
  5
513
  8
0
  6
CONTINUOUS
 62
     7
 10
168.6068395002
 20
712.1251219494
 30
0.0
 11
172.1756154521
 21
712.1251219494
 31
0.0
  0
POLYLINE
  5
514
  8
0
  6
CONTINUOUS
 62
     7
 66
     1
 10
0.0
 20
0.0
 30
0.0
 70
   128
  0
VERTEX
  5
70E
  8
0
  6
CONTINUOUS
 62
     7
 10
172.1756154521
 20
712.1251219494
 30
0.0
  0
VERTEX
  5
70F
  8
0
  6
CONTINUOUS
 62
     7
 10
172.4825272186
 20
712.0513556135
 30
0.0
  0
VERTEX
  5
710
  8
0
  6
CONTINUOUS
 62
     7
 10
172.7548012359
 20
711.8377493304
 30
0.0
  0
VERTEX
  5
711
  8
0
  6
CONTINUOUS
 62
     7
 10
172.9603851063
 20
711.5098679048
 30
0.0
  0
VERTEX
  5
712
  8
0
  6
CONTINUOUS
 62
     7
 10
173.0769196374
 20
711.1055379344
 30
0.0
  0
VERTEX
  5
713
  8
0
  6
CONTINUOUS
 62
     7
 10
173.0986157281
 20
710.8251222951
 30
0.0
  0
SEQEND
  5
746
  8
0
  6
CONTINUOUS
 62
     7
  0
LINE
  5
515
  8
0
  6
CONTINUOUS
 62
     7
 10
173.0986157281
 20
710.8251222951
 30
0.0
 11
173.4521681292
 21
710.8251222951
 31
0.0
  0
LINE
  5
516
  8
0
  6
CONTINUOUS
 62
     7
 10
172.1756154521
 20
712.1251219494
 30
0.0
 11
172.5291753037
 21
712.1251219494
 31
0.0
  0
POLYLINE
  5
517
  8
0
  6
CONTINUOUS
 62
     7
 66
     1
 10
0.0
 20
0.0
 30
0.0
 70
   128
  0
VERTEX
  5
714
  8
0
  6
CONTINUOUS
 62
     7
 10
173.4521681292
 20
710.8251222951
 30
0.0
  0
VERTEX
  5
715
  8
0
  6
CONTINUOUS
 62
     7
 10
173.4004387481
 20
711.2545160187
 30
0.0
  0
VERTEX
  5
716
  8
0
  6
CONTINUOUS
 62
     7
 10
173.2511514647
 20
711.6354958696
 30
0.0
  0
VERTEX
  5
717
  8
0
  6
CONTINUOUS
 62
     7
 10
173.0210253818
 20
711.9255395216
 30
0.0
  0
VERTEX
  5
718
  8
0
  6
CONTINUOUS
 62
     7
 10
172.7354222758
 20
712.0923617465
 30
0.0
  0
VERTEX
  5
719
  8
0
  6
CONTINUOUS
 62
     7
 10
172.5291753037
 20
712.1251219494
 30
0.0
  0
SEQEND
  5
747
  8
0
  6
CONTINUOUS
 62
     7
  0
LINE
  5
518
  8
0
  6
CONTINUOUS
 62
     7
 10
172.5291753037
 20
712.1251219494
 30
0.0
 11
173.0068394763
 21
712.1251219494
 31
0.0
  0
LINE
  5
519
  8
0
  6
CONTINUOUS
 62
     7
 10
177.806838773
 20
693.9251217252
 30
0.0
 11
181.2068367226
 21
693.9251217252
 31
0.0
  0
LINE
  5
51A
  8
0
  6
CONTINUOUS
 62
     7
 10
177.806838773
 20
697.3251217121
 30
0.0
 11
177.806838773
 21
693.9251217252
 31
0.0
  0
LINE
  5
51B
  8
0
  6
CONTINUOUS
 62
     7
 10
181.2068367226
 20
697.3251217121
 30
0.0
 11
177.806838773
 21
697.3251217121
 31
0.0
  0
LINE
  5
51C
  8
0
  6
CONTINUOUS
 62
     7
 10
181.2068367226
 20
693.9251217252
 30
0.0
 11
181.2068367226
 21
697.3251217121
 31
0.0
  0
LINE
  5
51D
  8
0
  6
CONTINUOUS
 62
     7
 10
178.606837414
 20
696.175121803
 30
0.0
 11
178.7068391068
 21
696.175121803
 31
0.0
  0
LINE
  5
51E
  8
0
  6
CONTINUOUS
 62
     7
 10
178.606837414
 20
695.675121721
 30
0.0
 11
178.606837414
 21
696.175121803
 31
0.0
  0
LINE
  5
51F
  8
0
  6
CONTINUOUS
 62
     7
 10
178.7068391068
 20
695.675121721
 30
0.0
 11
178.606837414
 21
695.675121721
 31
0.0
  0
LINE
  5
520
  8
0
  6
CONTINUOUS
 62
     7
 10
178.7068391068
 20
695.025121661
 30
0.0
 11
178.7068391068
 21
695.675121721
 31
0.0
  0
LINE
  5
521
  8
0
  6
CONTINUOUS
 62
     7
 10
179.031840883
 20
695.025121661
 30
0.0
 11
178.7068391068
 21
695.025121661
 31
0.0
  0
LINE
  5
522
  8
0
  6
CONTINUOUS
 62
     7
 10
179.1318351252
 20
694.9251217145
 30
0.0
 11
179.031840883
 21
695.025121661
 31
0.0
  0
LINE
  5
523
  8
0
  6
CONTINUOUS
 62
     7
 10
179.8818403704
 20
694.9251217145
 30
0.0
 11
179.1318351252
 21
694.9251217145
 31
0.0
  0
LINE
  5
524
  8
0
  6
CONTINUOUS
 62
     7
 10
179.9818346126
 20
695.025121661
 30
0.0
 11
179.8818403704
 21
694.9251217145
 31
0.0
  0
LINE
  5
525
  8
0
  6
CONTINUOUS
 62
     7
 10
180.3068363888
 20
695.025121661
 30
0.0
 11
179.9818346126
 21
695.025121661
 31
0.0
  0
LINE
  5
526
  8
0
  6
CONTINUOUS
 62
     7
 10
180.3068363888
 20
695.675121721
 30
0.0
 11
180.3068363888
 21
695.025121661
 31
0.0
  0
LINE
  5
527
  8
0
  6
CONTINUOUS
 62
     7
 10
180.4068380816
 20
695.675121721
 30
0.0
 11
180.3068363888
 21
695.675121721
 31
0.0
  0
LINE
  5
528
  8
0
  6
CONTINUOUS
 62
     7
 10
180.4068380816
 20
696.175121803
 30
0.0
 11
180.4068380816
 21
695.675121721
 31
0.0
  0
LINE
  5
529
  8
0
  6
CONTINUOUS
 62
     7
 10
180.3068363888
 20
696.175121803
 30
0.0
 11
180.4068380816
 21
696.175121803
 31
0.0
  0
LINE
  5
52A
  8
0
  6
CONTINUOUS
 62
     7
 10
180.3068363888
 20
696.6751216521
 30
0.0
 11
180.3068363888
 21
696.175121803
 31
0.0
  0
LINE
  5
52B
  8
0
  6
CONTINUOUS
 62
     7
 10
180.3068363888
 20
696.6751216521
 30
0.0
 11
178.7068391068
 21
696.6751216521
 31
0.0
  0
LINE
  5
52C
  8
0
  6
CONTINUOUS
 62
     7
 10
178.7068391068
 20
696.175121803
 30
0.0
 11
178.7068391068
 21
696.6751216521
 31
0.0
  0
LINE
  5
52D
  8
0
  6
CONTINUOUS
 62
     7
 10
173.6068347318
 20
693.9251217252
 30
0.0
 11
177.006840132
 21
693.9251217252
 31
0.0
  0
LINE
  5
52E
  8
0
  6
CONTINUOUS
 62
     7
 10
173.6068347318
 20
697.3251217121
 30
0.0
 11
173.6068347318
 21
693.9251217252
 31
0.0
  0
LINE
  5
52F
  8
0
  6
CONTINUOUS
 62
     7
 10
177.006840132
 20
697.3251217121
 30
0.0
 11
173.6068347318
 21
697.3251217121
 31
0.0
  0
LINE
  5
530
  8
0
  6
CONTINUOUS
 62
     7
 10
177.006840132
 20
693.9251217252
 30
0.0
 11
177.006840132
 21
697.3251217121
 31
0.0
  0
LINE
  5
531
  8
0
  6
CONTINUOUS
 62
     7
 10
174.4068408234
 20
696.175121803
 30
0.0
 11
174.5068350656
 21
696.175121803
 31
0.0
  0
LINE
  5
532
  8
0
  6
CONTINUOUS
 62
     7
 10
174.4068408234
 20
695.675121721
 30
0.0
 11
174.4068408234
 21
696.175121803
 31
0.0
  0
LINE
  5
533
  8
0
  6
CONTINUOUS
 62
     7
 10
174.5068350656
 20
695.675121721
 30
0.0
 11
174.4068408234
 21
695.675121721
 31
0.0
  0
LINE
  5
534
  8
0
  6
CONTINUOUS
 62
     7
 10
174.5068350656
 20
695.025121661
 30
0.0
 11
174.5068350656
 21
695.675121721
 31
0.0
  0
LINE
  5
535
  8
0
  6
CONTINUOUS
 62
     7
 10
174.8318368418
 20
695.025121661
 30
0.0
 11
174.5068350656
 21
695.025121661
 31
0.0
  0
LINE
  5
536
  8
0
  6
CONTINUOUS
 62
     7
 10
174.9318385346
 20
694.9251217145
 30
0.0
 11
174.8318368418
 21
695.025121661
 31
0.0
  0
LINE
  5
537
  8
0
  6
CONTINUOUS
 62
     7
 10
175.6818363292
 20
694.9251217145
 30
0.0
 11
174.9318385346
 21
694.9251217145
 31
0.0
  0
LINE
  5
538
  8
0
  6
CONTINUOUS
 62
     7
 10
175.781838022
 20
695.025121661
 30
0.0
 11
175.6818363292
 21
694.9251217145
 31
0.0
  0
LINE
  5
539
  8
0
  6
CONTINUOUS
 62
     7
 10
176.1068397982
 20
695.025121661
 30
0.0
 11
175.781838022
 21
695.025121661
 31
0.0
  0
LINE
  5
53A
  8
0
  6
CONTINUOUS
 62
     7
 10
176.1068397982
 20
695.675121721
 30
0.0
 11
176.1068397982
 21
695.025121661
 31
0.0
  0
LINE
  5
53B
  8
0
  6
CONTINUOUS
 62
     7
 10
176.2068340404
 20
695.675121721
 30
0.0
 11
176.1068397982
 21
695.675121721
 31
0.0
  0
LINE
  5
53C
  8
0
  6
CONTINUOUS
 62
     7
 10
176.2068340404
 20
696.175121803
 30
0.0
 11
176.2068340404
 21
695.675121721
 31
0.0
  0
LINE
  5
53D
  8
0
  6
CONTINUOUS
 62
     7
 10
176.1068397982
 20
696.175121803
 30
0.0
 11
176.2068340404
 21
696.175121803
 31
0.0
  0
LINE
  5
53E
  8
0
  6
CONTINUOUS
 62
     7
 10
176.1068397982
 20
696.6751216521
 30
0.0
 11
174.5068350656
 21
696.6751216521
 31
0.0
  0
LINE
  5
53F
  8
0
  6
CONTINUOUS
 62
     7
 10
174.5068350656
 20
696.175121803
 30
0.0
 11
174.5068350656
 21
696.6751216521
 31
0.0
  0
LINE
  5
540
  8
0
  6
CONTINUOUS
 62
     7
 10
176.1068397982
 20
696.6751216521
 30
0.0
 11
176.1068397982
 21
696.175121803
 31
0.0
  0
LINE
  5
541
  8
0
  6
CONTINUOUS
 62
     7
 10
170.1568359358
 20
693.9251217252
 30
0.0
 11
169.4068381412
 21
694.6751216735
 31
0.0
  0
LINE
  5
542
  8
0
  6
CONTINUOUS
 62
     7
 10
169.4068381412
 20
697.3251217121
 30
0.0
 11
169.4068381412
 21
694.6751216735
 31
0.0
  0
LINE
  5
543
  8
0
  6
CONTINUOUS
 62
     7
 10
172.8068360908
 20
694.6751216735
 30
0.0
 11
172.8068360908
 21
697.3251217121
 31
0.0
  0
LINE
  5
544
  8
0
  6
CONTINUOUS
 62
     7
 10
172.8068360908
 20
694.6751216735
 30
0.0
 11
172.0568382962
 21
693.9251217252
 31
0.0
  0
LINE
  5
545
  8
0
  6
CONTINUOUS
 62
     7
 10
170.1568359358
 20
693.9251217252
 30
0.0
 11
172.0568382962
 21
693.9251217252
 31
0.0
  0
LINE
  5
546
  8
0
  6
CONTINUOUS
 62
     7
 10
170.2068367822
 20
696.175121803
 30
0.0
 11
170.306838475
 21
696.175121803
 31
0.0
  0
LINE
  5
547
  8
0
  6
CONTINUOUS
 62
     7
 10
170.2068367822
 20
695.675121721
 30
0.0
 11
170.2068367822
 21
696.175121803
 31
0.0
  0
LINE
  5
548
  8
0
  6
CONTINUOUS
 62
     7
 10
170.306838475
 20
695.675121721
 30
0.0
 11
170.2068367822
 21
695.675121721
 31
0.0
  0
LINE
  5
549
  8
0
  6
CONTINUOUS
 62
     7
 10
170.306838475
 20
695.025121661
 30
0.0
 11
170.306838475
 21
695.675121721
 31
0.0
  0
LINE
  5
54A
  8
0
  6
CONTINUOUS
 62
     7
 10
170.6318402512
 20
695.025121661
 30
0.0
 11
170.306838475
 21
695.025121661
 31
0.0
  0
LINE
  5
54B
  8
0
  6
CONTINUOUS
 62
     7
 10
170.7318344934
 20
694.9251217145
 30
0.0
 11
170.6318402512
 21
695.025121661
 31
0.0
  0
LINE
  5
54C
  8
0
  6
CONTINUOUS
 62
     7
 10
171.4818397386
 20
694.9251217145
 30
0.0
 11
170.7318344934
 21
694.9251217145
 31
0.0
  0
LINE
  5
54D
  8
0
  6
CONTINUOUS
 62
     7
 10
171.5818339808
 20
695.025121661
 30
0.0
 11
171.4818397386
 21
694.9251217145
 31
0.0
  0
LINE
  5
54E
  8
0
  6
CONTINUOUS
 62
     7
 10
171.906835757
 20
695.025121661
 30
0.0
 11
171.5818339808
 21
695.025121661
 31
0.0
  0
LINE
  5
54F
  8
0
  6
CONTINUOUS
 62
     7
 10
171.906835757
 20
695.675121721
 30
0.0
 11
171.906835757
 21
695.025121661
 31
0.0
  0
LINE
  5
550
  8
0
  6
CONTINUOUS
 62
     7
 10
172.0068374498
 20
695.675121721
 30
0.0
 11
171.906835757
 21
695.675121721
 31
0.0
  0
LINE
  5
551
  8
0
  6
CONTINUOUS
 62
     7
 10
172.0068374498
 20
696.175121803
 30
0.0
 11
172.0068374498
 21
695.675121721
 31
0.0
  0
LINE
  5
552
  8
0
  6
CONTINUOUS
 62
     7
 10
171.906835757
 20
696.175121803
 30
0.0
 11
172.0068374498
 21
696.175121803
 31
0.0
  0
LINE
  5
553
  8
0
  6
CONTINUOUS
 62
     7
 10
171.906835757
 20
696.6751216521
 30
0.0
 11
171.906835757
 21
696.175121803
 31
0.0
  0
LINE
  5
554
  8
0
  6
CONTINUOUS
 62
     7
 10
170.306838475
 20
696.175121803
 30
0.0
 11
170.306838475
 21
696.6751216521
 31
0.0
  0
LINE
  5
555
  8
0
  6
CONTINUOUS
 62
     7
 10
172.8068360908
 20
697.3251217121
 30
0.0
 11
169.4068381412
 21
697.3251217121
 31
0.0
  0
LINE
  5
556
  8
0
  6
CONTINUOUS
 62
     7
 10
171.906835757
 20
696.6751216521
 30
0.0
 11
170.306838475
 21
696.6751216521
 31
0.0
  0
LINE
  5
557
  8
0
  6
CONTINUOUS
 62
     7
 10
181.2068367226
 20
690.4751217068
 30
0.0
 11
181.2068367226
 21
693.1251216872
 31
0.0
  0
LINE
  5
558
  8
0
  6
CONTINUOUS
 62
     7
 10
180.456838928
 20
689.7251218167
 30
0.0
 11
181.2068367226
 21
690.4751217068
 31
0.0
  0
LINE
  5
559
  8
0
  6
CONTINUOUS
 62
     7
 10
178.5568365676
 20
689.7251218167
 30
0.0
 11
180.456838928
 21
689.7251218167
 31
0.0
  0
LINE
  5
55A
  8
0
  6
CONTINUOUS
 62
     7
 10
178.5568365676
 20
689.7251218167
 30
0.0
 11
177.806838773
 21
690.4751217068
 31
0.0
  0
LINE
  5
55B
  8
0
  6
CONTINUOUS
 62
     7
 10
177.806838773
 20
693.1251216872
 30
0.0
 11
177.806838773
 21
690.4751217068
 31
0.0
  0
LINE
  5
55C
  8
0
  6
CONTINUOUS
 62
     7
 10
181.2068367226
 20
693.1251216872
 30
0.0
 11
177.806838773
 21
693.1251216872
 31
0.0
  0
LINE
  5
55D
  8
0
  6
CONTINUOUS
 62
     7
 10
178.606837414
 20
691.4751216379
 30
0.0
 11
178.606837414
 21
691.9751217199
 31
0.0
  0
LINE
  5
55E
  8
0
  6
CONTINUOUS
 62
     7
 10
178.7068391068
 20
691.4751216379
 30
0.0
 11
178.606837414
 21
691.4751216379
 31
0.0
  0
LINE
  5
55F
  8
0
  6
CONTINUOUS
 62
     7
 10
178.7068391068
 20
690.8251218108
 30
0.0
 11
178.7068391068
 21
691.4751216379
 31
0.0
  0
LINE
  5
560
  8
0
  6
CONTINUOUS
 62
     7
 10
179.031840883
 20
690.8251218108
 30
0.0
 11
178.7068391068
 21
690.8251218108
 31
0.0
  0
LINE
  5
561
  8
0
  6
CONTINUOUS
 62
     7
 10
179.8818403704
 20
690.7251217478
 30
0.0
 11
179.1318351252
 21
690.7251217478
 31
0.0
  0
LINE
  5
562
  8
0
  6
CONTINUOUS
 62
     7
 10
179.9818346126
 20
690.8251218108
 30
0.0
 11
179.8818403704
 21
690.7251217478
 31
0.0
  0
LINE
  5
563
  8
0
  6
CONTINUOUS
 62
     7
 10
180.3068363888
 20
690.8251218108
 30
0.0
 11
179.9818346126
 21
690.8251218108
 31
0.0
  0
LINE
  5
564
  8
0
  6
CONTINUOUS
 62
     7
 10
180.3068363888
 20
691.4751216379
 30
0.0
 11
180.3068363888
 21
690.8251218108
 31
0.0
  0
LINE
  5
565
  8
0
  6
CONTINUOUS
 62
     7
 10
180.4068380816
 20
691.4751216379
 30
0.0
 11
180.3068363888
 21
691.4751216379
 31
0.0
  0
LINE
  5
566
  8
0
  6
CONTINUOUS
 62
     7
 10
180.3068363888
 20
692.4751216854
 30
0.0
 11
180.3068363888
 21
691.9751217199
 31
0.0
  0
LINE
  5
567
  8
0
  6
CONTINUOUS
 62
     7
 10
180.3068363888
 20
692.4751216854
 30
0.0
 11
178.7068391068
 21
692.4751216854
 31
0.0
  0
LINE
  5
568
  8
0
  6
CONTINUOUS
 62
     7
 10
178.7068391068
 20
691.9751217199
 30
0.0
 11
178.7068391068
 21
692.4751216854
 31
0.0
  0
LINE
  5
569
  8
0
  6
CONTINUOUS
 62
     7
 10
180.3068363888
 20
691.9751217199
 30
0.0
 11
180.4068380816
 21
691.9751217199
 31
0.0
  0
LINE
  5
56A
  8
0
  6
CONTINUOUS
 62
     7
 10
180.4068380816
 20
691.9751217199
 30
0.0
 11
180.4068380816
 21
691.4751216379
 31
0.0
  0
LINE
  5
56B
  8
0
  6
CONTINUOUS
 62
     7
 10
178.606837414
 20
691.9751217199
 30
0.0
 11
178.7068391068
 21
691.9751217199
 31
0.0
  0
LINE
  5
56C
  8
0
  6
CONTINUOUS
 62
     7
 10
179.1318351252
 20
690.7251217478
 30
0.0
 11
179.031840883
 21
690.8251218108
 31
0.0
  0
LINE
  5
56D
  8
0
  6
CONTINUOUS
 62
     7
 10
169.4068381412
 20
689.7251218167
 30
0.0
 11
172.8068360908
 21
689.7251218167
 31
0.0
  0
LINE
  5
56E
  8
0
  6
CONTINUOUS
 62
     7
 10
169.4068381412
 20
693.1251216872
 30
0.0
 11
169.4068381412
 21
689.7251218167
 31
0.0
  0
LINE
  5
56F
  8
0
  6
CONTINUOUS
 62
     7
 10
170.306838475
 20
691.4751216379
 30
0.0
 11
170.2068367822
 21
691.4751216379
 31
0.0
  0
LINE
  5
570
  8
0
  6
CONTINUOUS
 62
     7
 10
170.306838475
 20
690.8251218108
 30
0.0
 11
170.306838475
 21
691.4751216379
 31
0.0
  0
LINE
  5
571
  8
0
  6
CONTINUOUS
 62
     7
 10
170.6318402512
 20
690.8251218108
 30
0.0
 11
170.306838475
 21
690.8251218108
 31
0.0
  0
LINE
  5
572
  8
0
  6
CONTINUOUS
 62
     7
 10
171.4818397386
 20
690.7251217478
 30
0.0
 11
170.7318344934
 21
690.7251217478
 31
0.0
  0
LINE
  5
573
  8
0
  6
CONTINUOUS
 62
     7
 10
171.5818339808
 20
690.8251218108
 30
0.0
 11
171.4818397386
 21
690.7251217478
 31
0.0
  0
LINE
  5
574
  8
0
  6
CONTINUOUS
 62
     7
 10
171.906835757
 20
690.8251218108
 30
0.0
 11
171.5818339808
 21
690.8251218108
 31
0.0
  0
LINE
  5
575
  8
0
  6
CONTINUOUS
 62
     7
 10
171.906835757
 20
691.4751216379
 30
0.0
 11
171.906835757
 21
690.8251218108
 31
0.0
  0
LINE
  5
576
  8
0
  6
CONTINUOUS
 62
     7
 10
172.0068374498
 20
691.9751217199
 30
0.0
 11
172.0068374498
 21
691.4751216379
 31
0.0
  0
LINE
  5
577
  8
0
  6
CONTINUOUS
 62
     7
 10
171.906835757
 20
691.9751217199
 30
0.0
 11
172.0068374498
 21
691.9751217199
 31
0.0
  0
LINE
  5
578
  8
0
  6
CONTINUOUS
 62
     7
 10
170.7318344934
 20
690.7251217478
 30
0.0
 11
170.6318402512
 21
690.8251218108
 31
0.0
  0
LINE
  5
579
  8
0
  6
CONTINUOUS
 62
     7
 10
170.2068367822
 20
691.9751217199
 30
0.0
 11
170.306838475
 21
691.9751217199
 31
0.0
  0
LINE
  5
57A
  8
0
  6
CONTINUOUS
 62
     7
 10
172.8068360908
 20
689.7251218167
 30
0.0
 11
172.8068360908
 21
693.1251216872
 31
0.0
  0
LINE
  5
57B
  8
0
  6
CONTINUOUS
 62
     7
 10
172.0068374498
 20
691.4751216379
 30
0.0
 11
171.906835757
 21
691.4751216379
 31
0.0
  0
LINE
  5
57C
  8
0
  6
CONTINUOUS
 62
     7
 10
171.906835757
 20
692.4751216854
 30
0.0
 11
171.906835757
 21
691.9751217199
 31
0.0
  0
LINE
  5
57D
  8
0
  6
CONTINUOUS
 62
     7
 10
172.8068360908
 20
693.1251216872
 30
0.0
 11
169.4068381412
 21
693.1251216872
 31
0.0
  0
LINE
  5
57E
  8
0
  6
CONTINUOUS
 62
     7
 10
170.2068367822
 20
691.4751216379
 30
0.0
 11
170.2068367822
 21
691.9751217199
 31
0.0
  0
LINE
  5
57F
  8
0
  6
CONTINUOUS
 62
     7
 10
171.906835757
 20
692.4751216854
 30
0.0
 11
170.306838475
 21
692.4751216854
 31
0.0
  0
LINE
  5
580
  8
0
  6
CONTINUOUS
 62
     7
 10
170.306838475
 20
691.9751217199
 30
0.0
 11
170.306838475
 21
692.4751216854
 31
0.0
  0
LINE
  5
581
  8
0
  6
CONTINUOUS
 62
     7
 10
176.2568348868
 20
689.7251218167
 30
0.0
 11
177.006840132
 21
690.4751217068
 31
0.0
  0
LINE
  5
582
  8
0
  6
CONTINUOUS
 62
     7
 10
174.356839977
 20
689.7251218167
 30
0.0
 11
176.2568348868
 21
689.7251218167
 31
0.0
  0
LINE
  5
583
  8
0
  6
CONTINUOUS
 62
     7
 10
174.356839977
 20
689.7251218167
 30
0.0
 11
173.6068347318
 21
690.4751217068
 31
0.0
  0
LINE
  5
584
  8
0
  6
CONTINUOUS
 62
     7
 10
174.8318368418
 20
690.8251218108
 30
0.0
 11
174.5068350656
 21
690.8251218108
 31
0.0
  0
LINE
  5
585
  8
0
  6
CONTINUOUS
 62
     7
 10
175.6818363292
 20
690.7251217478
 30
0.0
 11
174.9318385346
 21
690.7251217478
 31
0.0
  0
LINE
  5
586
  8
0
  6
CONTINUOUS
 62
     7
 10
176.1068397982
 20
690.8251218108
 30
0.0
 11
175.781838022
 21
690.8251218108
 31
0.0
  0
LINE
  5
587
  8
0
  6
CONTINUOUS
 62
     7
 10
174.5068350656
 20
690.8251218108
 30
0.0
 11
174.5068350656
 21
691.4751216379
 31
0.0
  0
LINE
  5
588
  8
0
  6
CONTINUOUS
 62
     7
 10
176.2068340404
 20
691.4751216379
 30
0.0
 11
176.1068397982
 21
691.4751216379
 31
0.0
  0
LINE
  5
589
  8
0
  6
CONTINUOUS
 62
     7
 10
175.781838022
 20
690.8251218108
 30
0.0
 11
175.6818363292
 21
690.7251217478
 31
0.0
  0
LINE
  5
58A
  8
0
  6
CONTINUOUS
 62
     7
 10
177.006840132
 20
690.4751217068
 30
0.0
 11
177.006840132
 21
693.1251216872
 31
0.0
  0
LINE
  5
58B
  8
0
  6
CONTINUOUS
 62
     7
 10
176.2068340404
 20
691.9751217199
 30
0.0
 11
176.2068340404
 21
691.4751216379
 31
0.0
  0
LINE
  5
58C
  8
0
  6
CONTINUOUS
 62
     7
 10
174.9318385346
 20
690.7251217478
 30
0.0
 11
174.8318368418
 21
690.8251218108
 31
0.0
  0
LINE
  5
58D
  8
0
  6
CONTINUOUS
 62
     7
 10
174.4068408234
 20
691.9751217199
 30
0.0
 11
174.5068350656
 21
691.9751217199
 31
0.0
  0
LINE
  5
58E
  8
0
  6
CONTINUOUS
 62
     7
 10
176.1068397982
 20
691.9751217199
 30
0.0
 11
176.2068340404
 21
691.9751217199
 31
0.0
  0
LINE
  5
58F
  8
0
  6
CONTINUOUS
 62
     7
 10
174.5068350656
 20
691.4751216379
 30
0.0
 11
174.4068408234
 21
691.4751216379
 31
0.0
  0
LINE
  5
590
  8
0
  6
CONTINUOUS
 62
     7
 10
176.1068397982
 20
691.4751216379
 30
0.0
 11
176.1068397982
 21
690.8251218108
 31
0.0
  0
LINE
  5
591
  8
0
  6
CONTINUOUS
 62
     7
 10
177.006840132
 20
693.1251216872
 30
0.0
 11
173.6068347318
 21
693.1251216872
 31
0.0
  0
LINE
  5
592
  8
0
  6
CONTINUOUS
 62
     7
 10
173.6068347318
 20
693.1251216872
 30
0.0
 11
173.6068347318
 21
690.4751217068
 31
0.0
  0
LINE
  5
593
  8
0
  6
CONTINUOUS
 62
     7
 10
174.4068408234
 20
691.4751216379
 30
0.0
 11
174.4068408234
 21
691.9751217199
 31
0.0
  0
LINE
  5
594
  8
0
  6
CONTINUOUS
 62
     7
 10
176.1068397982
 20
692.4751216854
 30
0.0
 11
174.5068350656
 21
692.4751216854
 31
0.0
  0
LINE
  5
595
  8
0
  6
CONTINUOUS
 62
     7
 10
174.5068350656
 20
691.9751217199
 30
0.0
 11
174.5068350656
 21
692.4751216854
 31
0.0
  0
LINE
  5
596
  8
0
  6
CONTINUOUS
 62
     7
 10
176.1068397982
 20
692.4751216854
 30
0.0
 11
176.1068397982
 21
691.9751217199
 31
0.0
  0
LINE
  5
597
  8
0
  6
CONTINUOUS
 62
     7
 10
176.8068367465
 20
701.2251218391
 30
0.0
 11
173.8068381174
 21
701.2251218391
 31
0.0
  0
LINE
  5
598
  8
0
  6
CONTINUOUS
 62
     7
 10
173.8068381174
 20
701.2251218391
 30
0.0
 11
173.8068381174
 21
701.9251215813
 31
0.0
  0
LINE
  5
599
  8
0
  6
CONTINUOUS
 62
     7
 10
176.8068367465
 20
701.9251215813
 30
0.0
 11
173.8068381174
 21
701.9251215813
 31
0.0
  0
LINE
  5
59A
  8
0
  6
CONTINUOUS
 62
     7
 10
176.8068367465
 20
701.9251215813
 30
0.0
 11
176.8068367465
 21
701.2251218391
 31
0.0
  0
LINE
  5
59B
  8
0
  6
CONTINUOUS
 62
     7
 10
176.8068367465
 20
698.4251219389
 30
0.0
 11
173.8068381174
 21
698.4251219389
 31
0.0
  0
LINE
  5
59C
  8
0
  6
CONTINUOUS
 62
     7
 10
173.8068381174
 20
699.9251217191
 30
0.0
 11
176.8068367465
 21
699.9251217191
 31
0.0
  0
LINE
  5
59D
  8
0
  6
CONTINUOUS
 62
     7
 10
173.8068381174
 20
699.9251217191
 30
0.0
 11
173.8068381174
 21
698.4251219389
 31
0.0
  0
LINE
  5
59E
  8
0
  6
CONTINUOUS
 62
     7
 10
176.8068367465
 20
698.4251219389
 30
0.0
 11
176.8068367465
 21
699.9251217191
 31
0.0
  0
LINE
  5
59F
  8
0
  6
CONTINUOUS
 62
     7
 10
173.8068381174
 20
699.9251217191
 30
0.0
 11
173.8068381174
 21
701.2251218391
 31
0.0
  0
LINE
  5
5A0
  8
0
  6
CONTINUOUS
 62
     7
 10
176.8068367465
 20
701.2251218391
 30
0.0
 11
176.8068367465
 21
699.9251217191
 31
0.0
  0
LINE
  5
5A1
  8
0
  6
CONTINUOUS
 62
     7
 10
176.0568389518
 20
696.6751216521
 30
0.0
 11
176.0568389518
 21
696.175121803
 31
0.0
  0
LINE
  5
5A2
  8
0
  6
CONTINUOUS
 62
     7
 10
176.0568389518
 20
696.175121803
 30
0.0
 11
176.1068397982
 21
696.175121803
 31
0.0
  0
LINE
  5
5A3
  8
0
  6
CONTINUOUS
 62
     7
 10
171.8568349106
 20
696.6751216521
 30
0.0
 11
171.8568349106
 21
696.175121803
 31
0.0
  0
LINE
  5
5A4
  8
0
  6
CONTINUOUS
 62
     7
 10
171.8568349106
 20
696.175121803
 30
0.0
 11
171.906835757
 21
696.175121803
 31
0.0
  0
ARC
  5
5A5
  8
0
  6
CONTINUOUS
 62
     7
 10
179.5068372948
 20
688.8251217109
 30
0.0
 40
0.25
 50
180.0
 51
0.0
  0
LINE
  5
5A6
  8
0
  6
CONTINUOUS
 62
     7
 10
179.2068401201
 20
688.825121483
 30
0.0
 11
179.2568409665
 21
688.825121483
 31
0.0
  0
ARC
  5
5A7
  8
0
  6
CONTINUOUS
 62
     7
 10
178.9568372948
 20
688.8251217109
 30
0.0
 40
0.25
 50
180.0
 51
0.0
  0
LINE
  5
5A8
  8
0
  6
CONTINUOUS
 62
     7
 10
178.7068391068
 20
688.825121483
 30
0.0
 11
175.8318388684
 21
688.825121483
 31
0.0
  0
ARC
  5
5A9
  8
0
  6
CONTINUOUS
 62
     7
 10
175.5818372948
 20
688.8251217109
 30
0.0
 40
0.2500000000000284
 50
180.0
 51
0.0
  0
LINE
  5
5AA
  8
0
  6
CONTINUOUS
 62
     7
 10
175.2818370087
 20
688.825121483
 30
0.0
 11
175.3318378551
 21
688.825121483
 31
0.0
  0
ARC
  5
5AB
  8
0
  6
CONTINUOUS
 62
     7
 10
175.0318372948
 20
688.8251217109
 30
0.0
 40
0.2500000000000284
 50
180.0
 51
0.0
  0
LINE
  5
5AC
  8
0
  6
CONTINUOUS
 62
     7
 10
174.7818359954
 20
688.825121483
 30
0.0
 11
171.3568338974
 21
688.825121483
 31
0.0
  0
ARC
  5
5AD
  8
0
  6
CONTINUOUS
 62
     7
 10
171.1068372948
 20
688.8251217109
 30
0.0
 40
0.2500000000000284
 50
180.0
 51
0.0
  0
LINE
  5
5AE
  8
0
  6
CONTINUOUS
 62
     7
 10
168.4068361146
 20
688.825121483
 30
0.0
 11
170.8568403347
 21
688.825121483
 31
0.0
  0
LINE
  5
5AF
  8
0
  6
CONTINUOUS
 62
     7
 10
168.4068361146
 20
698.4251219389
 30
0.0
 11
168.4068361146
 21
688.825121483
 31
0.0
  0
LINE
  5
5B0
  8
0
  6
CONTINUOUS
 62
     7
 10
168.4068361146
 20
698.4251219389
 30
0.0
 11
173.8068381174
 21
698.4251219389
 31
0.0
  0
LINE
  5
5B1
  8
0
  6
CONTINUOUS
 62
     7
 10
176.8068367465
 20
698.4251219389
 30
0.0
 11
182.2068387492
 21
698.4251219389
 31
0.0
  0
LINE
  5
5B2
  8
0
  6
CONTINUOUS
 62
     7
 10
182.2068387492
 20
688.825121483
 30
0.0
 11
180.3068363888
 21
688.825121483
 31
0.0
  0
ARC
  5
5B3
  8
0
  6
CONTINUOUS
 62
     7
 10
180.0568372948
 20
688.8251217109
 30
0.0
 40
0.2500000000000284
 50
180.0
 51
0.0
  0
LINE
  5
5B4
  8
0
  6
CONTINUOUS
 62
     7
 10
179.7568345292
 20
688.825121483
 30
0.0
 11
179.8068353755
 21
688.825121483
 31
0.0
  0
LINE
  5
5B5
  8
0
  6
CONTINUOUS
 62
     7
 10
182.2068387492
 20
698.4251219389
 30
0.0
 11
182.2068387492
 21
688.825121483
 31
0.0
  0
LINE
  5
5B6
  8
0
  6
CONTINUOUS
 62
     7
 10
178.7568399532
 20
696.6751216521
 30
0.0
 11
178.7568399532
 21
696.175121803
 31
0.0
  0
LINE
  5
5B7
  8
0
  6
CONTINUOUS
 62
     7
 10
178.7568399532
 20
696.175121803
 30
0.0
 11
178.7068391068
 21
696.175121803
 31
0.0
  0
LINE
  5
5B8
  8
0
  6
CONTINUOUS
 62
     7
 10
170.3568393214
 20
696.6751216521
 30
0.0
 11
170.3568393214
 21
696.175121803
 31
0.0
  0
LINE
  5
5B9
  8
0
  6
CONTINUOUS
 62
     7
 10
170.3568393214
 20
696.175121803
 30
0.0
 11
170.306838475
 21
696.175121803
 31
0.0
  0
LINE
  5
5BA
  8
0
  6
CONTINUOUS
 62
     7
 10
174.556835912
 20
696.6751216521
 30
0.0
 11
174.556835912
 21
696.175121803
 31
0.0
  0
LINE
  5
5BB
  8
0
  6
CONTINUOUS
 62
     7
 10
174.556835912
 20
696.175121803
 30
0.0
 11
174.5068350656
 21
696.175121803
 31
0.0
  0
LINE
  5
5BC
  8
0
  6
CONTINUOUS
 62
     7
 10
180.2568355424
 20
696.6751216521
 30
0.0
 11
180.2568355424
 21
696.175121803
 31
0.0
  0
LINE
  5
5BD
  8
0
  6
CONTINUOUS
 62
     7
 10
180.2568355424
 20
696.175121803
 30
0.0
 11
180.3068363888
 21
696.175121803
 31
0.0
  0
LINE
  5
5BE
  8
0
  6
CONTINUOUS
 62
     7
 10
178.7568399532
 20
692.4751216854
 30
0.0
 11
178.7568399532
 21
691.9751217199
 31
0.0
  0
LINE
  5
5BF
  8
0
  6
CONTINUOUS
 62
     7
 10
178.7568399532
 20
691.9751217199
 30
0.0
 11
178.7068391068
 21
691.9751217199
 31
0.0
  0
LINE
  5
5C0
  8
0
  6
CONTINUOUS
 62
     7
 10
174.556835912
 20
691.1001218093
 30
0.0
 11
174.556835912
 21
691.4751216379
 31
0.0
  0
LINE
  5
5C1
  8
0
  6
CONTINUOUS
 62
     7
 10
174.556835912
 20
691.1001218093
 30
0.0
 11
174.8318368418
 21
690.8251218108
 31
0.0
  0
LINE
  5
5C2
  8
0
  6
CONTINUOUS
 62
     7
 10
174.556835912
 20
691.4751216379
 30
0.0
 11
174.5068350656
 21
691.4751216379
 31
0.0
  0
LINE
  5
5C3
  8
0
  6
CONTINUOUS
 62
     7
 10
171.8568349106
 20
692.4751216854
 30
0.0
 11
171.8568349106
 21
691.9751217199
 31
0.0
  0
LINE
  5
5C4
  8
0
  6
CONTINUOUS
 62
     7
 10
171.8568349106
 20
691.9751217199
 30
0.0
 11
171.906835757
 21
691.9751217199
 31
0.0
  0
LINE
  5
5C5
  8
0
  6
CONTINUOUS
 62
     7
 10
176.0568389518
 20
692.4751216854
 30
0.0
 11
176.0568389518
 21
691.9751217199
 31
0.0
  0
LINE
  5
5C6
  8
0
  6
CONTINUOUS
 62
     7
 10
176.0568389518
 20
691.9751217199
 30
0.0
 11
176.1068397982
 21
691.9751217199
 31
0.0
  0
LINE
  5
5C7
  8
0
  6
CONTINUOUS
 62
     7
 10
176.0568389518
 20
695.675121721
 30
0.0
 11
176.0568389518
 21
695.3001216595
 31
0.0
  0
LINE
  5
5C8
  8
0
  6
CONTINUOUS
 62
     7
 10
176.0568389518
 20
695.3001216595
 30
0.0
 11
175.781838022
 21
695.025121661
 31
0.0
  0
LINE
  5
5C9
  8
0
  6
CONTINUOUS
 62
     7
 10
176.1068397982
 20
695.675121721
 30
0.0
 11
176.0568389518
 21
695.675121721
 31
0.0
  0
LINE
  5
5CA
  8
0
  6
CONTINUOUS
 62
     7
 10
176.0568389518
 20
691.4751216379
 30
0.0
 11
176.0568389518
 21
691.1001218093
 31
0.0
  0
LINE
  5
5CB
  8
0
  6
CONTINUOUS
 62
     7
 10
176.1068397982
 20
691.4751216379
 30
0.0
 11
176.0568389518
 21
691.4751216379
 31
0.0
  0
LINE
  5
5CC
  8
0
  6
CONTINUOUS
 62
     7
 10
176.0568389518
 20
691.1001218093
 30
0.0
 11
175.781838022
 21
690.8251218108
 31
0.0
  0
LINE
  5
5CD
  8
0
  6
CONTINUOUS
 62
     7
 10
180.2568355424
 20
691.4751216379
 30
0.0
 11
180.2568355424
 21
691.1001218093
 31
0.0
  0
LINE
  5
5CE
  8
0
  6
CONTINUOUS
 62
     7
 10
180.3068363888
 20
691.4751216379
 30
0.0
 11
180.2568355424
 21
691.4751216379
 31
0.0
  0
LINE
  5
5CF
  8
0
  6
CONTINUOUS
 62
     7
 10
180.2568355424
 20
691.1001218093
 30
0.0
 11
179.9818346126
 21
690.8251218108
 31
0.0
  0
LINE
  5
5D0
  8
0
  6
CONTINUOUS
 62
     7
 10
170.3568393214
 20
691.1001218093
 30
0.0
 11
170.3568393214
 21
691.4751216379
 31
0.0
  0
LINE
  5
5D1
  8
0
  6
CONTINUOUS
 62
     7
 10
170.3568393214
 20
691.4751216379
 30
0.0
 11
170.306838475
 21
691.4751216379
 31
0.0
  0
LINE
  5
5D2
  8
0
  6
CONTINUOUS
 62
     7
 10
170.3568393214
 20
691.1001218093
 30
0.0
 11
170.6318402512
 21
690.8251218108
 31
0.0
  0
LINE
  5
5D3
  8
0
  6
CONTINUOUS
 62
     7
 10
170.3568393214
 20
692.4751216854
 30
0.0
 11
170.3568393214
 21
691.9751217199
 31
0.0
  0
LINE
  5
5D4
  8
0
  6
CONTINUOUS
 62
     7
 10
170.3568393214
 20
691.9751217199
 30
0.0
 11
170.306838475
 21
691.9751217199
 31
0.0
  0
LINE
  5
5D5
  8
0
  6
CONTINUOUS
 62
     7
 10
180.2568355424
 20
692.4751216854
 30
0.0
 11
180.2568355424
 21
691.9751217199
 31
0.0
  0
LINE
  5
5D6
  8
0
  6
CONTINUOUS
 62
     7
 10
180.2568355424
 20
691.9751217199
 30
0.0
 11
180.3068363888
 21
691.9751217199
 31
0.0
  0
LINE
  5
5D7
  8
0
  6
CONTINUOUS
 62
     7
 10
174.556835912
 20
692.4751216854
 30
0.0
 11
174.556835912
 21
691.9751217199
 31
0.0
  0
LINE
  5
5D8
  8
0
  6
CONTINUOUS
 62
     7
 10
174.556835912
 20
691.9751217199
 30
0.0
 11
174.5068350656
 21
691.9751217199
 31
0.0
  0
LINE
  5
5D9
  8
0
  6
CONTINUOUS
 62
     7
 10
178.7568399532
 20
691.1001218093
 30
0.0
 11
178.7568399532
 21
691.4751216379
 31
0.0
  0
LINE
  5
5DA
  8
0
  6
CONTINUOUS
 62
     7
 10
178.7568399532
 20
691.4751216379
 30
0.0
 11
178.7068391068
 21
691.4751216379
 31
0.0
  0
LINE
  5
5DB
  8
0
  6
CONTINUOUS
 62
     7
 10
178.7568399532
 20
691.1001218093
 30
0.0
 11
179.031840883
 21
690.8251218108
 31
0.0
  0
LINE
  5
5DC
  8
0
  6
CONTINUOUS
 62
     7
 10
171.8568349106
 20
691.4751216379
 30
0.0
 11
171.8568349106
 21
691.1001218093
 31
0.0
  0
LINE
  5
5DD
  8
0
  6
CONTINUOUS
 62
     7
 10
171.8568349106
 20
691.1001218093
 30
0.0
 11
171.5818339808
 21
690.8251218108
 31
0.0
  0
LINE
  5
5DE
  8
0
  6
CONTINUOUS
 62
     7
 10
171.906835757
 20
691.4751216379
 30
0.0
 11
171.8568349106
 21
691.4751216379
 31
0.0
  0
LINE
  5
5DF
  8
0
  6
CONTINUOUS
 62
     7
 10
171.8568349106
 20
695.675121721
 30
0.0
 11
171.8568349106
 21
695.3001216595
 31
0.0
  0
LINE
  5
5E0
  8
0
  6
CONTINUOUS
 62
     7
 10
171.906835757
 20
695.675121721
 30
0.0
 11
171.8568349106
 21
695.675121721
 31
0.0
  0
LINE
  5
5E1
  8
0
  6
CONTINUOUS
 62
     7
 10
171.8568349106
 20
695.3001216595
 30
0.0
 11
171.5818339808
 21
695.025121661
 31
0.0
  0
LINE
  5
5E2
  8
0
  6
CONTINUOUS
 62
     7
 10
170.3568393214
 20
695.3001216595
 30
0.0
 11
170.3568393214
 21
695.675121721
 31
0.0
  0
LINE
  5
5E3
  8
0
  6
CONTINUOUS
 62
     7
 10
170.3568393214
 20
695.675121721
 30
0.0
 11
170.306838475
 21
695.675121721
 31
0.0
  0
LINE
  5
5E4
  8
0
  6
CONTINUOUS
 62
     7
 10
170.3568393214
 20
695.3001216595
 30
0.0
 11
170.6318402512
 21
695.025121661
 31
0.0
  0
LINE
  5
5E5
  8
0
  6
CONTINUOUS
 62
     7
 10
178.7568399532
 20
695.3001216595
 30
0.0
 11
178.7568399532
 21
695.675121721
 31
0.0
  0
LINE
  5
5E6
  8
0
  6
CONTINUOUS
 62
     7
 10
178.7568399532
 20
695.675121721
 30
0.0
 11
178.7068391068
 21
695.675121721
 31
0.0
  0
LINE
  5
5E7
  8
0
  6
CONTINUOUS
 62
     7
 10
178.7568399532
 20
695.3001216595
 30
0.0
 11
179.031840883
 21
695.025121661
 31
0.0
  0
LINE
  5
5E8
  8
0
  6
CONTINUOUS
 62
     7
 10
174.556835912
 20
695.3001216595
 30
0.0
 11
174.556835912
 21
695.675121721
 31
0.0
  0
LINE
  5
5E9
  8
0
  6
CONTINUOUS
 62
     7
 10
174.556835912
 20
695.3001216595
 30
0.0
 11
174.8318368418
 21
695.025121661
 31
0.0
  0
LINE
  5
5EA
  8
0
  6
CONTINUOUS
 62
     7
 10
174.556835912
 20
695.675121721
 30
0.0
 11
174.5068350656
 21
695.675121721
 31
0.0
  0
LINE
  5
5EB
  8
0
  6
CONTINUOUS
 62
     7
 10
180.2568355424
 20
695.675121721
 30
0.0
 11
180.2568355424
 21
695.3001216595
 31
0.0
  0
LINE
  5
5EC
  8
0
  6
CONTINUOUS
 62
     7
 10
180.3068363888
 20
695.675121721
 30
0.0
 11
180.2568355424
 21
695.675121721
 31
0.0
  0
LINE
  5
5ED
  8
0
  6
CONTINUOUS
 62
     7
 10
180.2568355424
 20
695.3001216595
 30
0.0
 11
179.9818346126
 21
695.025121661
 31
0.0
  0
LINE
  5
5EE
  8
0
  6
CONTINUOUS
 62
     7
 10
176.8068367465
 20
698.725121895
 30
0.0
 11
178.006834708
 21
698.725121895
 31
0.0
  0
LINE
  5
5EF
  8
0
  6
CONTINUOUS
 62
     7
 10
178.006834708
 20
698.4251219389
 30
0.0
 11
178.006834708
 21
698.725121895
 31
0.0
  0
LINE
  5
5F0
  8
0
  6
CONTINUOUS
 62
     7
 10
172.6068401558
 20
698.725121895
 30
0.0
 11
173.8068381174
 21
698.725121895
 31
0.0
  0
LINE
  5
5F1
  8
0
  6
CONTINUOUS
 62
     7
 10
172.6068401558
 20
698.725121895
 30
0.0
 11
172.6068401558
 21
698.4251219389
 31
0.0
  0
LINE
  5
5F2
  8
0
  6
CONTINUOUS
 62
     7
 10
176.0568389518
 20
696.175121803
 30
0.0
 11
176.0568389518
 21
695.675121721
 31
0.0
  0
LINE
  5
5F3
  8
0
  6
CONTINUOUS
 62
     7
 10
171.8568349106
 20
696.175121803
 30
0.0
 11
171.8568349106
 21
695.675121721
 31
0.0
  0
LINE
  5
5F4
  8
0
  6
CONTINUOUS
 62
     7
 10
178.7568399532
 20
691.4751216379
 30
0.0
 11
178.7568399532
 21
691.9751217199
 31
0.0
  0
LINE
  5
5F5
  8
0
  6
CONTINUOUS
 62
     7
 10
171.8568349106
 20
691.9751217199
 30
0.0
 11
171.8568349106
 21
691.4751216379
 31
0.0
  0
LINE
  5
5F6
  8
0
  6
CONTINUOUS
 62
     7
 10
176.0568389518
 20
691.9751217199
 30
0.0
 11
176.0568389518
 21
691.4751216379
 31
0.0
  0
LINE
  5
5F7
  8
0
  6
CONTINUOUS
 62
     7
 10
170.3568393214
 20
695.675121721
 30
0.0
 11
170.3568393214
 21
696.175121803
 31
0.0
  0
LINE
  5
5F8
  8
0
  6
CONTINUOUS
 62
     7
 10
174.556835912
 20
691.4751216379
 30
0.0
 11
174.556835912
 21
691.9751217199
 31
0.0
  0
LINE
  5
5F9
  8
0
  6
CONTINUOUS
 62
     7
 10
180.2568355424
 20
691.9751217199
 30
0.0
 11
180.2568355424
 21
691.4751216379
 31
0.0
  0
LINE
  5
5FA
  8
0
  6
CONTINUOUS
 62
     7
 10
178.7568399532
 20
695.675121721
 30
0.0
 11
178.7568399532
 21
696.175121803
 31
0.0
  0
LINE
  5
5FB
  8
0
  6
CONTINUOUS
 62
     7
 10
174.556835912
 20
695.675121721
 30
0.0
 11
174.556835912
 21
696.175121803
 31
0.0
  0
LINE
  5
5FC
  8
0
  6
CONTINUOUS
 62
     7
 10
180.2568355424
 20
696.175121803
 30
0.0
 11
180.2568355424
 21
695.675121721
 31
0.0
  0
LINE
  5
5FD
  8
0
  6
CONTINUOUS
 62
     7
 10
170.3568393214
 20
691.4751216379
 30
0.0
 11
170.3568393214
 21
691.9751217199
 31
0.0
  0
LINE
  5
5FE
  8
0
  6
CONTINUOUS
 62
     7
 10
172.6068401558
 20
701.2251218391
 30
0.0
 11
173.8068381174
 21
701.2251218391
 31
0.0
  0
LINE
  5
5FF
  8
0
  6
CONTINUOUS
 62
     7
 10
172.6068401558
 20
701.2251218391
 30
0.0
 11
172.6068401558
 21
698.725121895
 31
0.0
  0
LINE
  5
600
  8
0
  6
CONTINUOUS
 62
     7
 10
178.006834708
 20
701.2251218391
 30
0.0
 11
176.8068367465
 21
701.2251218391
 31
0.0
  0
LINE
  5
601
  8
0
  6
CONTINUOUS
 62
     7
 10
178.006834708
 20
698.725121895
 30
0.0
 11
178.006834708
 21
701.2251218391
 31
0.0
  0
LINE
  5
602
  8
0
  6
CONTINUOUS
 62
     7
 10
178.006834708
 20
701.9251215813
 30
0.0
 11
176.8068367465
 21
701.9251215813
 31
0.0
  0
LINE
  5
603
  8
0
  6
CONTINUOUS
 62
     7
 10
178.006834708
 20
701.2251218391
 30
0.0
 11
178.006834708
 21
701.9251215813
 31
0.0
  0
LINE
  5
604
  8
0
  6
CONTINUOUS
 62
     7
 10
173.8068381174
 20
701.9251215813
 30
0.0
 11
172.6068401558
 21
701.9251215813
 31
0.0
  0
LINE
  5
605
  8
0
  6
CONTINUOUS
 62
     7
 10
172.6068401558
 20
701.9251215813
 30
0.0
 11
172.6068401558
 21
701.2251218391
 31
0.0
  0
LINE
  5
606
  8
0
  6
CONTINUOUS
 62
     7
 10
178.006834708
 20
702.225122003
 30
0.0
 11
172.6068401558
 21
702.225122003
 31
0.0
  0
LINE
  5
607
  8
0
  6
CONTINUOUS
 62
     7
 10
178.006834708
 20
702.225122003
 30
0.0
 11
178.006834708
 21
701.9251215813
 31
0.0
  0
LINE
  5
608
  8
0
  6
CONTINUOUS
 62
     7
 10
172.6068401558
 20
701.9251215813
 30
0.0
 11
172.6068401558
 21
702.225122003
 31
0.0
  0
LINE
  5
609
  8
0
  6
CONTINUOUS
 62
     7
 10
168.4068361146
 20
699.4251216372
 30
0.0
 11
171.8068340642
 21
699.4251216372
 31
0.0
  0
LINE
  5
60A
  8
0
  6
CONTINUOUS
 62
     7
 10
171.8068340642
 20
698.4251219389
 30
0.0
 11
171.8068340642
 21
699.4251216372
 31
0.0
  0
LINE
  5
60B
  8
0
  6
CONTINUOUS
 62
     7
 10
168.4068361146
 20
698.4251219389
 30
0.0
 11
168.4068361146
 21
699.4251216372
 31
0.0
  0
LINE
  5
60C
  8
0
  6
CONTINUOUS
 62
     7
 10
178.8068407996
 20
699.4251216372
 30
0.0
 11
182.2068387492
 21
699.4251216372
 31
0.0
  0
LINE
  5
60D
  8
0
  6
CONTINUOUS
 62
     7
 10
178.8068407996
 20
698.4251219389
 30
0.0
 11
178.8068407996
 21
699.4251216372
 31
0.0
  0
LINE
  5
60E
  8
0
  6
CONTINUOUS
 62
     7
 10
182.2068387492
 20
698.4251219389
 30
0.0
 11
182.2068387492
 21
699.4251216372
 31
0.0
  0
LINE
  5
60F
  8
0
  6
CONTINUOUS
 62
     7
 10
182.2068387492
 20
687.8251217847
 30
0.0
 11
168.4068361146
 21
687.8251217847
 31
0.0
  0
LINE
  5
610
  8
0
  6
CONTINUOUS
 62
     7
 10
168.4068361146
 20
687.8251217847
 30
0.0
 11
168.4068361146
 21
688.825121483
 31
0.0
  0
LINE
  5
611
  8
0
  6
CONTINUOUS
 62
     7
 10
182.2068387492
 20
688.825121483
 30
0.0
 11
182.2068387492
 21
687.8251217847
 31
0.0
  0
LINE
  5
612
  8
0
  6
CONTINUOUS
 62
     7
 10
161.6068402154
 20
680.6251214427
 30
0.0
 11
149.6068382485
 21
680.6251214427
 31
0.0
  0
LINE
  5
613
  8
0
  6
CONTINUOUS
 62
     7
 10
149.6068382485
 20
706.6251219792
 30
0.0
 11
161.6068402154
 21
706.6251219792
 31
0.0
  0
LINE
  5
614
  8
0
  6
CONTINUOUS
 62
     7
 10
161.6068402154
 20
680.6251214427
 30
0.0
 11
161.6068402154
 21
687.5251218287
 31
0.0
  0
LINE
  5
615
  8
0
  6
CONTINUOUS
 62
     7
 10
161.6068402154
 20
699.7251215932
 30
0.0
 11
161.6068402154
 21
706.6251219792
 31
0.0
  0
LINE
  5
616
  8
0
  6
CONTINUOUS
 62
     7
 10
149.6068382485
 20
680.6251214427
 30
0.0
 11
149.6068382485
 21
687.5251218287
 31
0.0
  0
LINE
  5
617
  8
0
  6
CONTINUOUS
 62
     7
 10
149.6068382485
 20
699.7251215932
 30
0.0
 11
149.6068382485
 21
706.6251219792
 31
0.0
  0
LINE
  5
618
  8
0
  6
CONTINUOUS
 62
     7
 10
159.2568376882
 20
696.7251218
 30
0.0
 11
150.3568360431
 21
696.7251218
 31
0.0
  0
ARC
  5
619
  8
0
  6
CONTINUOUS
 62
     7
 10
159.2568372948
 20
695.725121711
 30
0.0
 40
1.000000000000114
 50
45.2806413896
 51
90.0
  0
LINE
  5
61A
  8
0
  6
CONTINUOUS
 62
     7
 10
161.1382881029
 20
695.2693464543
 30
0.0
 11
159.9604705198
 21
696.4356835076
 31
0.0
  0
ARC
  5
61B
  8
0
  6
CONTINUOUS
 62
     7
 10
160.8568372948
 20
694.985121711
 30
0.0
 40
0.4000000000001184
 50
0.0
 51
45.2806413896
  0
LINE
  5
61C
  8
0
  6
CONTINUOUS
 62
     7
 10
161.2568342907
 20
692.2651217162
 30
0.0
 11
161.2568342907
 21
694.9851217057
 31
0.0
  0
ARC
  5
61D
  8
0
  6
CONTINUOUS
 62
     7
 10
160.8568372948
 20
692.265121711
 30
0.0
 40
0.3999999999999773
 50
314.7193586104
 51
0.0
  0
LINE
  5
61E
  8
0
  6
CONTINUOUS
 62
     7
 10
159.9604705198
 20
690.8145599143
 30
0.0
 11
161.1382881029
 21
691.9808969676
 31
0.0
  0
ARC
  5
61F
  8
0
  6
CONTINUOUS
 62
     7
 10
159.2568372948
 20
691.525121711
 30
0.0
 40
0.9999999999999543
 50
270.0
 51
314.7193586104
  0
LINE
  5
620
  8
0
  6
CONTINUOUS
 62
     7
 10
150.3568360431
 20
690.5251216219
 30
0.0
 11
159.2568376882
 21
690.5251216219
 31
0.0
  0
ARC
  5
621
  8
0
  6
CONTINUOUS
 62
     7
 10
150.3568372948
 20
690.925121711
 30
0.0
 40
0.4000000000000057
 50
180.0
 51
270.0
  0
LINE
  5
622
  8
0
  6
CONTINUOUS
 62
     7
 10
149.9568367226
 20
696.325121781
 30
0.0
 11
149.9568367226
 21
690.9251216409
 31
0.0
  0
ARC
  5
623
  8
0
  6
CONTINUOUS
 62
     7
 10
150.3568372948
 20
696.325121711
 30
0.0
 40
0.3999999999999773
 50
90.0000000001
 51
180.0
  0
LINE
  5
624
  8
0
  6
CONTINUOUS
 62
     7
 10
146.2068402989
 20
691.1251217668
 30
0.0
 11
148.7068379147
 21
691.1251217668
 31
0.0
  0
LINE
  5
625
  8
0
  6
CONTINUOUS
 62
     7
 10
148.7068379147
 20
693.6001217116
 30
0.0
 11
146.2068402989
 21
693.6001217116
 31
0.0
  0
LINE
  5
626
  8
0
  6
CONTINUOUS
 62
     7
 10
148.7068379147
 20
691.1251217668
 30
0.0
 11
148.7068379147
 21
693.6001217116
 31
0.0
  0
LINE
  5
627
  8
0
  6
CONTINUOUS
 62
     7
 10
146.2068402989
 20
691.1251217668
 30
0.0
 11
146.2068402989
 21
693.6001217116
 31
0.0
  0
LINE
  5
628
  8
0
  6
CONTINUOUS
 62
     7
 10
162.5068405492
 20
691.1251217668
 30
0.0
 11
165.006838165
 21
691.1251217668
 31
0.0
  0
LINE
  5
629
  8
0
  6
CONTINUOUS
 62
     7
 10
162.5068405492
 20
691.1251217668
 30
0.0
 11
162.5068405492
 21
693.6001217116
 31
0.0
  0
LINE
  5
62A
  8
0
  6
CONTINUOUS
 62
     7
 10
165.006838165
 20
693.6001217116
 30
0.0
 11
162.5068405492
 21
693.6001217116
 31
0.0
  0
LINE
  5
62B
  8
0
  6
CONTINUOUS
 62
     7
 10
165.006838165
 20
691.1251217668
 30
0.0
 11
165.006838165
 21
693.6001217116
 31
0.0
  0
LINE
  5
62C
  8
0
  6
CONTINUOUS
 62
     7
 10
165.006838165
 20
696.1251216551
 30
0.0
 11
162.5068405492
 21
696.1251216551
 31
0.0
  0
LINE
  5
62D
  8
0
  6
CONTINUOUS
 62
     7
 10
162.5068405492
 20
696.1251216551
 30
0.0
 11
162.5068405492
 21
693.6501217103
 31
0.0
  0
LINE
  5
62E
  8
0
  6
CONTINUOUS
 62
     7
 10
165.006838165
 20
693.6501217103
 30
0.0
 11
162.5068405492
 21
693.6501217103
 31
0.0
  0
LINE
  5
62F
  8
0
  6
CONTINUOUS
 62
     7
 10
165.006838165
 20
696.1251216551
 30
0.0
 11
165.006838165
 21
693.6501217103
 31
0.0
  0
LINE
  5
630
  8
0
  6
CONTINUOUS
 62
     7
 10
148.7068379147
 20
696.1251216551
 30
0.0
 11
146.2068402989
 21
696.1251216551
 31
0.0
  0
LINE
  5
631
  8
0
  6
CONTINUOUS
 62
     7
 10
148.7068379147
 20
693.6501217103
 30
0.0
 11
146.2068402989
 21
693.6501217103
 31
0.0
  0
LINE
  5
632
  8
0
  6
CONTINUOUS
 62
     7
 10
148.7068379147
 20
693.6501217103
 30
0.0
 11
148.7068379147
 21
696.1251216551
 31
0.0
  0
LINE
  5
633
  8
0
  6
CONTINUOUS
 62
     7
 10
146.2068402989
 20
693.6501217103
 30
0.0
 11
146.2068402989
 21
696.1251216551
 31
0.0
  0
LINE
  5
634
  8
0
  6
CONTINUOUS
 62
     7
 10
146.2068402989
 20
687.5251218287
 30
0.0
 11
165.006838165
 21
687.5251218287
 31
0.0
  0
LINE
  5
635
  8
0
  6
CONTINUOUS
 62
     7
 10
146.2068402989
 20
699.7251215932
 30
0.0
 11
165.006838165
 21
699.7251215932
 31
0.0
  0
LINE
  5
636
  8
0
  6
CONTINUOUS
 62
     7
 10
165.006838165
 20
691.1251217668
 30
0.0
 11
165.006838165
 21
687.5251218287
 31
0.0
  0
LINE
  5
637
  8
0
  6
CONTINUOUS
 62
     7
 10
165.006838165
 20
693.6501217103
 30
0.0
 11
165.006838165
 21
693.6001217116
 31
0.0
  0
LINE
  5
638
  8
0
  6
CONTINUOUS
 62
     7
 10
165.006838165
 20
696.1251216551
 30
0.0
 11
165.006838165
 21
699.7251215932
 31
0.0
  0
LINE
  5
639
  8
0
  6
CONTINUOUS
 62
     7
 10
146.2068402989
 20
696.1251216551
 30
0.0
 11
146.2068402989
 21
699.7251215932
 31
0.0
  0
LINE
  5
63A
  8
0
  6
CONTINUOUS
 62
     7
 10
146.2068402989
 20
693.6501217103
 30
0.0
 11
146.2068402989
 21
693.6001217116
 31
0.0
  0
LINE
  5
63B
  8
0
  6
CONTINUOUS
 62
     7
 10
146.2068402989
 20
687.5251218287
 30
0.0
 11
146.2068402989
 21
691.1251217668
 31
0.0
  0
LINE
  5
63C
  8
0
  6
CONTINUOUS
 62
     8
 10
173.0986157281
 20
710.8251222951
 30
0.0
 11
167.3068398459
 21
710.8251222951
 31
0.0
  0
LINE
  5
63D
  8
0
  6
CONTINUOUS
 62
     8
 10
174.3068391306
 20
710.8251222951
 30
0.0
 11
173.4521681292
 21
710.8251222951
 31
0.0
  0
ENDSEC
  0
EOF
