  0
SECTION
  2
HEADER
  9
$ACADVER
  1
AC1009
  9
$DWGCODEPAGE
  3
dos932
  9
$INSBASE
 10
0.0
 20
0.0
 30
0.0
  9
$EXTMIN
 10
0.0
 20
0.0
 30
0.0
  9
$EXTMAX
 10
594.0
 20
420.0
 30
0.0
  9
$LIMMIN
 10
0.0
 20
0.0
  9
$LIMMAX
 10
594.0
 20
420.0
  9
$ORTHOMODE
 70
     0
  9
$REGENMODE
 70
     1
  9
$FILLMODE
 70
     1
  9
$QTEXTMODE
 70
     0
  9
$MIRRTEXT
 70
     1
  9
$DRAGMODE
 70
     2
  9
$LTSCALE
 40
1.0
  9
$OSMODE
 70
    37
  9
$ATTMODE
 70
     1
  9
$TEXTSIZE
 40
3.5
  9
$TRACEWID
 40
1.0
  9
$TEXTSTYLE
  7
STANDARD
  9
$CLAYER
  8
0
  9
$CELTYPE
  6
BYLAYER
  9
$CECOLOR
 62
   256
  9
$DIMSCALE
 40
1.0
  9
$DIMASZ
 40
3.0
  9
$DIMEXO
 40
0.01
  9
$DIMDLI
 40
3.75
  9
$DIMRND
 40
0.0
  9
$DIMDLE
 40
0.0
  9
$DIMEXE
 40
1.0
  9
$DIMTP
 40
0.0
  9
$DIMTM
 40
0.0
  9
$DIMTXT
 40
3.5
  9
$DIMCEN
 40
2.5
  9
$DIMTSZ
 40
0.0
  9
$DIMTOL
 70
     0
  9
$DIMLIM
 70
     0
  9
$DIMTIH
 70
     1
  9
$DIMTOH
 70
     1
  9
$DIMSE1
 70
     0
  9
$DIMSE2
 70
     0
  9
$DIMTAD
 70
     1
  9
$DIMZIN
 70
     1
  9
$DIMBLK
  1

  9
$DIMASO
 70
     1
  9
$DIMSHO
 70
     1
  9
$DIMPOST
  1

  9
$DIMAPOST
  1

  9
$DIMALT
 70
     0
  9
$DIMALTD
 70
     3
  9
$DIMALTF
 40
0.0393700787
  9
$DIMLFAC
 40
1.0
  9
$DIMTOFL
 70
     1
  9
$DIMTVP
 40
0.0
  9
$DIMTIX
 70
     0
  9
$DIMSOXD
 70
     0
  9
$DIMSAH
 70
     0
  9
$DIMBLK1
  1

  9
$DIMBLK2
  1

  9
$DIMSTYLE
  2
ISO-25
  9
$DIMCLRD
 70
     0
  9
$DIMCLRE
 70
     0
  9
$DIMCLRT
 70
     0
  9
$DIMTFAC
 40
1.0
  9
$DIMGAP
 40
1.524
  9
$LUNITS
 70
     2
  9
$LUPREC
 70
     2
  9
$SKETCHINC
 40
1.0
  9
$FILLETRAD
 40
10.0
  9
$AUNITS
 70
     0
  9
$AUPREC
 70
     2
  9
$MENU
  1
.
  9
$ELEVATION
 40
0.0
  9
$PELEVATION
 40
0.0
  9
$THICKNESS
 40
0.0
  9
$LIMCHECK
 70
     0
  9
$CHAMFERA
 40
0.0
  9
$CHAMFERB
 40
0.0
  9
$SKPOLY
 70
     0
  9
$TDCREATE
 40
2457519.507038831
  9
$TDUPDATE
 40
2457519.507039549
  9
$TDINDWG
 40
0.0000000116
  9
$TDUSRTIMER
 40
0.0000000116
  9
$USRTIMER
 70
     1
  9
$ANGBASE
 50
0.0
  9
$ANGDIR
 70
     0
  9
$PDMODE
 70
     0
  9
$PDSIZE
 40
-1.0
  9
$PLINEWID
 40
0.0
  9
$COORDS
 70
     1
  9
$SPLFRAME
 70
     0
  9
$SPLINETYPE
 70
     6
  9
$SPLINESEGS
 70
     8
  9
$ATTDIA
 70
     0
  9
$ATTREQ
 70
     1
  9
$HANDLING
 70
     1
  9
$HANDSEED
  5
5EB
  9
$SURFTAB1
 70
     6
  9
$SURFTAB2
 70
     6
  9
$SURFTYPE
 70
     6
  9
$SURFU
 70
     6
  9
$SURFV
 70
     6
  9
$UCSNAME
  2

  9
$UCSORG
 10
0.0
 20
0.0
 30
0.0
  9
$UCSXDIR
 10
1.0
 20
0.0
 30
0.0
  9
$UCSYDIR
 10
0.0
 20
1.0
 30
0.0
  9
$PUCSNAME
  2

  9
$PUCSORG
 10
0.0
 20
0.0
 30
0.0
  9
$PUCSXDIR
 10
1.0
 20
0.0
 30
0.0
  9
$PUCSYDIR
 10
0.0
 20
1.0
 30
0.0
  9
$USERI1
 70
     0
  9
$USERI2
 70
     0
  9
$USERI3
 70
     0
  9
$USERI4
 70
     0
  9
$USERI5
 70
     0
  9
$USERR1
 40
0.0
  9
$USERR2
 40
0.0
  9
$USERR3
 40
0.0
  9
$USERR4
 40
0.0
  9
$USERR5
 40
0.0
  9
$WORLDVIEW
 70
     1
  9
$SHADEDGE
 70
     3
  9
$SHADEDIF
 70
    70
  9
$TILEMODE
 70
     1
  9
$MAXACTVP
 70
    64
  9
$PLIMCHECK
 70
     0
  9
$PEXTMIN
 10
1.0000000000E+20
 20
1.0000000000E+20
 30
1.0000000000E+20
  9
$PEXTMAX
 10
-1.0000000000E+20
 20
-1.0000000000E+20
 30
-1.0000000000E+20
  9
$PLIMMIN
 10
0.0
 20
0.0
  9
$PLIMMAX
 10
420.0
 20
297.0
  9
$UNITMODE
 70
     0
  9
$VISRETAIN
 70
     1
  9
$PLINEGEN
 70
     0
  9
$PSLTSCALE
 70
     1
  0
ENDSEC
  0
SECTION
  2
TABLES
  0
TABLE
  2
VPORT
 70
     1
  0
VPORT
  2
*ACTIVE
 70
     0
 10
0.0
 20
0.0
 11
1.0
 21
1.0
 12
297.0
 22
210.0
 13
0.0
 23
0.0
 14
10.0
 24
10.0
 15
10.0
 25
10.0
 16
0.0
 26
0.0
 36
1.0
 17
0.0
 27
0.0
 37
0.0
 40
420.0
 41
1.4142857143
 42
50.0
 43
0.0
 44
0.0
 50
0.0
 51
0.0
 71
     0
 72
  2000
 73
     1
 74
     3
 75
     0
 76
     0
 77
     0
 78
     0
  0
ENDTAB
  0
TABLE
  2
LTYPE
 70
     6
  0
LTYPE
  2
CONTINUOUS
 70
     0
  3
Solid line
 72
    65
 73
     0
 40
0.0
  0
LTYPE
  2
HIDDEN
 70
     0
  3
Hidden __ __ __ __ __ __ __ __ __ __ __ __ __ __
 72
    65
 73
     2
 40
1.905
 49
1.27
 49
-0.635
  0
LTYPE
  2
PHANTOM
 70
     0
  3
Phantom ______  __  __  ______  __  __  ______
 72
    65
 73
     6
 40
12.7
 49
6.35
 49
-1.27
 49
1.27
 49
-1.27
 49
1.27
 49
-1.27
  0
LTYPE
  2
CENTER
 70
     0
  3
Center ____ _ ____ _ ____ _ ____ _ ____ _ ____
 72
    65
 73
     4
 40
10.16
 49
6.35
 49
-1.27
 49
1.27
 49
-1.27
  0
LTYPE
  2
CENTERX2
 70
     0
  3
Center (2x) ________  __  ________  __  _____
 72
    65
 73
     4
 40
20.32
 49
12.7
 49
-2.54
 49
2.54
 49
-2.54
  0
LTYPE
  2
DOT2
 70
     0
  3
Dot (.5x) ........................................
 72
    65
 73
     2
 40
0.635
 49
0.0
 49
-0.635
  0
ENDTAB
  0
TABLE
  2
LAYER
 70
     4
  0
LAYER
  2
0
 70
     0
 62
     7
  6
CONTINUOUS
  0
LAYER
  2
DIM
 70
     0
 62
     7
  6
CONTINUOUS
  0
LAYER
  2
TXT
 70
     0
 62
     7
  6
CONTINUOUS
  0
LAYER
  2
SLD-0
 70
     0
 62
     7
  6
CONTINUOUS
  0
ENDTAB
  0
TABLE
  2
STYLE
 70
     1
  0
STYLE
  2
STANDARD
 70
     0
 40
0.0
 41
1.0
 50
0.0
 71
     0
 42
3.5
  3
txt
  4
bigfont
  0
ENDTAB
  0
TABLE
  2
VIEW
 70
     0
  0
ENDTAB
  0
TABLE
  2
UCS
 70
     0
  0
ENDTAB
  0
TABLE
  2
APPID
 70
     1
  0
APPID
  2
ACAD
 70
     0
  0
ENDTAB
  0
TABLE
  2
DIMSTYLE
 70
     1
  0
DIMSTYLE
  2
ISO-25
 70
     0
  3

  4

  5

  6

  7

 40
1.0
 41
2.5
 42
0.625
 43
3.75
 44
1.25
 45
0.0
 46
0.0
 47
0.0
 48
0.0
140
2.5
141
2.5
142
0.0
143
0.0393700787
144
1.0
145
0.0
146
1.0
147
0.625
 71
     0
 72
     0
 73
     0
 74
     0
 75
     0
 76
     0
 77
     1
 78
     8
170
     0
171
     3
172
     1
173
     0
174
     0
175
     0
176
     0
177
     0
178
     0
  0
ENDTAB
  0
ENDSEC
  0
SECTION
  2
BLOCKS
  0
BLOCK
  8
0
  2
$MODEL_SPACE
 70
     0
 10
0.0
 20
0.0
 30
0.0
  3
$MODEL_SPACE
  1

  0
ENDBLK
  5
21
  8
0
  0
BLOCK
 67
     1
  8
0
  2
$PAPER_SPACE
 70
     0
 10
0.0
 20
0.0
 30
0.0
  3
$PAPER_SPACE
  1

  0
ENDBLK
  5
1D
 67
     1
  8
0
  0
ENDSEC
  0
SECTION
  2
ENTITIES
  0
LINE
  5
72
  8
SLD-0
  6
CONTINUOUS
 62
     7
 10
246.3174708742
 20
158.0587953949
 30
0.0
 11
244.3174707792
 21
158.0587953949
 31
0.0
  0
LINE
  5
73
  8
SLD-0
  6
CONTINUOUS
 62
     7
 10
244.3174707792
 20
136.0587955142
 30
0.0
 11
246.3174708742
 21
136.0587955142
 31
0.0
  0
LINE
  5
74
  8
SLD-0
  6
CONTINUOUS
 62
     7
 10
264.3174703322
 20
150.0587954806
 30
0.0
 11
246.3174708742
 21
150.0587954806
 31
0.0
  0
LINE
  5
75
  8
SLD-0
  6
CONTINUOUS
 62
     7
 10
246.3174708742
 20
144.0587954285
 30
0.0
 11
264.3174703322
 21
144.0587954285
 31
0.0
  0
LINE
  5
76
  8
SLD-0
  6
CONTINUOUS
 62
     7
 10
199.0174713633
 20
113.0587936068
 30
0.0
 11
199.0174713633
 21
-94.3412079787
 31
0.0
  0
LINE
  5
77
  8
SLD-0
  6
CONTINUOUS
 62
     7
 10
207.0174689494
 20
-94.3412079787
 30
0.0
 11
207.0174689494
 21
113.0587936068
 31
0.0
  0
LINE
  5
78
  8
SLD-0
  6
CONTINUOUS
 62
     7
 10
175.3174707792
 20
165.5408462621
 30
0.0
 11
174.3174704812
 21
163.8087958718
 31
0.0
  0
LINE
  5
79
  8
SLD-0
  6
CONTINUOUS
 62
     7
 10
174.3174704812
 20
130.3087950373
 30
0.0
 11
175.3174707792
 21
128.5767446469
 31
0.0
  0
LINE
  5
7A
  8
SLD-0
  6
CONTINUOUS
 62
     7
 10
180.3174677394
 20
113.0587936068
 30
0.0
 11
180.3174677394
 21
-130.4412081217
 31
0.0
  0
LINE
  5
7B
  8
SLD-0
  6
CONTINUOUS
 62
     7
 10
186.3174724482
 20
-130.4412081217
 30
0.0
 11
186.3174724482
 21
113.0587936068
 31
0.0
  0
LINE
  5
7C
  8
SLD-0
  6
CONTINUOUS
 62
     7
 10
210.2500896058
 20
115.0747083748
 30
0.0
 11
222.5302985958
 21
121.0650534058
 31
0.0
  0
LINE
  5
7D
  8
SLD-0
  6
CONTINUOUS
 62
     7
 10
208.202390661
 20
115.0587939346
 30
0.0
 11
210.217470964
 21
115.0587939346
 31
0.0
  0
LINE
  5
7E
  8
SLD-0
  6
CONTINUOUS
 62
     7
 10
194.0174724064
 20
115.0587939346
 30
0.0
 11
197.7674725554
 21
115.0587939346
 31
0.0
  0
LINE
  5
7F
  8
SLD-0
  6
CONTINUOUS
 62
     7
 10
197.7674725554
 20
115.0587939346
 30
0.0
 11
197.7674725554
 21
113.0587936068
 31
0.0
  0
LINE
  5
80
  8
SLD-0
  6
CONTINUOUS
 62
     7
 10
208.2674714826
 20
113.0587936068
 30
0.0
 11
208.2674714826
 21
115.0644153977
 31
0.0
  0
LINE
  5
81
  8
SLD-0
  6
CONTINUOUS
 62
     7
 10
198.5174703501
 20
-94.3412079787
 30
0.0
 11
198.5174703501
 21
-118.8411905741
 31
0.0
  0
LINE
  5
82
  8
SLD-0
  6
CONTINUOUS
 62
     7
 10
207.5174699626
 20
-118.8411905741
 30
0.0
 11
207.5174699626
 21
-94.3412079787
 31
0.0
  0
LINE
  5
83
  8
SLD-0
  6
CONTINUOUS
 62
     7
 10
199.5174707792
 20
-119.8412045455
 30
0.0
 11
199.5174723766
 21
-134.341199634
 31
0.0
  0
LINE
  5
84
  8
SLD-0
  6
CONTINUOUS
 62
     7
 10
206.5174716614
 20
-134.341199634
 30
0.0
 11
206.5174707792
 21
-119.8412045455
 31
0.0
  0
LINE
  5
85
  8
SLD-0
  6
CONTINUOUS
 62
     7
 10
207.8579018913
 20
-154.3412103629
 30
0.0
 11
206.9269332192
 21
-145.8391442275
 31
0.0
  0
LINE
  5
86
  8
SLD-0
  6
CONTINUOUS
 62
     7
 10
206.9269332192
 20
-145.8391442275
 30
0.0
 11
205.6695844136
 21
-134.341199634
 31
0.0
  0
LINE
  5
87
  8
SLD-0
  6
CONTINUOUS
 62
     7
 10
204.169585099
 20
-134.341199634
 30
0.0
 11
205.2101145587
 21
-143.8432826972
 31
0.0
  0
LINE
  5
88
  8
SLD-0
  6
CONTINUOUS
 62
     7
 10
205.2101145587
 20
-143.8432826972
 30
0.0
 11
206.3581819735
 21
-154.3412103629
 31
0.0
  0
LINE
  5
89
  8
SLD-0
  6
CONTINUOUS
 62
     7
 10
199.6738116346
 20
-154.3412103629
 30
0.0
 11
200.7394011221
 21
-144.3262293314
 31
0.0
  0
LINE
  5
8A
  8
SLD-0
  6
CONTINUOUS
 62
     7
 10
200.7394011221
 20
-144.3262293314
 30
0.0
 11
201.0547804735
 21
-141.4733126139
 31
0.0
  0
LINE
  5
8B
  8
SLD-0
  6
CONTINUOUS
 62
     7
 10
201.0547804735
 20
-141.4733126139
 30
0.0
 11
201.8652211032
 21
-134.341199634
 31
0.0
  0
LINE
  5
8C
  8
SLD-0
  6
CONTINUOUS
 62
     7
 10
200.3654937349
 20
-134.341199634
 30
0.0
 11
199.615775337
 21
-141.4670243239
 31
0.0
  0
LINE
  5
8D
  8
SLD-0
  6
CONTINUOUS
 62
     7
 10
199.615775337
 20
-141.4670243239
 30
0.0
 11
199.3073734544
 21
-144.314815042
 31
0.0
  0
LINE
  5
8E
  8
SLD-0
  6
CONTINUOUS
 62
     7
 10
199.3073734544
 20
-144.314815042
 30
0.0
 11
198.1799702249
 21
-154.3412103629
 31
0.0
  0
LINE
  5
8F
  8
SLD-0
  6
CONTINUOUS
 62
     7
 10
202.2679473362
 20
-134.341199634
 30
0.0
 11
202.2748391233
 21
-143.8432826972
 31
0.0
  0
LINE
  5
90
  8
SLD-0
  6
CONTINUOUS
 62
     7
 10
202.2748391233
 20
-143.8432826972
 30
0.0
 11
202.268111249
 21
-154.3412103629
 31
0.0
  0
LINE
  5
91
  8
SLD-0
  6
CONTINUOUS
 62
     7
 10
203.7666949532
 20
-154.3412103629
 30
0.0
 11
203.7600974641
 21
-145.8391442275
 31
0.0
  0
LINE
  5
92
  8
SLD-0
  6
CONTINUOUS
 62
     7
 10
203.7600974641
 20
-145.8391442275
 30
0.0
 11
203.7669929765
 21
-134.341199634
 31
0.0
  0
LINE
  5
93
  8
SLD-0
  6
CONTINUOUS
 62
     7
 10
199.7111315928
 20
-154.3412103629
 30
0.0
 11
200.9333658121
 21
-145.8391442275
 31
0.0
  0
LINE
  5
94
  8
SLD-0
  6
CONTINUOUS
 62
     7
 10
200.9333658121
 20
-145.8391442275
 30
0.0
 11
202.2695678375
 21
-136.5755989527
 31
0.0
  0
LINE
  5
95
  8
SLD-0
  6
CONTINUOUS
 62
     7
 10
203.765651872
 20
-136.5787579989
 30
0.0
 11
204.8130433164
 21
-143.8432826972
 31
0.0
  0
LINE
  5
96
  8
SLD-0
  6
CONTINUOUS
 62
     7
 10
204.8130433164
 20
-143.8432826972
 30
0.0
 11
206.3237044118
 21
-154.3412103629
 31
0.0
  0
LINE
  5
97
  8
SLD-0
  6
CONTINUOUS
 62
     7
 10
188.2555733524
 20
115.0587939346
 30
0.0
 11
189.3174710772
 21
115.0587939346
 31
0.0
  0
LINE
  5
98
  8
SLD-0
  6
CONTINUOUS
 62
     7
 10
177.3174691103
 20
115.0587939346
 30
0.0
 11
178.3174711368
 21
115.0587939346
 31
0.0
  0
LINE
  5
99
  8
SLD-0
  6
CONTINUOUS
 62
     7
 10
178.3174711368
 20
115.0587939346
 30
0.0
 11
178.3174711368
 21
113.0587936068
 31
0.0
  0
LINE
  5
9A
  8
SLD-0
  6
CONTINUOUS
 62
     7
 10
188.3174690507
 20
113.0587936068
 30
0.0
 11
188.3174690507
 21
115.0638864065
 31
0.0
  0
LINE
  5
9B
  8
SLD-0
  6
CONTINUOUS
 62
     7
 10
234.1174770188
 20
130.0882348019
 30
0.0
 11
244.3174773868
 21
130.0882348019
 31
0.0
  0
LINE
  5
9C
  8
SLD-0
  6
CONTINUOUS
 62
     7
 10
234.1174770188
 20
164.0293584364
 30
0.0
 11
234.1174770188
 21
130.0882348019
 31
0.0
  0
LINE
  5
9D
  8
SLD-0
  6
CONTINUOUS
 62
     7
 10
244.3174773868
 20
164.0293584364
 30
0.0
 11
234.1174770188
 21
164.0293584364
 31
0.0
  0
LINE
  5
9E
  8
SLD-0
  6
CONTINUOUS
 62
     7
 10
244.3174773868
 20
130.0882348019
 30
0.0
 11
244.3174773868
 21
164.0293584364
 31
0.0
  0
LINE
  5
9F
  8
SLD-0
  6
CONTINUOUS
 62
     7
 10
234.1174770188
 20
168.0587951714
 30
0.0
 11
244.3174773868
 21
168.0587951714
 31
0.0
  0
LINE
  5
A0
  8
SLD-0
  6
CONTINUOUS
 62
     7
 10
234.1174770188
 20
164.0293584364
 30
0.0
 11
234.1174770188
 21
168.0587951714
 31
0.0
  0
LINE
  5
A1
  8
SLD-0
  6
CONTINUOUS
 62
     7
 10
244.3174773868
 20
164.0293584364
 30
0.0
 11
244.3174773868
 21
168.0587951714
 31
0.0
  0
LINE
  5
A2
  8
SLD-0
  6
CONTINUOUS
 62
     7
 10
244.3174773868
 20
126.0587957377
 30
0.0
 11
234.1174770188
 21
126.0587957377
 31
0.0
  0
LINE
  5
A3
  8
SLD-0
  6
CONTINUOUS
 62
     7
 10
234.1174770188
 20
126.0587957377
 30
0.0
 11
234.1174770188
 21
130.0882348019
 31
0.0
  0
LINE
  5
A4
  8
SLD-0
  6
CONTINUOUS
 62
     7
 10
244.3174773868
 20
126.0587957377
 30
0.0
 11
244.3174773868
 21
130.0882348019
 31
0.0
  0
LINE
  5
A5
  8
SLD-0
  6
CONTINUOUS
 62
     7
 10
246.3174708742
 20
158.0587953949
 30
0.0
 11
246.3174708742
 21
136.0587955142
 31
0.0
  0
LINE
  5
A6
  8
SLD-0
  6
CONTINUOUS
 62
     7
 10
264.3174703322
 20
150.0587954806
 30
0.0
 11
264.3174703322
 21
144.0587954285
 31
0.0
  0
LINE
  5
A7
  8
SLD-0
  6
CONTINUOUS
 62
     7
 10
234.1174770188
 20
164.0293584364
 30
0.0
 11
212.1174762066
 21
164.0293584364
 31
0.0
  0
LINE
  5
A8
  8
SLD-0
  6
CONTINUOUS
 62
     7
 10
212.1174762066
 20
164.0293584364
 30
0.0
 11
212.1174762066
 21
168.0587951714
 31
0.0
  0
LINE
  5
A9
  8
SLD-0
  6
CONTINUOUS
 62
     7
 10
212.1174762066
 20
168.0587951714
 30
0.0
 11
234.1174770188
 21
168.0587951714
 31
0.0
  0
LINE
  5
AA
  8
SLD-0
  6
CONTINUOUS
 62
     7
 10
234.1174770188
 20
126.0587957377
 30
0.0
 11
212.1174762066
 21
126.0587957377
 31
0.0
  0
LINE
  5
AB
  8
SLD-0
  6
CONTINUOUS
 62
     7
 10
212.1174762066
 20
130.0882348019
 30
0.0
 11
234.1174770188
 21
130.0882348019
 31
0.0
  0
LINE
  5
AC
  8
SLD-0
  6
CONTINUOUS
 62
     7
 10
212.1174762066
 20
126.0587957377
 30
0.0
 11
212.1174762066
 21
130.0882348019
 31
0.0
  0
LINE
  5
AD
  8
SLD-0
  6
CONTINUOUS
 62
     7
 10
212.1174762066
 20
164.0293584364
 30
0.0
 11
212.1174762066
 21
130.0882348019
 31
0.0
  0
LINE
  5
AE
  8
SLD-0
  6
CONTINUOUS
 62
     7
 10
192.1174766537
 20
130.0882348019
 30
0.0
 11
212.1174762066
 21
130.0882348019
 31
0.0
  0
LINE
  5
AF
  8
SLD-0
  6
CONTINUOUS
 62
     7
 10
192.1174766537
 20
164.0293584364
 30
0.0
 11
192.1174766537
 21
130.0882348019
 31
0.0
  0
LINE
  5
B0
  8
SLD-0
  6
CONTINUOUS
 62
     7
 10
212.1174762066
 20
164.0293584364
 30
0.0
 11
192.1174766537
 21
164.0293584364
 31
0.0
  0
LINE
  5
B1
  8
SLD-0
  6
CONTINUOUS
 62
     7
 10
192.1174766537
 20
164.0293584364
 30
0.0
 11
192.1174766537
 21
168.0587951714
 31
0.0
  0
LINE
  5
B2
  8
SLD-0
  6
CONTINUOUS
 62
     7
 10
192.1174766537
 20
168.0587951714
 30
0.0
 11
212.1174762066
 21
168.0587951714
 31
0.0
  0
LINE
  5
B3
  8
SLD-0
  6
CONTINUOUS
 62
     7
 10
212.1174762066
 20
126.0587957377
 30
0.0
 11
192.1174766537
 21
126.0587957377
 31
0.0
  0
LINE
  5
B4
  8
SLD-0
  6
CONTINUOUS
 62
     7
 10
192.1174766537
 20
126.0587957377
 30
0.0
 11
192.1174766537
 21
130.0882348019
 31
0.0
  0
LINE
  5
B5
  8
SLD-0
  6
CONTINUOUS
 62
     7
 10
176.6398686073
 20
168.0587951714
 30
0.0
 11
175.8245614839
 21
168.0587954545
 31
0.0
  0
LINE
  5
B6
  8
SLD-0
  6
CONTINUOUS
 62
     7
 10
175.6100617416
 20
162.5587949292
 30
0.0
 11
175.4854342671
 21
161.6112661572
 31
0.0
  0
LINE
  5
B7
  8
SLD-0
  6
CONTINUOUS
 62
     7
 10
175.4854342671
 20
161.6112661572
 30
0.0
 11
175.4246747823
 21
160.7622212754
 31
0.0
  0
LINE
  5
B8
  8
SLD-0
  6
CONTINUOUS
 62
     7
 10
175.4246747823
 20
160.7622212754
 30
0.0
 11
175.4350161882
 21
160.1192957746
 31
0.0
  0
LINE
  5
B9
  8
SLD-0
  6
CONTINUOUS
 62
     7
 10
175.4350161882
 20
160.1192957746
 30
0.0
 11
175.5132025809
 21
159.7440072359
 31
0.0
  0
LINE
  5
BA
  8
SLD-0
  6
CONTINUOUS
 62
     7
 10
175.5132025809
 20
159.7440072359
 30
0.0
 11
175.6100601287
 21
159.6587949456
 31
0.0
  0
LINE
  5
BB
  8
SLD-0
  6
CONTINUOUS
 62
     7
 10
175.6100601287
 20
159.6587949456
 30
0.0
 11
176.6398719282
 21
159.6587949456
 31
0.0
  0
LINE
  5
BC
  8
SLD-0
  6
CONTINUOUS
 62
     7
 10
177.3086744655
 20
130.0882338706
 30
0.0
 11
177.3086765822
 21
126.0587957377
 31
0.0
  0
LINE
  5
BD
  8
SLD-0
  6
CONTINUOUS
 62
     7
 10
175.8245614839
 20
126.0587954545
 30
0.0
 11
177.3086765822
 21
126.0587957377
 31
0.0
  0
LINE
  5
BE
  8
SLD-0
  6
CONTINUOUS
 62
     7
 10
175.3174707792
 20
165.5408462621
 30
0.0
 11
175.3174707792
 21
128.5767446469
 31
0.0
  0
LINE
  5
BF
  8
SLD-0
  6
CONTINUOUS
 62
     7
 10
192.1174766537
 20
130.0882348019
 30
0.0
 11
192.1174766537
 21
159.6587949456
 31
0.0
  0
LINE
  5
C0
  8
SLD-0
  6
CONTINUOUS
 62
     7
 10
192.1174766537
 20
130.0882348019
 30
0.0
 11
177.3086744655
 21
130.0882338706
 31
0.0
  0
LINE
  5
C1
  8
SLD-0
  6
CONTINUOUS
 62
     7
 10
192.1174766537
 20
159.6587949456
 30
0.0
 11
176.6398719282
 21
159.6587949456
 31
0.0
  0
LINE
  5
C2
  8
SLD-0
  6
CONTINUOUS
 62
     7
 10
192.1174766537
 20
126.0587957377
 30
0.0
 11
177.3086765822
 21
126.0587957377
 31
0.0
  0
LINE
  5
C3
  8
SLD-0
  6
CONTINUOUS
 62
     7
 10
174.3174704812
 20
163.8087958718
 30
0.0
 11
174.3174704812
 21
130.3087950373
 31
0.0
  0
LINE
  5
C4
  8
SLD-0
  6
CONTINUOUS
 62
     7
 10
192.117473367
 20
162.5587946759
 30
0.0
 11
175.6100617416
 21
162.5587949292
 31
0.0
  0
LINE
  5
C5
  8
SLD-0
  6
CONTINUOUS
 62
     7
 10
192.1174766537
 20
168.0587951714
 30
0.0
 11
176.6398686073
 21
168.0587951714
 31
0.0
  0
LINE
  5
C6
  8
SLD-0
  6
CONTINUOUS
 62
     7
 10
209.1674718163
 20
121.5587959314
 30
0.0
 11
211.0674704514
 21
121.5587959314
 31
0.0
  0
LINE
  5
C7
  8
SLD-0
  6
CONTINUOUS
 62
     7
 10
211.0674704514
 20
121.5587959314
 30
0.0
 11
211.0674704514
 21
121.2587945784
 31
0.0
  0
LINE
  5
C8
  8
SLD-0
  6
CONTINUOUS
 62
     7
 10
206.9674718283
 20
121.2587945784
 30
0.0
 11
211.0674704514
 21
121.2587945784
 31
0.0
  0
LINE
  5
C9
  8
SLD-0
  6
CONTINUOUS
 62
     7
 10
206.9674718283
 20
121.5587959314
 30
0.0
 11
206.9674718283
 21
121.2587945784
 31
0.0
  0
LINE
  5
CA
  8
SLD-0
  6
CONTINUOUS
 62
     7
 10
208.8674704633
 20
124.15879524
 30
0.0
 11
209.1674718163
 21
124.15879524
 31
0.0
  0
LINE
  5
CB
  8
SLD-0
  6
CONTINUOUS
 62
     7
 10
209.1674718163
 20
124.15879524
 30
0.0
 11
209.1674718163
 21
121.5587959314
 31
0.0
  0
LINE
  5
CC
  8
SLD-0
  6
CONTINUOUS
 62
     7
 10
206.9674718283
 20
121.5587959314
 30
0.0
 11
208.8674704633
 21
121.5587959314
 31
0.0
  0
LINE
  5
CD
  8
SLD-0
  6
CONTINUOUS
 62
     7
 10
208.8674704633
 20
124.15879524
 30
0.0
 11
208.8674704633
 21
121.5587959314
 31
0.0
  0
LINE
  5
CE
  8
SLD-0
  6
CONTINUOUS
 62
     7
 10
207.567470809
 20
120.9087961042
 30
0.0
 11
210.4674714706
 21
120.9087961042
 31
0.0
  0
LINE
  5
CF
  8
SLD-0
  6
CONTINUOUS
 62
     7
 10
210.4674714706
 20
120.9087961042
 30
0.0
 11
210.4674714706
 21
120.6087947512
 31
0.0
  0
LINE
  5
D0
  8
SLD-0
  6
CONTINUOUS
 62
     7
 10
207.567470809
 20
120.6087947512
 30
0.0
 11
210.4674714706
 21
120.6087947512
 31
0.0
  0
LINE
  5
D1
  8
SLD-0
  6
CONTINUOUS
 62
     7
 10
207.567470809
 20
120.9087961042
 30
0.0
 11
207.567470809
 21
120.6087947512
 31
0.0
  0
LINE
  5
D2
  8
SLD-0
  6
CONTINUOUS
 62
     7
 10
209.8674724899
 20
120.2587962771
 30
0.0
 11
209.8674724899
 21
119.9587949241
 31
0.0
  0
LINE
  5
D3
  8
SLD-0
  6
CONTINUOUS
 62
     7
 10
208.1674697898
 20
119.9587949241
 30
0.0
 11
209.8674724899
 21
119.9587949241
 31
0.0
  0
LINE
  5
D4
  8
SLD-0
  6
CONTINUOUS
 62
     7
 10
208.1674697898
 20
120.2587962771
 30
0.0
 11
209.8674724899
 21
120.2587962771
 31
0.0
  0
LINE
  5
D5
  8
SLD-0
  6
CONTINUOUS
 62
     7
 10
208.1674697898
 20
120.2587962771
 30
0.0
 11
208.1674697898
 21
119.9587949241
 31
0.0
  0
LINE
  5
D6
  8
SLD-0
  6
CONTINUOUS
 62
     7
 10
218.517469903
 20
120.6460495168
 30
0.0
 11
218.517469903
 21
126.0587957377
 31
0.0
  0
LINE
  5
D7
  8
SLD-0
  6
CONTINUOUS
 62
     7
 10
222.5174705587
 20
126.0587957377
 30
0.0
 11
222.5174705587
 21
121.8156528348
 31
0.0
  0
LINE
  5
D8
  8
SLD-0
  6
CONTINUOUS
 62
     7
 10
222.5174705587
 20
121.8156528348
 30
0.0
 11
222.3288106821
 21
121.9310884053
 31
0.0
  0
LINE
  5
D9
  8
SLD-0
  6
CONTINUOUS
 62
     7
 10
222.3288106821
 20
121.9310884053
 30
0.0
 11
221.777719175
 21
121.873229059
 31
0.0
  0
LINE
  5
DA
  8
SLD-0
  6
CONTINUOUS
 62
     7
 10
221.777719175
 20
121.873229059
 30
0.0
 11
220.9428127013
 21
121.6460068399
 31
0.0
  0
LINE
  5
DB
  8
SLD-0
  6
CONTINUOUS
 62
     7
 10
220.9428127013
 20
121.6460068399
 30
0.0
 11
219.8839417748
 21
121.2575726831
 31
0.0
  0
LINE
  5
DC
  8
SLD-0
  6
CONTINUOUS
 62
     7
 10
219.8839417748
 20
121.2575726831
 30
0.0
 11
218.517469903
 21
120.6460495168
 31
0.0
  0
LINE
  5
DD
  8
SLD-0
  6
CONTINUOUS
 62
     7
 10
194.0174724064
 20
116.59726991
 30
0.0
 11
210.217470964
 21
116.59726991
 31
0.0
  0
LINE
  5
DE
  8
SLD-0
  6
CONTINUOUS
 62
     7
 10
194.0174724064
 20
116.59726991
 30
0.0
 11
194.0174724064
 21
126.0587957377
 31
0.0
  0
LINE
  5
DF
  8
SLD-0
  6
CONTINUOUS
 62
     7
 10
218.517469903
 20
120.6460495168
 30
0.0
 11
210.217470964
 21
116.59726991
 31
0.0
  0
LINE
  5
E0
  8
SLD-0
  6
CONTINUOUS
 62
     7
 10
210.217470964
 20
116.59726991
 30
0.0
 11
210.217470964
 21
115.0587939346
 31
0.0
  0
LINE
  5
E1
  8
SLD-0
  6
CONTINUOUS
 62
     7
 10
222.5174705587
 20
121.8156528348
 30
0.0
 11
222.5174705587
 21
121.0783266151
 31
0.0
  0
LINE
  5
E2
  8
SLD-0
  6
CONTINUOUS
 62
     7
 10
194.0174724064
 20
115.0587939346
 30
0.0
 11
194.0174724064
 21
116.59726991
 31
0.0
  0
LINE
  5
E3
  8
SLD-0
  6
CONTINUOUS
 62
     7
 10
197.7674725554
 20
113.0587936068
 30
0.0
 11
208.2674714826
 21
113.0587936068
 31
0.0
  0
LINE
  5
E4
  8
SLD-0
  6
CONTINUOUS
 62
     7
 10
201.6627996818
 20
118.9670199425
 30
0.0
 11
201.6110706232
 21
119.0187477196
 31
0.0
  0
LINE
  5
E5
  8
SLD-0
  6
CONTINUOUS
 62
     7
 10
201.6110706232
 20
119.0187477196
 30
0.0
 11
201.4617833398
 21
119.1680368656
 31
0.0
  0
LINE
  5
E6
  8
SLD-0
  6
CONTINUOUS
 62
     7
 10
201.4617833398
 20
119.1680368656
 30
0.0
 11
201.2316572569
 21
119.3981629485
 31
0.0
  0
LINE
  5
E7
  8
SLD-0
  6
CONTINUOUS
 62
     7
 10
201.2316572569
 20
119.3981629485
 30
0.0
 11
200.9460541509
 21
119.6837679172
 31
0.0
  0
LINE
  5
E8
  8
SLD-0
  6
CONTINUOUS
 62
     7
 10
200.9460541509
 20
119.6837679172
 30
0.0
 11
200.7398056261
 21
119.8900139982
 31
0.0
  0
LINE
  5
E9
  8
SLD-0
  6
CONTINUOUS
 62
     7
 10
197.6486893229
 20
122.9811303014
 30
0.0
 11
197.3417799077
 21
123.288038435
 31
0.0
  0
LINE
  5
EA
  8
SLD-0
  6
CONTINUOUS
 62
     7
 10
197.3417799077
 20
123.288038435
 30
0.0
 11
197.0695058904
 21
123.560314315
 31
0.0
  0
LINE
  5
EB
  8
SLD-0
  6
CONTINUOUS
 62
     7
 10
197.0695058904
 20
123.560314315
 30
0.0
 11
196.8639257453
 21
123.7658963228
 31
0.0
  0
LINE
  5
EC
  8
SLD-0
  6
CONTINUOUS
 62
     7
 10
196.8639257453
 20
123.7658963228
 30
0.0
 11
196.7473912142
 21
123.8824289912
 31
0.0
  0
LINE
  5
ED
  8
SLD-0
  6
CONTINUOUS
 62
     7
 10
196.7473912142
 20
123.8824289912
 30
0.0
 11
196.7256952672
 21
123.9041243571
 31
0.0
  0
LINE
  5
EE
  8
SLD-0
  6
CONTINUOUS
 62
     7
 10
196.3721418766
 20
123.5505709665
 30
0.0
 11
196.4238683782
 21
123.4988432998
 31
0.0
  0
LINE
  5
EF
  8
SLD-0
  6
CONTINUOUS
 62
     7
 10
196.4238683782
 20
123.4988432998
 30
0.0
 11
196.5731593869
 21
123.3495541537
 31
0.0
  0
LINE
  5
F0
  8
SLD-0
  6
CONTINUOUS
 62
     7
 10
196.5731593869
 20
123.3495541537
 30
0.0
 11
196.8032854698
 21
123.1194280708
 31
0.0
  0
LINE
  5
F1
  8
SLD-0
  6
CONTINUOUS
 62
     7
 10
196.8032854698
 20
123.1194280708
 30
0.0
 11
197.0888885758
 21
122.8338231022
 31
0.0
  0
LINE
  5
F2
  8
SLD-0
  6
CONTINUOUS
 62
     7
 10
197.0888885758
 20
122.8338231022
 30
0.0
 11
197.2951359323
 21
122.6275769108
 31
0.0
  0
LINE
  5
F3
  8
SLD-0
  6
CONTINUOUS
 62
     7
 10
200.3862522355
 20
119.5364606076
 30
0.0
 11
200.6931590937
 21
119.2295525843
 31
0.0
  0
LINE
  5
F4
  8
SLD-0
  6
CONTINUOUS
 62
     7
 10
200.6931590937
 20
119.2295525843
 30
0.0
 11
200.9654368363
 21
118.9572767044
 31
0.0
  0
LINE
  5
F5
  8
SLD-0
  6
CONTINUOUS
 62
     7
 10
200.9654368363
 20
118.9572767044
 30
0.0
 11
201.1710169814
 21
118.7516946966
 31
0.0
  0
LINE
  5
F6
  8
SLD-0
  6
CONTINUOUS
 62
     7
 10
201.1710169814
 20
118.7516946966
 30
0.0
 11
201.2875515125
 21
118.6351620281
 31
0.0
  0
LINE
  5
F7
  8
SLD-0
  6
CONTINUOUS
 62
     7
 10
201.2875515125
 20
118.6351620281
 30
0.0
 11
201.3092462912
 21
118.6134665519
 31
0.0
  0
LINE
  5
F8
  8
SLD-0
  6
CONTINUOUS
 62
     7
 10
200.078130951
 20
121.9659022357
 30
0.0
 11
200.6791703097
 21
122.5669429863
 31
0.0
  0
LINE
  5
F9
  8
SLD-0
  6
CONTINUOUS
 62
     7
 10
200.3256182275
 20
122.9204950685
 30
0.0
 11
200.6791703097
 21
122.5669429863
 31
0.0
  0
LINE
  5
FA
  8
SLD-0
  6
CONTINUOUS
 62
     7
 10
199.7245761655
 20
122.3194548691
 30
0.0
 11
200.3256182275
 21
122.9204950685
 31
0.0
  0
LINE
  5
FB
  8
SLD-0
  6
CONTINUOUS
 62
     7
 10
200.078130951
 20
120.5516886733
 30
0.0
 11
200.7398056261
 21
119.8900139982
 31
0.0
  0
LINE
  5
FC
  8
SLD-0
  6
CONTINUOUS
 62
     7
 10
197.6486893229
 20
122.9811303014
 30
0.0
 11
198.310363998
 21
122.3194556263
 31
0.0
  0
LINE
  5
FD
  8
SLD-0
  6
CONTINUOUS
 62
     7
 10
197.3557680792
 20
119.9506477142
 30
0.0
 11
197.9568101413
 21
120.5516879136
 31
0.0
  0
LINE
  5
FE
  8
SLD-0
  6
CONTINUOUS
 62
     7
 10
197.7093247003
 20
119.5970948183
 30
0.0
 11
198.3103628359
 21
120.1981348166
 31
0.0
  0
LINE
  5
FF
  8
SLD-0
  6
CONTINUOUS
 62
     7
 10
197.3557680792
 20
119.9506477142
 30
0.0
 11
197.7093247003
 21
119.5970948183
 31
0.0
  0
LINE
  5
100
  8
SLD-0
  6
CONTINUOUS
 62
     7
 10
197.2951359323
 20
122.6275769108
 30
0.0
 11
197.9568106075
 21
121.9659022357
 31
0.0
  0
LINE
  5
101
  8
SLD-0
  6
CONTINUOUS
 62
     7
 10
199.7245775604
 20
120.1981352828
 30
0.0
 11
200.3862522355
 21
119.5364606076
 31
0.0
  0
LINE
  5
102
  8
SLD-0
  6
CONTINUOUS
 62
     7
 10
200.3174710176
 20
-158.0411984896
 30
0.0
 11
200.3174710176
 21
-156.5412178015
 31
0.0
  0
LINE
  5
103
  8
SLD-0
  6
CONTINUOUS
 62
     7
 10
205.7174692951
 20
-156.5412178015
 30
0.0
 11
200.3174710176
 21
-156.5412178015
 31
0.0
  0
LINE
  5
104
  8
SLD-0
  6
CONTINUOUS
 62
     7
 10
205.7174692951
 20
-156.5412178015
 30
0.0
 11
205.7174692951
 21
-158.0411984896
 31
0.0
  0
LINE
  5
105
  8
SLD-0
  6
CONTINUOUS
 62
     7
 10
205.7174692951
 20
-158.0411984896
 30
0.0
 11
200.3174710176
 21
-158.0411984896
 31
0.0
  0
LINE
  5
106
  8
SLD-0
  6
CONTINUOUS
 62
     7
 10
205.7174692951
 20
-158.5411920523
 30
0.0
 11
204.5174713335
 21
-158.5411920523
 31
0.0
  0
LINE
  5
107
  8
SLD-0
  6
CONTINUOUS
 62
     7
 10
205.7174692951
 20
-158.5411920523
 30
0.0
 11
205.7174692951
 21
-158.0411984896
 31
0.0
  0
LINE
  5
108
  8
SLD-0
  6
CONTINUOUS
 62
     7
 10
204.5174713335
 20
-171.3412001109
 30
0.0
 11
201.5174689792
 21
-171.3412001109
 31
0.0
  0
LINE
  5
109
  8
SLD-0
  6
CONTINUOUS
 62
     7
 10
201.5174689792
 20
-171.3412001109
 30
0.0
 11
201.5174689792
 21
-170.6412031626
 31
0.0
  0
LINE
  5
10A
  8
SLD-0
  6
CONTINUOUS
 62
     7
 10
204.5174713335
 20
-170.6412031626
 30
0.0
 11
201.5174689792
 21
-170.6412031626
 31
0.0
  0
LINE
  5
10B
  8
SLD-0
  6
CONTINUOUS
 62
     7
 10
204.5174713335
 20
-170.6412031626
 30
0.0
 11
204.5174713335
 21
-171.3412001109
 31
0.0
  0
LINE
  5
10C
  8
SLD-0
  6
CONTINUOUS
 62
     7
 10
201.5174689792
 20
-158.0411984896
 30
0.0
 11
201.5174689792
 21
-170.6412031626
 31
0.0
  0
LINE
  5
10D
  8
SLD-0
  6
CONTINUOUS
 62
     7
 10
204.5174713335
 20
-170.6412031626
 30
0.0
 11
204.5174713335
 21
-158.0411984896
 31
0.0
  0
LINE
  5
10E
  8
SLD-0
  6
CONTINUOUS
 62
     7
 10
200.3174710176
 20
-158.5411920523
 30
0.0
 11
201.5174689792
 21
-158.5411920523
 31
0.0
  0
LINE
  5
10F
  8
SLD-0
  6
CONTINUOUS
 62
     7
 10
200.3174710176
 20
-158.0411984896
 30
0.0
 11
200.3174710176
 21
-158.5411920523
 31
0.0
  0
LINE
  5
110
  8
SLD-0
  6
CONTINUOUS
 62
     7
 10
200.3174710176
 20
-163.7911989665
 30
0.0
 11
201.5174689792
 21
-163.7911989665
 31
0.0
  0
LINE
  5
111
  8
SLD-0
  6
CONTINUOUS
 62
     7
 10
200.3174710176
 20
-158.5411920523
 30
0.0
 11
200.3174710176
 21
-163.7911989665
 31
0.0
  0
LINE
  5
112
  8
SLD-0
  6
CONTINUOUS
 62
     7
 10
205.7174692951
 20
-163.7911989665
 30
0.0
 11
204.5174713335
 21
-163.7911989665
 31
0.0
  0
LINE
  5
113
  8
SLD-0
  6
CONTINUOUS
 62
     7
 10
205.7174692951
 20
-163.7911989665
 30
0.0
 11
205.7174692951
 21
-158.5411920523
 31
0.0
  0
LINE
  5
114
  8
SLD-0
  6
CONTINUOUS
 62
     7
 10
206.5174716614
 20
-154.3412103629
 30
0.0
 11
206.5174716614
 21
-155.3411974883
 31
0.0
  0
LINE
  5
115
  8
SLD-0
  6
CONTINUOUS
 62
     7
 10
209.917469611
 20
-154.3412103629
 30
0.0
 11
206.5174716614
 21
-154.3412103629
 31
0.0
  0
LINE
  5
116
  8
SLD-0
  6
CONTINUOUS
 62
     7
 10
209.917469611
 20
-155.3411974883
 30
0.0
 11
209.917469611
 21
-154.3412103629
 31
0.0
  0
LINE
  5
117
  8
SLD-0
  6
CONTINUOUS
 62
     7
 10
206.5174716614
 20
-155.3411974883
 30
0.0
 11
209.917469611
 21
-155.3411974883
 31
0.0
  0
LINE
  5
118
  8
SLD-0
  6
CONTINUOUS
 62
     7
 10
199.5174723766
 20
-154.3412103629
 30
0.0
 11
196.1174707017
 21
-154.3412103629
 31
0.0
  0
LINE
  5
119
  8
SLD-0
  6
CONTINUOUS
 62
     7
 10
196.1174707017
 20
-155.3411974883
 30
0.0
 11
196.1174707017
 21
-154.3412103629
 31
0.0
  0
LINE
  5
11A
  8
SLD-0
  6
CONTINUOUS
 62
     7
 10
196.1174707017
 20
-155.3411974883
 30
0.0
 11
199.5174723766
 21
-155.3411974883
 31
0.0
  0
LINE
  5
11B
  8
SLD-0
  6
CONTINUOUS
 62
     7
 10
199.5174723766
 20
-155.3411974883
 30
0.0
 11
199.5174723766
 21
-154.3412103629
 31
0.0
  0
LINE
  5
11C
  8
SLD-0
  6
CONTINUOUS
 62
     7
 10
204.5174713335
 20
-164.0912189459
 30
0.0
 11
205.7174692951
 21
-164.0912189459
 31
0.0
  0
LINE
  5
11D
  8
SLD-0
  6
CONTINUOUS
 62
     7
 10
205.7174692951
 20
-164.0912189459
 30
0.0
 11
205.7174692951
 21
-163.7911989665
 31
0.0
  0
LINE
  5
11E
  8
SLD-0
  6
CONTINUOUS
 62
     7
 10
200.3174710176
 20
-164.0912189459
 30
0.0
 11
201.5174689792
 21
-164.0912189459
 31
0.0
  0
LINE
  5
11F
  8
SLD-0
  6
CONTINUOUS
 62
     7
 10
200.3174710176
 20
-163.7911989665
 30
0.0
 11
200.3174710176
 21
-164.0912189459
 31
0.0
  0
LINE
  5
120
  8
SLD-0
  6
CONTINUOUS
 62
     7
 10
196.1174707017
 20
-165.0411977744
 30
0.0
 11
201.5174689792
 21
-165.0411977744
 31
0.0
  0
LINE
  5
121
  8
SLD-0
  6
CONTINUOUS
 62
     7
 10
204.5174713335
 20
-165.0411977744
 30
0.0
 11
209.917469611
 21
-165.0411977744
 31
0.0
  0
LINE
  5
122
  8
SLD-0
  6
CONTINUOUS
 62
     7
 10
209.917469611
 20
-155.3411974883
 30
0.0
 11
209.917469611
 21
-165.0411977744
 31
0.0
  0
LINE
  5
123
  8
SLD-0
  6
CONTINUOUS
 62
     7
 10
199.5174723766
 20
-154.3412103629
 30
0.0
 11
206.5174716614
 21
-154.3412103629
 31
0.0
  0
LINE
  5
124
  8
SLD-0
  6
CONTINUOUS
 62
     7
 10
196.1174707017
 20
-155.3411974883
 30
0.0
 11
196.1174707017
 21
-165.0411977744
 31
0.0
  0
LINE
  5
125
  8
SLD-0
  6
CONTINUOUS
 62
     7
 10
199.0174707792
 20
-119.3412045455
 30
0.0
 11
207.0174707792
 21
-119.3412045455
 31
0.0
  0
LINE
  5
126
  8
SLD-0
  6
CONTINUOUS
 62
     7
 10
198.5174703501
 20
-94.3412079787
 30
0.0
 11
207.5174699626
 21
-94.3412079787
 31
0.0
  0
LINE
  5
127
  8
SLD-0
  6
CONTINUOUS
 62
     7
 10
197.117469003
 20
-173.9412143206
 30
0.0
 11
197.117469003
 21
-165.0411977744
 31
0.0
  0
LINE
  5
128
  8
SLD-0
  6
CONTINUOUS
 62
     7
 10
200.5174706779
 20
-173.9412143206
 30
0.0
 11
197.117469003
 21
-173.9412143206
 31
0.0
  0
LINE
  5
129
  8
SLD-0
  6
CONTINUOUS
 62
     7
 10
200.5174706779
 20
-165.0411977744
 30
0.0
 11
200.5174706779
 21
-173.9412143206
 31
0.0
  0
LINE
  5
12A
  8
SLD-0
  6
CONTINUOUS
 62
     7
 10
201.3174693189
 20
-165.0411977744
 30
0.0
 11
201.3174693189
 21
-173.9412143206
 31
0.0
  0
LINE
  5
12B
  8
SLD-0
  6
CONTINUOUS
 62
     7
 10
204.7174709938
 20
-165.0411977744
 30
0.0
 11
204.7174709938
 21
-173.9412143206
 31
0.0
  0
LINE
  5
12C
  8
SLD-0
  6
CONTINUOUS
 62
     7
 10
204.7174709938
 20
-173.9412143206
 30
0.0
 11
201.3174693189
 21
-173.9412143206
 31
0.0
  0
LINE
  5
12D
  8
SLD-0
  6
CONTINUOUS
 62
     7
 10
208.9174713097
 20
-173.9412143206
 30
0.0
 11
205.5174696348
 21
-173.9412143206
 31
0.0
  0
LINE
  5
12E
  8
SLD-0
  6
CONTINUOUS
 62
     7
 10
205.5174696348
 20
-165.0411977744
 30
0.0
 11
205.5174696348
 21
-173.9412143206
 31
0.0
  0
LINE
  5
12F
  8
SLD-0
  6
CONTINUOUS
 62
     7
 10
208.9174713097
 20
-165.0411977744
 30
0.0
 11
208.9174713097
 21
-173.9412143206
 31
0.0
  0
LINE
  5
130
  8
SLD-0
  6
CONTINUOUS
 62
     7
 10
206.5174716614
 20
-134.341199634
 30
0.0
 11
199.5174723766
 21
-134.341199634
 31
0.0
  0
LINE
  5
131
  8
SLD-0
  6
CONTINUOUS
 62
     7
 10
177.3174691103
 20
115.0587939346
 30
0.0
 11
177.3174691103
 21
116.4840564752
 31
0.0
  0
LINE
  5
132
  8
SLD-0
  6
CONTINUOUS
 62
     7
 10
177.3174691103
 20
116.4840564752
 30
0.0
 11
189.3174710772
 21
116.4840564752
 31
0.0
  0
LINE
  5
133
  8
SLD-0
  6
CONTINUOUS
 62
     7
 10
189.3174710772
 20
115.0587939346
 30
0.0
 11
189.3174710772
 21
116.4840564752
 31
0.0
  0
LINE
  5
134
  8
SLD-0
  6
CONTINUOUS
 62
     7
 10
189.3174710772
 20
116.4840564752
 30
0.0
 11
189.3174710772
 21
126.0587957377
 31
0.0
  0
LINE
  5
135
  8
SLD-0
  6
CONTINUOUS
 62
     7
 10
177.3174691103
 20
116.4840564752
 30
0.0
 11
177.3174691103
 21
126.0587957377
 31
0.0
  0
LINE
  5
136
  8
SLD-0
  6
CONTINUOUS
 62
     7
 10
178.3174711368
 20
113.0587936068
 30
0.0
 11
188.3174690507
 21
113.0587936068
 31
0.0
  0
LINE
  5
137
  8
SLD-0
  6
CONTINUOUS
 62
     7
 10
192.0174679099
 20
-130.4412047358
 30
0.0
 11
174.6174639402
 21
-130.4412047358
 31
0.0
  0
LINE
  5
138
  8
SLD-0
  6
CONTINUOUS
 62
     7
 10
192.5174634098
 20
-135.1761100979
 30
0.0
 11
192.5174648224
 21
-130.9412029477
 31
0.0
  0
LINE
  5
139
  8
SLD-0
  6
CONTINUOUS
 62
     7
 10
189.8088856182
 20
-139.8171358255
 30
0.0
 11
190.8146527419
 21
-138.934896196
 31
0.0
  0
LINE
  5
13A
  8
SLD-0
  6
CONTINUOUS
 62
     7
 10
189.8088856182
 20
-144.9411981252
 30
0.0
 11
189.8088856182
 21
-139.8171358255
 31
0.0
  0
LINE
  5
13B
  8
SLD-0
  6
CONTINUOUS
 62
     7
 10
191.808885946
 20
-146.9412021783
 30
0.0
 11
189.8088856182
 21
-144.9411981252
 31
0.0
  0
LINE
  5
13C
  8
SLD-0
  6
CONTINUOUS
 62
     7
 10
192.7174690268
 20
-146.9412021783
 30
0.0
 11
191.808885946
 21
-146.9412021783
 31
0.0
  0
LINE
  5
13D
  8
SLD-0
  6
CONTINUOUS
 62
     7
 10
192.7174690268
 20
-163.4412004923
 30
0.0
 11
192.7174690268
 21
-146.9412021783
 31
0.0
  0
LINE
  5
13E
  8
SLD-0
  6
CONTINUOUS
 62
     7
 10
173.9174711607
 20
-163.4412004923
 30
0.0
 11
192.7174690268
 21
-163.4412004923
 31
0.0
  0
LINE
  5
13F
  8
SLD-0
  6
CONTINUOUS
 62
     7
 10
173.9174711607
 20
-146.941204307
 30
0.0
 11
173.9174711607
 21
-163.4412004923
 31
0.0
  0
LINE
  5
140
  8
SLD-0
  6
CONTINUOUS
 62
     7
 10
174.8260471127
 20
-146.941204307
 30
0.0
 11
173.9174711607
 21
-146.941204307
 31
0.0
  0
LINE
  5
141
  8
SLD-0
  6
CONTINUOUS
 62
     7
 10
176.8260511658
 20
-144.9412002538
 30
0.0
 11
174.8260471127
 21
-146.941204307
 31
0.0
  0
LINE
  5
142
  8
SLD-0
  6
CONTINUOUS
 62
     7
 10
176.8260511658
 20
-139.8171379541
 30
0.0
 11
176.8260511658
 21
-144.9412002538
 31
0.0
  0
LINE
  5
143
  8
SLD-0
  6
CONTINUOUS
 62
     7
 10
175.8202823898
 20
-138.9348998044
 30
0.0
 11
176.8260511658
 21
-139.8171379541
 31
0.0
  0
LINE
  5
144
  8
SLD-0
  6
CONTINUOUS
 62
     7
 10
174.1174665569
 20
-130.9412019284
 30
0.0
 11
174.1174702404
 21
-135.1761030044
 31
0.0
  0
LINE
  5
145
  8
SLD-0
  6
CONTINUOUS
 62
     7
 10
176.3260503061
 20
-144.5912017798
 30
0.0
 11
176.3260503061
 21
-144.0912082171
 31
0.0
  0
LINE
  5
146
  8
SLD-0
  6
CONTINUOUS
 62
     7
 10
175.0760514982
 20
-140.7911970591
 30
0.0
 11
176.3260503061
 21
-144.0912082171
 31
0.0
  0
LINE
  5
147
  8
SLD-0
  6
CONTINUOUS
 62
     7
 10
175.0760514982
 20
-140.241195353
 30
0.0
 11
175.0760514982
 21
-140.7911970591
 31
0.0
  0
LINE
  5
148
  8
SLD-0
  6
CONTINUOUS
 62
     7
 10
175.3760505373
 20
-139.9412056599
 30
0.0
 11
176.4260529597
 21
-139.9412061367
 31
0.0
  0
LINE
  5
149
  8
SLD-0
  6
CONTINUOUS
 62
     7
 10
176.4260529597
 20
-139.9412061367
 30
0.0
 11
176.8260522802
 21
-140.3412129078
 31
0.0
  0
LINE
  5
14A
  8
SLD-0
  6
CONTINUOUS
 62
     7
 10
173.9760477789
 20
-146.9412043071
 30
0.0
 11
176.3260503061
 21
-144.5912017798
 31
0.0
  0
LINE
  5
14B
  8
SLD-0
  6
CONTINUOUS
 62
     7
 10
190.3088937602
 20
-144.5912017798
 30
0.0
 11
192.6588925622
 21
-146.941204307
 31
0.0
  0
LINE
  5
14C
  8
SLD-0
  6
CONTINUOUS
 62
     7
 10
190.2088923059
 20
-139.9412047839
 30
0.0
 11
189.8088929854
 21
-140.341211555
 31
0.0
  0
LINE
  5
14D
  8
SLD-0
  6
CONTINUOUS
 62
     7
 10
190.2088923059
 20
-139.9412047839
 30
0.0
 11
191.2588914535
 21
-139.9412047839
 31
0.0
  0
LINE
  5
14E
  8
SLD-0
  6
CONTINUOUS
 62
     7
 10
191.5588925682
 20
-140.7911970591
 30
0.0
 11
191.5588921355
 21
-140.2412045455
 31
0.0
  0
LINE
  5
14F
  8
SLD-0
  6
CONTINUOUS
 62
     7
 10
190.3088937602
 20
-144.0912082171
 30
0.0
 11
191.5588925682
 21
-140.7911970591
 31
0.0
  0
LINE
  5
150
  8
SLD-0
  6
CONTINUOUS
 62
     7
 10
190.3088937602
 20
-144.5912017798
 30
0.0
 11
190.3088937602
 21
-144.0912082171
 31
0.0
  0
LINE
  5
151
  8
SLD-0
  6
CONTINUOUS
 62
     7
 10
187.6711051069
 20
-173.9412143206
 30
0.0
 11
187.6711051069
 21
-163.4412004923
 31
0.0
  0
LINE
  5
152
  8
SLD-0
  6
CONTINUOUS
 62
     7
 10
186.9674722753
 20
-173.9412143206
 30
0.0
 11
186.9674722753
 21
-163.4412004923
 31
0.0
  0
LINE
  5
153
  8
SLD-0
  6
CONTINUOUS
 62
     7
 10
187.6711051069
 20
-173.9412143206
 30
0.0
 11
186.9674722753
 21
-173.9412143206
 31
0.0
  0
LINE
  5
154
  8
SLD-0
  6
CONTINUOUS
 62
     7
 10
178.0674743555
 20
-173.9412143206
 30
0.0
 11
178.0674743555
 21
-163.4412004923
 31
0.0
  0
LINE
  5
155
  8
SLD-0
  6
CONTINUOUS
 62
     7
 10
177.6674675844
 20
-173.9412143206
 30
0.0
 11
177.6674675844
 21
-163.4412004923
 31
0.0
  0
LINE
  5
156
  8
SLD-0
  6
CONTINUOUS
 62
     7
 10
178.0674743555
 20
-173.9412143206
 30
0.0
 11
177.6674675844
 21
-173.9412143206
 31
0.0
  0
LINE
  5
157
  8
SLD-0
  6
CONTINUOUS
 62
     7
 10
186.9674722753
 20
-173.9412143206
 30
0.0
 11
178.0674743555
 21
-173.9412143206
 31
0.0
  0
LINE
  5
158
  8
SLD-0
  6
CONTINUOUS
 62
     7
 10
190.5929843984
 20
-143.3412029719
 30
0.0
 11
190.5929843984
 21
-144.0912082171
 31
0.0
  0
LINE
  5
159
  8
SLD-0
  6
CONTINUOUS
 62
     7
 10
190.5929843984
 20
-144.0912082171
 30
0.0
 11
190.3088937602
 21
-144.0912082171
 31
0.0
  0
LINE
  5
15A
  8
SLD-0
  6
CONTINUOUS
 62
     7
 10
176.3260503061
 20
-144.0912082171
 30
0.0
 11
176.0419596679
 21
-144.0912082171
 31
0.0
  0
LINE
  5
15B
  8
SLD-0
  6
CONTINUOUS
 62
     7
 10
176.0419596679
 20
-144.0912082171
 30
0.0
 11
176.0419596679
 21
-143.3412029719
 31
0.0
  0
LINE
  5
15C
  8
SLD-0
  6
CONTINUOUS
 62
     7
 10
190.9149537883
 20
-142.4912109351
 30
0.0
 11
190.9149537883
 21
-143.3412029719
 31
0.0
  0
LINE
  5
15D
  8
SLD-0
  6
CONTINUOUS
 62
     7
 10
190.9149537883
 20
-143.3412029719
 30
0.0
 11
190.5929843984
 21
-143.3412029719
 31
0.0
  0
LINE
  5
15E
  8
SLD-0
  6
CONTINUOUS
 62
     7
 10
175.719990278
 20
-143.3412029719
 30
0.0
 11
175.719990278
 21
-142.4912109351
 31
0.0
  0
LINE
  5
15F
  8
SLD-0
  6
CONTINUOUS
 62
     7
 10
176.0419596679
 20
-143.3412029719
 30
0.0
 11
175.719990278
 21
-143.3412029719
 31
0.0
  0
LINE
  5
160
  8
SLD-0
  6
CONTINUOUS
 62
     7
 10
175.719990278
 20
-142.4912109351
 30
0.0
 11
175.3980208881
 21
-142.4912109351
 31
0.0
  0
LINE
  5
161
  8
SLD-0
  6
CONTINUOUS
 62
     7
 10
175.3980208881
 20
-142.4912109351
 30
0.0
 11
175.3980208881
 21
-141.6412188983
 31
0.0
  0
LINE
  5
162
  8
SLD-0
  6
CONTINUOUS
 62
     7
 10
191.2369231782
 20
-141.6412188983
 30
0.0
 11
191.2369231782
 21
-142.4912109351
 31
0.0
  0
LINE
  5
163
  8
SLD-0
  6
CONTINUOUS
 62
     7
 10
191.2369231782
 20
-142.4912109351
 30
0.0
 11
190.9149537883
 21
-142.4912109351
 31
0.0
  0
LINE
  5
164
  8
SLD-0
  6
CONTINUOUS
 62
     7
 10
191.5588925682
 20
-140.7911970591
 30
0.0
 11
191.5588925682
 21
-141.6412188983
 31
0.0
  0
LINE
  5
165
  8
SLD-0
  6
CONTINUOUS
 62
     7
 10
191.5588925682
 20
-141.6412188983
 30
0.0
 11
191.2369231782
 21
-141.6412188983
 31
0.0
  0
LINE
  5
166
  8
SLD-0
  6
CONTINUOUS
 62
     7
 10
175.0760514982
 20
-141.6412188983
 30
0.0
 11
175.0760514982
 21
-140.7911970591
 31
0.0
  0
LINE
  5
167
  8
SLD-0
  6
CONTINUOUS
 62
     7
 10
175.3980208881
 20
-141.6412188983
 30
0.0
 11
175.0760514982
 21
-141.6412188983
 31
0.0
  0
LINE
  5
168
  8
SLD-0
  6
CONTINUOUS
 62
     7
 10
191.8808621336
 20
-140.2411950239
 30
0.0
 11
191.8808621336
 21
-140.7911970591
 31
0.0
  0
LINE
  5
169
  8
SLD-0
  6
CONTINUOUS
 62
     7
 10
191.8808621336
 20
-140.7911970591
 30
0.0
 11
191.5588925682
 21
-140.7911970591
 31
0.0
  0
LINE
  5
16A
  8
SLD-0
  6
CONTINUOUS
 62
     7
 10
191.2588914535
 20
-139.9412047839
 30
0.0
 11
191.5808620708
 21
-139.9412043071
 31
0.0
  0
LINE
  5
16B
  8
SLD-0
  6
CONTINUOUS
 62
     7
 10
174.7540819548
 20
-140.7911970591
 30
0.0
 11
174.7540819548
 21
-140.2411951994
 31
0.0
  0
LINE
  5
16C
  8
SLD-0
  6
CONTINUOUS
 62
     7
 10
175.0760514982
 20
-140.7911970591
 30
0.0
 11
174.7540819548
 21
-140.7911970591
 31
0.0
  0
LINE
  5
16D
  8
SLD-0
  6
CONTINUOUS
 62
     7
 10
175.0540808403
 20
-139.9412056599
 30
0.0
 11
175.3760505373
 21
-139.9412056599
 31
0.0
  0
LINE
  5
16E
  8
SLD-0
  6
CONTINUOUS
 62
     7
 10
188.8489264152
 20
-173.9412143206
 30
0.0
 11
188.8489264152
 21
-163.4412004923
 31
0.0
  0
LINE
  5
16F
  8
SLD-0
  6
CONTINUOUS
 62
     7
 10
188.8489264152
 20
-173.9412143206
 30
0.0
 11
187.6711051069
 21
-173.9412143206
 31
0.0
  0
LINE
  5
170
  8
SLD-0
  6
CONTINUOUS
 62
     7
 10
176.4174687765
 20
-163.4412004923
 30
0.0
 11
176.4174687765
 21
-167.8412153697
 31
0.0
  0
LINE
  5
171
  8
SLD-0
  6
CONTINUOUS
 62
     7
 10
176.4174687765
 20
-167.8412153697
 30
0.0
 11
173.9174711607
 21
-167.8412153697
 31
0.0
  0
LINE
  5
172
  8
SLD-0
  6
CONTINUOUS
 62
     7
 10
173.9174711607
 20
-167.8412153697
 30
0.0
 11
173.9174711607
 21
-163.4412004923
 31
0.0
  0
LINE
  5
173
  8
SLD-0
  6
CONTINUOUS
 62
     7
 10
192.7174690268
 20
-167.8412153697
 30
0.0
 11
190.217471411
 21
-167.8412153697
 31
0.0
  0
LINE
  5
174
  8
SLD-0
  6
CONTINUOUS
 62
     7
 10
190.217471411
 20
-167.8412153697
 30
0.0
 11
190.217471411
 21
-163.4412004923
 31
0.0
  0
LINE
  5
175
  8
SLD-0
  6
CONTINUOUS
 62
     7
 10
192.7174690268
 20
-163.4412004923
 30
0.0
 11
192.7174690268
 21
-167.8412153697
 31
0.0
  0
LINE
  5
176
  8
SLD-0
  6
CONTINUOUS
 62
     7
 10
188.9674726031
 20
-173.9412143206
 30
0.0
 11
188.9674726031
 21
-163.4412004923
 31
0.0
  0
LINE
  5
177
  8
SLD-0
  6
CONTINUOUS
 62
     7
 10
188.9674726031
 20
-173.9412143206
 30
0.0
 11
188.8489264152
 21
-173.9412143206
 31
0.0
  0
LINE
  5
178
  8
SLD-0
  6
CONTINUOUS
 62
     8
 10
198.5174703501
 20
-118.8411905741
 30
0.0
 11
207.5174699626
 21
-118.8411905741
 31
0.0
  0
LINE
  5
179
  8
SLD-0
  6
CONTINUOUS
 62
     8
 10
206.5174707792
 20
-119.8412045455
 30
0.0
 11
199.5174707792
 21
-119.8412045455
 31
0.0
  0
LINE
  5
17A
  8
SLD-0
  6
CONTINUOUS
 62
     7
 10
63.5388472126
 20
113.0587936068
 30
0.0
 11
63.5388472126
 21
-94.3412079787
 31
0.0
  0
LINE
  5
17B
  8
SLD-0
  6
CONTINUOUS
 62
     7
 10
71.5388475926
 20
-94.3412079787
 30
0.0
 11
71.5388475926
 21
113.0587936068
 31
0.0
  0
LINE
  5
17C
  8
SLD-0
  6
CONTINUOUS
 62
     7
 10
64.5388473765
 20
113.0587936068
 30
0.0
 11
64.5388473765
 21
-130.4412081217
 31
0.0
  0
LINE
  5
17D
  8
SLD-0
  6
CONTINUOUS
 62
     7
 10
70.5388474287
 20
-130.4412081217
 30
0.0
 11
70.5388474287
 21
113.0587936068
 31
0.0
  0
LINE
  5
17E
  8
SLD-0
  6
CONTINUOUS
 62
     7
 10
81.0388477528
 20
117.758794936
 30
0.0
 11
83.6388479927
 21
117.758794936
 31
0.0
  0
LINE
  5
17F
  8
SLD-0
  6
CONTINUOUS
 62
     7
 10
83.6388479927
 20
124.7587957689
 30
0.0
 11
81.0388477528
 21
124.7587957689
 31
0.0
  0
LINE
  5
180
  8
SLD-0
  6
CONTINUOUS
 62
     7
 10
62.2888474734
 20
115.2831346417
 30
0.0
 11
62.2888474734
 21
113.0587936068
 31
0.0
  0
LINE
  5
181
  8
SLD-0
  6
CONTINUOUS
 62
     7
 10
72.7888473318
 20
113.0587936068
 30
0.0
 11
72.7888473318
 21
115.2885772908
 31
0.0
  0
LINE
  5
182
  8
SLD-0
  6
CONTINUOUS
 62
     7
 10
81.3388472432
 20
124.9587957436
 30
0.0
 11
81.0388477528
 21
124.9587957436
 31
0.0
  0
LINE
  5
183
  8
SLD-0
  6
CONTINUOUS
 62
     7
 10
83.6388479927
 20
117.758794936
 30
0.0
 11
84.7388474026
 21
117.7587954545
 31
0.0
  0
LINE
  5
184
  8
SLD-0
  6
CONTINUOUS
 62
     7
 10
84.7388479867
 20
124.7587957689
 30
0.0
 11
83.6388479927
 21
124.7587957689
 31
0.0
  0
LINE
  5
185
  8
SLD-0
  6
CONTINUOUS
 62
     7
 10
63.0388475963
 20
-94.3412079787
 30
0.0
 11
63.0388475963
 21
-118.8411905741
 31
0.0
  0
LINE
  5
186
  8
SLD-0
  6
CONTINUOUS
 62
     7
 10
72.0388472089
 20
-118.8411905741
 30
0.0
 11
72.0388472089
 21
-94.3412079787
 31
0.0
  0
LINE
  5
187
  8
SLD-0
  6
CONTINUOUS
 62
     7
 10
62.4888475993
 20
-163.4412004923
 30
0.0
 11
62.4888475993
 21
-165.0411977744
 31
0.0
  0
LINE
  5
188
  8
SLD-0
  6
CONTINUOUS
 62
     7
 10
64.0388474026
 20
-119.8412045455
 30
0.0
 11
64.0388472946
 21
-130.4412081217
 31
0.0
  0
LINE
  5
189
  8
SLD-0
  6
CONTINUOUS
 62
     7
 10
71.0388475106
 20
-130.4412081217
 30
0.0
 11
71.0388474026
 21
-119.8412045455
 31
0.0
  0
LINE
  5
18A
  8
SLD-0
  6
CONTINUOUS
 62
     7
 10
62.5388475144
 20
115.2622357631
 30
0.0
 11
62.5388475144
 21
113.0587936068
 31
0.0
  0
LINE
  5
18B
  8
SLD-0
  6
CONTINUOUS
 62
     7
 10
72.5388472908
 20
113.0587936068
 30
0.0
 11
72.5388472908
 21
115.2671382451
 31
0.0
  0
LINE
  5
18C
  8
SLD-0
  6
CONTINUOUS
 62
     7
 10
53.0388478198
 20
126.0587957377
 30
0.0
 11
50.5682855853
 21
126.0587957377
 31
0.0
  0
LINE
  5
18D
  8
SLD-0
  6
CONTINUOUS
 62
     7
 10
46.5388484598
 20
134.4587958291
 30
0.0
 11
46.5388481767
 21
130.088233097
 31
0.0
  0
LINE
  5
18E
  8
SLD-0
  6
CONTINUOUS
 62
     7
 10
84.5094100677
 20
168.0587946886
 30
0.0
 11
80.1388482668
 21
168.0587946886
 31
0.0
  0
LINE
  5
18F
  8
SLD-0
  6
CONTINUOUS
 62
     7
 10
88.5388470461
 20
164.0293576802
 30
0.0
 11
88.5388476859
 21
159.6587951877
 31
0.0
  0
LINE
  5
190
  8
SLD-0
  6
CONTINUOUS
 62
     7
 10
46.5388484598
 20
134.4587958291
 30
0.0
 11
52.03884843
 21
134.4587958291
 31
0.0
  0
LINE
  5
191
  8
SLD-0
  6
CONTINUOUS
 62
     7
 10
46.5388484598
 20
164.0293576627
 30
0.0
 11
46.5388484598
 21
134.4587958291
 31
0.0
  0
LINE
  5
192
  8
SLD-0
  6
CONTINUOUS
 62
     7
 10
80.1388482668
 20
168.0587946886
 30
0.0
 11
50.5682855019
 21
168.0587946886
 31
0.0
  0
LINE
  5
193
  8
SLD-0
  6
CONTINUOUS
 62
     7
 10
80.1388482668
 20
168.0587946886
 30
0.0
 11
80.1388482668
 21
162.5587947184
 31
0.0
  0
LINE
  5
194
  8
SLD-0
  6
CONTINUOUS
 62
     7
 10
83.0388477157
 20
159.6587951877
 30
0.0
 11
88.5388476859
 21
159.6587951877
 31
0.0
  0
LINE
  5
195
  8
SLD-0
  6
CONTINUOUS
 62
     7
 10
88.5388476859
 20
159.6587951877
 30
0.0
 11
88.5388476859
 21
130.0882333541
 31
0.0
  0
LINE
  5
196
  8
SLD-0
  6
CONTINUOUS
 62
     7
 10
53.0388478198
 20
126.0587957377
 30
0.0
 11
84.5094101511
 21
126.0587957377
 31
0.0
  0
LINE
  5
197
  8
SLD-0
  6
CONTINUOUS
 62
     7
 10
53.0388478198
 20
128.8366646195
 30
0.0
 11
53.0388478198
 21
126.0587957377
 31
0.0
  0
LINE
  5
198
  8
SLD-0
  6
CONTINUOUS
 62
     7
 10
81.0388477528
 20
116.59726991
 30
0.0
 11
81.0388477528
 21
126.0587957377
 31
0.0
  0
LINE
  5
199
  8
SLD-0
  6
CONTINUOUS
 62
     7
 10
54.0388470524
 20
116.59726991
 30
0.0
 11
54.5388471344
 21
116.4840564752
 31
0.0
  0
LINE
  5
19A
  8
SLD-0
  6
CONTINUOUS
 62
     7
 10
80.5388476708
 20
116.4840564752
 30
0.0
 11
81.0388477528
 21
116.59726991
 31
0.0
  0
LINE
  5
19B
  8
SLD-0
  6
CONTINUOUS
 62
     7
 10
54.0388470524
 20
116.59726991
 30
0.0
 11
54.0388470524
 21
126.0587957377
 31
0.0
  0
LINE
  5
19C
  8
SLD-0
  6
CONTINUOUS
 62
     7
 10
83.6388479927
 20
124.7587957689
 30
0.0
 11
83.6388479927
 21
117.758794936
 31
0.0
  0
LINE
  5
19D
  8
SLD-0
  6
CONTINUOUS
 62
     7
 10
72.5388472908
 20
113.0587936068
 30
0.0
 11
72.7888473318
 21
113.0587936068
 31
0.0
  0
LINE
  5
19E
  8
SLD-0
  6
CONTINUOUS
 62
     7
 10
62.2888474734
 20
113.0587936068
 30
0.0
 11
62.5388475144
 21
113.0587936068
 31
0.0
  0
LINE
  5
19F
  8
SLD-0
  6
CONTINUOUS
 62
     7
 10
81.3388472432
 20
124.9587957436
 30
0.0
 11
81.3388472432
 21
124.7587960834
 31
0.0
  0
LINE
  5
1A0
  8
SLD-0
  6
CONTINUOUS
 62
     7
 10
86.038847641
 20
122.6275761301
 30
0.0
 11
86.0388474026
 21
119.0587954545
 31
0.0
  0
LINE
  5
1A1
  8
SLD-0
  6
CONTINUOUS
 62
     7
 10
84.7388479867
 20
123.5505708182
 30
0.0
 11
85.1682417103
 21
123.4988432998
 31
0.0
  0
LINE
  5
1A2
  8
SLD-0
  6
CONTINUOUS
 62
     7
 10
85.1682417103
 20
123.4988432998
 30
0.0
 11
85.5492215612
 21
123.3495541537
 31
0.0
  0
LINE
  5
1A3
  8
SLD-0
  6
CONTINUOUS
 62
     7
 10
85.5492215612
 20
123.3495541537
 30
0.0
 11
85.8392652133
 21
123.1194280708
 31
0.0
  0
LINE
  5
1A4
  8
SLD-0
  6
CONTINUOUS
 62
     7
 10
85.8392652133
 20
123.1194280708
 30
0.0
 11
86.0060874381
 21
122.8338231022
 31
0.0
  0
LINE
  5
1A5
  8
SLD-0
  6
CONTINUOUS
 62
     7
 10
86.0060874381
 20
122.8338231022
 30
0.0
 11
86.038847641
 21
122.6275761301
 31
0.0
  0
LINE
  5
1A6
  8
SLD-0
  6
CONTINUOUS
 62
     7
 10
84.7388479867
 20
123.9041250819
 30
0.0
 11
84.7388479867
 21
123.5505708182
 31
0.0
  0
LINE
  5
1A7
  8
SLD-0
  6
CONTINUOUS
 62
     7
 10
86.0388474026
 20
123.4587954545
 30
0.0
 11
86.038847641
 21
122.9811303938
 31
0.0
  0
LINE
  5
1A8
  8
SLD-0
  6
CONTINUOUS
 62
     7
 10
86.038847641
 20
122.9811303938
 30
0.0
 11
85.9650813052
 21
123.288038435
 31
0.0
  0
LINE
  5
1A9
  8
SLD-0
  6
CONTINUOUS
 62
     7
 10
85.9650813052
 20
123.288038435
 30
0.0
 11
85.7514750221
 21
123.560314315
 31
0.0
  0
LINE
  5
1AA
  8
SLD-0
  6
CONTINUOUS
 62
     7
 10
85.7514750221
 20
123.560314315
 30
0.0
 11
85.4235935965
 21
123.7658963228
 31
0.0
  0
LINE
  5
1AB
  8
SLD-0
  6
CONTINUOUS
 62
     7
 10
85.4235935965
 20
123.7658963228
 30
0.0
 11
85.019263626
 21
123.8824289912
 31
0.0
  0
LINE
  5
1AC
  8
SLD-0
  6
CONTINUOUS
 62
     7
 10
85.019263626
 20
123.8824289912
 30
0.0
 11
84.7388479867
 21
123.9041250819
 31
0.0
  0
LINE
  5
1AD
  8
SLD-0
  6
CONTINUOUS
 62
     7
 10
86.038847641
 20
122.9811303938
 30
0.0
 11
86.038847641
 21
122.6275761301
 31
0.0
  0
LINE
  5
1AE
  8
SLD-0
  6
CONTINUOUS
 62
     7
 10
62.7388471746
 20
-165.0411977744
 30
0.0
 11
62.7388471746
 21
-163.4412004923
 31
0.0
  0
LINE
  5
1AF
  8
SLD-0
  6
CONTINUOUS
 62
     7
 10
72.3388476306
 20
-163.4412004923
 30
0.0
 11
72.3388476306
 21
-165.0411977744
 31
0.0
  0
LINE
  5
1B0
  8
SLD-0
  6
CONTINUOUS
 62
     7
 10
72.3388476306
 20
-165.0411977744
 30
0.0
 11
70.6388474916
 21
-165.0411977744
 31
0.0
  0
LINE
  5
1B1
  8
SLD-0
  6
CONTINUOUS
 62
     7
 10
64.4388473136
 20
-165.0411977744
 30
0.0
 11
62.7388471746
 21
-165.0411977744
 31
0.0
  0
LINE
  5
1B2
  8
SLD-0
  6
CONTINUOUS
 62
     7
 10
63.6388475084
 20
-173.9412143206
 30
0.0
 11
63.6388475084
 21
-165.0411977744
 31
0.0
  0
LINE
  5
1B3
  8
SLD-0
  6
CONTINUOUS
 62
     7
 10
64.4388473136
 20
-173.9412143206
 30
0.0
 11
63.6388475084
 21
-173.9412143206
 31
0.0
  0
LINE
  5
1B4
  8
SLD-0
  6
CONTINUOUS
 62
     7
 10
71.2388474037
 20
-173.9412143206
 30
0.0
 11
70.6388474916
 21
-173.9412143206
 31
0.0
  0
LINE
  5
1B5
  8
SLD-0
  6
CONTINUOUS
 62
     7
 10
71.2388474037
 20
-173.9412143206
 30
0.0
 11
71.2388474037
 21
-165.0411977744
 31
0.0
  0
LINE
  5
1B6
  8
SLD-0
  6
CONTINUOUS
 62
     7
 10
70.5388474287
 20
-119.3412139391
 30
0.0
 11
71.5388474026
 21
-119.3412045455
 31
0.0
  0
LINE
  5
1B7
  8
SLD-0
  6
CONTINUOUS
 62
     7
 10
63.5388474026
 20
-119.3412045455
 30
0.0
 11
64.5388473765
 21
-119.3412139391
 31
0.0
  0
LINE
  5
1B8
  8
SLD-0
  6
CONTINUOUS
 62
     7
 10
70.5388474287
 20
-94.3412079787
 30
0.0
 11
72.0388472089
 21
-94.3412079787
 31
0.0
  0
LINE
  5
1B9
  8
SLD-0
  6
CONTINUOUS
 62
     7
 10
63.0388475963
 20
-94.3412079787
 30
0.0
 11
64.5388473765
 21
-94.3412079787
 31
0.0
  0
LINE
  5
1BA
  8
SLD-0
  6
CONTINUOUS
 62
     7
 10
62.4888475993
 20
-165.0411977744
 30
0.0
 11
62.7388471746
 21
-165.0411977744
 31
0.0
  0
LINE
  5
1BB
  8
SLD-0
  6
CONTINUOUS
 62
     7
 10
73.7380862245
 20
-162.1086492514
 30
0.0
 11
74.2251735189
 21
-156.5412178015
 31
0.0
  0
LINE
  5
1BC
  8
SLD-0
  6
CONTINUOUS
 62
     7
 10
74.2251735189
 20
-156.5412178015
 30
0.0
 11
76.1388476947
 21
-156.5412178015
 31
0.0
  0
LINE
  5
1BD
  8
SLD-0
  6
CONTINUOUS
 62
     7
 10
76.1388476947
 20
-158.0411984896
 30
0.0
 11
76.1388476947
 21
-156.5412178015
 31
0.0
  0
LINE
  5
1BE
  8
SLD-0
  6
CONTINUOUS
 62
     7
 10
75.838847273
 20
-158.0411984896
 30
0.0
 11
76.1388476947
 21
-158.0411984896
 31
0.0
  0
LINE
  5
1BF
  8
SLD-0
  6
CONTINUOUS
 62
     7
 10
75.838847273
 20
-158.0411984896
 30
0.0
 11
75.1388475307
 21
-158.5411920523
 31
0.0
  0
LINE
  5
1C0
  8
SLD-0
  6
CONTINUOUS
 62
     7
 10
75.1388475307
 20
-158.5411920523
 30
0.0
 11
75.1388475307
 21
-163.7911989665
 31
0.0
  0
LINE
  5
1C1
  8
SLD-0
  6
CONTINUOUS
 62
     7
 10
75.1388475307
 20
-163.7911989665
 30
0.0
 11
72.6388475866
 21
-163.7911989665
 31
0.0
  0
LINE
  5
1C2
  8
SLD-0
  6
CONTINUOUS
 62
     7
 10
73.8388474108
 20
-168.4724285578
 30
0.0
 11
72.3388476306
 21
-168.3412089324
 31
0.0
  0
LINE
  5
1C3
  8
SLD-0
  6
CONTINUOUS
 62
     7
 10
75.838847273
 20
-158.0411984896
 30
0.0
 11
75.838847273
 21
-170.6412031626
 31
0.0
  0
LINE
  5
1C4
  8
SLD-0
  6
CONTINUOUS
 62
     7
 10
73.8388474108
 20
-171.3412001109
 30
0.0
 11
72.3388476306
 21
-169.8412194228
 31
0.0
  0
LINE
  5
1C5
  8
SLD-0
  6
CONTINUOUS
 62
     7
 10
73.8388474108
 20
-171.3412001109
 30
0.0
 11
75.1388475307
 21
-171.3412001109
 31
0.0
  0
LINE
  5
1C6
  8
SLD-0
  6
CONTINUOUS
 62
     7
 10
75.1388475307
 20
-171.3412001109
 30
0.0
 11
75.838847273
 21
-170.6412031626
 31
0.0
  0
LINE
  5
1C7
  8
SLD-0
  6
CONTINUOUS
 62
     7
 10
72.3388476306
 20
-169.8412194228
 30
0.0
 11
72.3388476306
 21
-168.3412089324
 31
0.0
  0
LINE
  5
1C8
  8
SLD-0
  6
CONTINUOUS
 62
     7
 10
73.8388474108
 20
-163.7911989665
 30
0.0
 11
73.8388474108
 21
-168.4724285578
 31
0.0
  0
LINE
  5
1C9
  8
SLD-0
  6
CONTINUOUS
 62
     7
 10
80.5388476708
 20
116.4840564752
 30
0.0
 11
80.5388476708
 21
126.0587957377
 31
0.0
  0
LINE
  5
1CA
  8
SLD-0
  6
CONTINUOUS
 62
     7
 10
54.5388471344
 20
116.4840564752
 30
0.0
 11
54.5388471344
 21
126.0587957377
 31
0.0
  0
LINE
  5
1CB
  8
SLD-0
  6
CONTINUOUS
 62
     7
 10
67.5388474026
 20
113.0587936068
 30
0.0
 11
72.5388472908
 21
113.0587936068
 31
0.0
  0
LINE
  5
1CC
  8
SLD-0
  6
CONTINUOUS
 62
     7
 10
62.5388475144
 20
113.0587936068
 30
0.0
 11
67.5388474026
 21
113.0587936068
 31
0.0
  0
LINE
  5
1CD
  8
SLD-0
  6
CONTINUOUS
 62
     7
 10
73.6388472849
 20
-146.941204307
 30
0.0
 11
61.4388475203
 21
-146.941204307
 31
0.0
  0
LINE
  5
1CE
  8
SLD-0
  6
CONTINUOUS
 62
     7
 10
73.6388472849
 20
-146.941204307
 30
0.0
 11
73.6388472849
 21
-163.4412004923
 31
0.0
  0
LINE
  5
1CF
  8
SLD-0
  6
CONTINUOUS
 62
     7
 10
70.0388473467
 20
-163.4412004923
 30
0.0
 11
73.6388472849
 21
-163.4412004923
 31
0.0
  0
LINE
  5
1D0
  8
SLD-0
  6
CONTINUOUS
 62
     7
 10
70.0388473467
 20
-167.8412153697
 30
0.0
 11
70.0388473467
 21
-163.4412004923
 31
0.0
  0
LINE
  5
1D1
  8
SLD-0
  6
CONTINUOUS
 62
     7
 10
67.563847402
 20
-167.8412153697
 30
0.0
 11
70.0388473467
 21
-167.8412153697
 31
0.0
  0
LINE
  5
1D2
  8
SLD-0
  6
CONTINUOUS
 62
     7
 10
67.563847402
 20
-163.4412004923
 30
0.0
 11
67.563847402
 21
-167.8412153697
 31
0.0
  0
LINE
  5
1D3
  8
SLD-0
  6
CONTINUOUS
 62
     7
 10
67.563847402
 20
-163.4412004923
 30
0.0
 11
67.5138474032
 21
-163.4412004923
 31
0.0
  0
LINE
  5
1D4
  8
SLD-0
  6
CONTINUOUS
 62
     7
 10
65.0388474585
 20
-163.4412004923
 30
0.0
 11
65.0388474585
 21
-167.8412153697
 31
0.0
  0
LINE
  5
1D5
  8
SLD-0
  6
CONTINUOUS
 62
     7
 10
61.4388475203
 20
-163.4412004923
 30
0.0
 11
65.0388474585
 21
-163.4412004923
 31
0.0
  0
LINE
  5
1D6
  8
SLD-0
  6
CONTINUOUS
 62
     7
 10
61.4388475203
 20
-146.941204307
 30
0.0
 11
61.4388475203
 21
-163.4412004923
 31
0.0
  0
LINE
  5
1D7
  8
SLD-0
  6
CONTINUOUS
 62
     7
 10
65.0388474585
 20
-167.8412153697
 30
0.0
 11
67.5138474032
 21
-167.8412153697
 31
0.0
  0
LINE
  5
1D8
  8
SLD-0
  6
CONTINUOUS
 62
     7
 10
67.5138474032
 20
-167.8412153697
 30
0.0
 11
67.5138474032
 21
-163.4412004923
 31
0.0
  0
LINE
  5
1D9
  8
SLD-0
  6
CONTINUOUS
 62
     7
 10
71.5138476351
 20
-144.5912017798
 30
0.0
 11
65.5138473501
 21
-144.5912017798
 31
0.0
  0
LINE
  5
1DA
  8
SLD-0
  6
CONTINUOUS
 62
     7
 10
71.5138476351
 20
-146.941204307
 30
0.0
 11
71.5138476351
 21
-144.5912017798
 31
0.0
  0
LINE
  5
1DB
  8
SLD-0
  6
CONTINUOUS
 62
     7
 10
65.5138473501
 20
-144.5912017798
 30
0.0
 11
65.5138473501
 21
-146.941204307
 31
0.0
  0
LINE
  5
1DC
  8
SLD-0
  6
CONTINUOUS
 62
     7
 10
61.4388475203
 20
-138.9348998045
 30
0.0
 11
73.6388472849
 21
-138.9348998045
 31
0.0
  0
LINE
  5
1DD
  8
SLD-0
  6
CONTINUOUS
 62
     7
 10
61.4388475203
 20
-135.1761116957
 30
0.0
 11
73.6388472849
 21
-135.1761116957
 31
0.0
  0
LINE
  5
1DE
  8
SLD-0
  6
CONTINUOUS
 62
     7
 10
73.6388472849
 20
-135.1761116957
 30
0.0
 11
73.6388472849
 21
-138.9348998045
 31
0.0
  0
LINE
  5
1DF
  8
SLD-0
  6
CONTINUOUS
 62
     7
 10
61.4388475203
 20
-135.1761116957
 30
0.0
 11
61.4388475203
 21
-138.9348998045
 31
0.0
  0
LINE
  5
1E0
  8
SLD-0
  6
CONTINUOUS
 62
     7
 10
73.6388472849
 20
-130.9412016844
 30
0.0
 11
61.4388475203
 21
-130.9412016844
 31
0.0
  0
LINE
  5
1E1
  8
SLD-0
  6
CONTINUOUS
 62
     7
 10
73.6388472849
 20
-130.9412016844
 30
0.0
 11
73.6388472849
 21
-135.1761116957
 31
0.0
  0
LINE
  5
1E2
  8
SLD-0
  6
CONTINUOUS
 62
     7
 10
61.4388475203
 20
-130.9412016844
 30
0.0
 11
61.4388475203
 21
-135.1761116957
 31
0.0
  0
LINE
  5
1E3
  8
SLD-0
  6
CONTINUOUS
 62
     7
 10
61.4388475203
 20
-130.4412081217
 30
0.0
 11
73.6388472849
 21
-130.4412081217
 31
0.0
  0
LINE
  5
1E4
  8
SLD-0
  6
CONTINUOUS
 62
     7
 10
73.6388472849
 20
-130.4412081217
 30
0.0
 11
73.6388472849
 21
-130.9412016844
 31
0.0
  0
LINE
  5
1E5
  8
SLD-0
  6
CONTINUOUS
 62
     7
 10
61.4388475203
 20
-130.4412081217
 30
0.0
 11
61.4388475203
 21
-130.9412016844
 31
0.0
  0
LINE
  5
1E6
  8
SLD-0
  6
CONTINUOUS
 62
     7
 10
66.563847429
 20
-140.2411951994
 30
0.0
 11
70.5638473862
 21
-140.2411951994
 31
0.0
  0
LINE
  5
1E7
  8
SLD-0
  6
CONTINUOUS
 62
     7
 10
66.563847429
 20
-139.9412050223
 30
0.0
 11
70.5638473862
 21
-139.9412050223
 31
0.0
  0
LINE
  5
1E8
  8
SLD-0
  6
CONTINUOUS
 62
     7
 10
66.563847429
 20
-139.9412050223
 30
0.0
 11
66.563847429
 21
-140.2411951994
 31
0.0
  0
LINE
  5
1E9
  8
SLD-0
  6
CONTINUOUS
 62
     7
 10
70.5638473862
 20
-140.2411951994
 30
0.0
 11
70.5638473862
 21
-139.9412050223
 31
0.0
  0
LINE
  5
1EA
  8
SLD-0
  6
CONTINUOUS
 62
     7
 10
66.563847429
 20
-140.7911970591
 30
0.0
 11
70.5638473862
 21
-140.7911970591
 31
0.0
  0
LINE
  5
1EB
  8
SLD-0
  6
CONTINUOUS
 62
     7
 10
66.563847429
 20
-140.2411951994
 30
0.0
 11
66.563847429
 21
-140.7911970591
 31
0.0
  0
LINE
  5
1EC
  8
SLD-0
  6
CONTINUOUS
 62
     7
 10
70.5638473862
 20
-140.7911970591
 30
0.0
 11
70.5638473862
 21
-140.2411951994
 31
0.0
  0
LINE
  5
1ED
  8
SLD-0
  6
CONTINUOUS
 62
     7
 10
73.6388472849
 20
-144.9412002539
 30
0.0
 11
71.5138476351
 21
-144.9412002539
 31
0.0
  0
LINE
  5
1EE
  8
SLD-0
  6
CONTINUOUS
 62
     7
 10
73.6388472849
 20
-144.9412002539
 30
0.0
 11
73.6388472849
 21
-146.941204307
 31
0.0
  0
LINE
  5
1EF
  8
SLD-0
  6
CONTINUOUS
 62
     7
 10
65.5138473501
 20
-144.9412002539
 30
0.0
 11
61.4388475203
 21
-144.9412002539
 31
0.0
  0
LINE
  5
1F0
  8
SLD-0
  6
CONTINUOUS
 62
     7
 10
61.4388475203
 20
-144.9412002539
 30
0.0
 11
61.4388475203
 21
-146.941204307
 31
0.0
  0
LINE
  5
1F1
  8
SLD-0
  6
CONTINUOUS
 62
     7
 10
70.5638473862
 20
-141.6412188983
 30
0.0
 11
70.5638473862
 21
-140.7911970591
 31
0.0
  0
LINE
  5
1F2
  8
SLD-0
  6
CONTINUOUS
 62
     7
 10
66.563847429
 20
-141.6412188983
 30
0.0
 11
70.5638473862
 21
-141.6412188983
 31
0.0
  0
LINE
  5
1F3
  8
SLD-0
  6
CONTINUOUS
 62
     7
 10
66.563847429
 20
-140.7911970591
 30
0.0
 11
66.563847429
 21
-141.6412188983
 31
0.0
  0
LINE
  5
1F4
  8
SLD-0
  6
CONTINUOUS
 62
     7
 10
71.5138476351
 20
-140.2411951994
 30
0.0
 11
70.5638473862
 21
-140.2411951994
 31
0.0
  0
LINE
  5
1F5
  8
SLD-0
  6
CONTINUOUS
 62
     7
 10
71.5138476351
 20
-140.7911970591
 30
0.0
 11
70.5638473862
 21
-140.7911970591
 31
0.0
  0
LINE
  5
1F6
  8
SLD-0
  6
CONTINUOUS
 62
     7
 10
71.5138476351
 20
-140.2411951994
 30
0.0
 11
71.5138476351
 21
-140.7911970591
 31
0.0
  0
LINE
  5
1F7
  8
SLD-0
  6
CONTINUOUS
 62
     7
 10
70.5638473862
 20
-144.0912082171
 30
0.0
 11
71.5138476351
 21
-144.0912082171
 31
0.0
  0
LINE
  5
1F8
  8
SLD-0
  6
CONTINUOUS
 62
     7
 10
71.5138476351
 20
-140.7911970591
 30
0.0
 11
71.5138476351
 21
-144.0912082171
 31
0.0
  0
LINE
  5
1F9
  8
SLD-0
  6
CONTINUOUS
 62
     7
 10
70.5638473862
 20
-139.9412050223
 30
0.0
 11
71.5138476351
 21
-139.9412050223
 31
0.0
  0
LINE
  5
1FA
  8
SLD-0
  6
CONTINUOUS
 62
     7
 10
71.5138476351
 20
-139.9412050223
 30
0.0
 11
71.5138476351
 21
-140.2411951994
 31
0.0
  0
LINE
  5
1FB
  8
SLD-0
  6
CONTINUOUS
 62
     7
 10
66.563847429
 20
-144.0912082171
 30
0.0
 11
65.5138473501
 21
-144.0912082171
 31
0.0
  0
LINE
  5
1FC
  8
SLD-0
  6
CONTINUOUS
 62
     7
 10
66.563847429
 20
-140.7911970591
 30
0.0
 11
65.5138473501
 21
-140.7911970591
 31
0.0
  0
LINE
  5
1FD
  8
SLD-0
  6
CONTINUOUS
 62
     7
 10
65.5138473501
 20
-140.7911970591
 30
0.0
 11
65.5138473501
 21
-144.0912082171
 31
0.0
  0
LINE
  5
1FE
  8
SLD-0
  6
CONTINUOUS
 62
     7
 10
66.563847429
 20
-140.2411951994
 30
0.0
 11
65.5138473501
 21
-140.2411951994
 31
0.0
  0
LINE
  5
1FF
  8
SLD-0
  6
CONTINUOUS
 62
     7
 10
65.5138473501
 20
-140.2411951994
 30
0.0
 11
65.5138473501
 21
-140.7911970591
 31
0.0
  0
LINE
  5
200
  8
SLD-0
  6
CONTINUOUS
 62
     7
 10
65.5138473501
 20
-139.9412050223
 30
0.0
 11
66.563847429
 21
-139.9412050223
 31
0.0
  0
LINE
  5
201
  8
SLD-0
  6
CONTINUOUS
 62
     7
 10
65.5138473501
 20
-139.9412050223
 30
0.0
 11
65.5138473501
 21
-140.2411951994
 31
0.0
  0
LINE
  5
202
  8
SLD-0
  6
CONTINUOUS
 62
     7
 10
70.5638473862
 20
-142.4912109351
 30
0.0
 11
66.563847429
 21
-142.4912109351
 31
0.0
  0
LINE
  5
203
  8
SLD-0
  6
CONTINUOUS
 62
     7
 10
70.5638473862
 20
-142.4912109351
 30
0.0
 11
70.5638473862
 21
-141.6412188983
 31
0.0
  0
LINE
  5
204
  8
SLD-0
  6
CONTINUOUS
 62
     7
 10
66.563847429
 20
-141.6412188983
 30
0.0
 11
66.563847429
 21
-142.4912109351
 31
0.0
  0
LINE
  5
205
  8
SLD-0
  6
CONTINUOUS
 62
     7
 10
70.5638473862
 20
-143.3412029719
 30
0.0
 11
66.563847429
 21
-143.3412029719
 31
0.0
  0
LINE
  5
206
  8
SLD-0
  6
CONTINUOUS
 62
     7
 10
70.5638473862
 20
-143.3412029719
 30
0.0
 11
70.5638473862
 21
-142.4912109351
 31
0.0
  0
LINE
  5
207
  8
SLD-0
  6
CONTINUOUS
 62
     7
 10
66.563847429
 20
-142.4912109351
 30
0.0
 11
66.563847429
 21
-143.3412029719
 31
0.0
  0
LINE
  5
208
  8
SLD-0
  6
CONTINUOUS
 62
     7
 10
73.6388472849
 20
-139.8171379542
 30
0.0
 11
61.4388475203
 21
-139.8171379542
 31
0.0
  0
LINE
  5
209
  8
SLD-0
  6
CONTINUOUS
 62
     7
 10
73.6388472849
 20
-138.9348998045
 30
0.0
 11
73.6388472849
 21
-139.8171379542
 31
0.0
  0
LINE
  5
20A
  8
SLD-0
  6
CONTINUOUS
 62
     7
 10
61.4388475203
 20
-138.9348998045
 30
0.0
 11
61.4388475203
 21
-139.8171379542
 31
0.0
  0
LINE
  5
20B
  8
SLD-0
  6
CONTINUOUS
 62
     7
 10
70.5638473862
 20
-144.0912082171
 30
0.0
 11
70.5638473862
 21
-143.3412029719
 31
0.0
  0
LINE
  5
20C
  8
SLD-0
  6
CONTINUOUS
 62
     7
 10
70.5638473862
 20
-144.0912082171
 30
0.0
 11
66.563847429
 21
-144.0912082171
 31
0.0
  0
LINE
  5
20D
  8
SLD-0
  6
CONTINUOUS
 62
     7
 10
66.563847429
 20
-144.0912082171
 30
0.0
 11
66.563847429
 21
-143.3412029719
 31
0.0
  0
LINE
  5
20E
  8
SLD-0
  6
CONTINUOUS
 62
     7
 10
71.5138476351
 20
-144.5912017798
 30
0.0
 11
71.5138476351
 21
-144.0912082171
 31
0.0
  0
LINE
  5
20F
  8
SLD-0
  6
CONTINUOUS
 62
     7
 10
65.5138473501
 20
-144.0912082171
 30
0.0
 11
65.5138473501
 21
-144.5912017798
 31
0.0
  0
LINE
  5
210
  8
SLD-0
  6
CONTINUOUS
 62
     7
 10
73.6388472849
 20
-139.8171379542
 30
0.0
 11
73.6388472849
 21
-144.9412002539
 31
0.0
  0
LINE
  5
211
  8
SLD-0
  6
CONTINUOUS
 62
     7
 10
61.4388475203
 20
-139.8171379542
 30
0.0
 11
61.4388475203
 21
-144.9412002539
 31
0.0
  0
LINE
  5
212
  8
SLD-0
  6
CONTINUOUS
 62
     7
 10
70.6388474916
 20
-173.9412143206
 30
0.0
 11
70.6388474916
 21
-163.4412004923
 31
0.0
  0
LINE
  5
213
  8
SLD-0
  6
CONTINUOUS
 62
     7
 10
70.6388474916
 20
-173.9412143206
 30
0.0
 11
70.2388474726
 21
-173.9412143206
 31
0.0
  0
LINE
  5
214
  8
SLD-0
  6
CONTINUOUS
 62
     7
 10
70.2388474726
 20
-173.9412143206
 30
0.0
 11
70.2388474726
 21
-163.4412004923
 31
0.0
  0
LINE
  5
215
  8
SLD-0
  6
CONTINUOUS
 62
     7
 10
70.2388474726
 20
-173.9412143206
 30
0.0
 11
64.8388473326
 21
-173.9412143206
 31
0.0
  0
LINE
  5
216
  8
SLD-0
  6
CONTINUOUS
 62
     7
 10
64.8388473326
 20
-173.9412143206
 30
0.0
 11
64.8388473326
 21
-163.4412004923
 31
0.0
  0
LINE
  5
217
  8
SLD-0
  6
CONTINUOUS
 62
     7
 10
64.4388473136
 20
-173.9412143206
 30
0.0
 11
64.4388473136
 21
-163.4412004923
 31
0.0
  0
LINE
  5
218
  8
SLD-0
  6
CONTINUOUS
 62
     7
 10
64.8388473326
 20
-173.9412143206
 30
0.0
 11
64.4388473136
 21
-173.9412143206
 31
0.0
  0
LINE
  5
219
  8
SLD-0
  6
CONTINUOUS
 62
     8
 10
84.7388474026
 20
117.7587954545
 30
0.0
 11
84.7388479867
 21
123.5505708182
 31
0.0
  0
LINE
  5
21A
  8
SLD-0
  6
CONTINUOUS
 62
     8
 10
84.7388479867
 20
123.9041250819
 30
0.0
 11
84.7388479867
 21
124.7587957689
 31
0.0
  0
LINE
  5
21B
  8
SLD-0
  6
CONTINUOUS
 62
     8
 10
70.5388474287
 20
-118.8411905741
 30
0.0
 11
72.0388472089
 21
-118.8411905741
 31
0.0
  0
LINE
  5
21C
  8
SLD-0
  6
CONTINUOUS
 62
     8
 10
63.0388475963
 20
-118.8411905741
 30
0.0
 11
64.5388473765
 21
-118.8411905741
 31
0.0
  0
LINE
  5
21D
  8
SLD-0
  6
CONTINUOUS
 62
     8
 10
64.5388473765
 20
-119.8412075018
 30
0.0
 11
64.0388474026
 21
-119.8412045455
 31
0.0
  0
LINE
  5
21E
  8
SLD-0
  6
CONTINUOUS
 62
     8
 10
71.0388474026
 20
-119.8412045455
 30
0.0
 11
70.5388474287
 21
-119.8412075018
 31
0.0
  0
LINE
  5
21F
  8
SLD-0
  6
CONTINUOUS
 62
     7
 10
335.9513731866
 20
113.0587936068
 30
0.0
 11
335.9513731866
 21
-94.3412079787
 31
0.0
  0
LINE
  5
220
  8
SLD-0
  6
CONTINUOUS
 62
     7
 10
343.9513735666
 20
-94.3412079787
 30
0.0
 11
343.9513735666
 21
113.0587936068
 31
0.0
  0
LINE
  5
221
  8
SLD-0
  6
CONTINUOUS
 62
     7
 10
326.4513730264
 20
124.9587957436
 30
0.0
 11
326.1513735361
 21
124.9587957436
 31
0.0
  0
LINE
  5
222
  8
SLD-0
  6
CONTINUOUS
 62
     7
 10
326.1513735361
 20
119.1587962831
 30
0.0
 11
326.4513730264
 21
119.1587962831
 31
0.0
  0
LINE
  5
223
  8
SLD-0
  6
CONTINUOUS
 62
     7
 10
334.7013734474
 20
115.2885772908
 30
0.0
 11
334.7013734474
 21
113.0587936068
 31
0.0
  0
LINE
  5
224
  8
SLD-0
  6
CONTINUOUS
 62
     7
 10
345.2013733058
 20
113.0587936068
 30
0.0
 11
345.2013733058
 21
115.2831346417
 31
0.0
  0
LINE
  5
225
  8
SLD-0
  6
CONTINUOUS
 62
     7
 10
326.1513735361
 20
124.7587957689
 30
0.0
 11
323.8513727865
 21
124.7587957689
 31
0.0
  0
LINE
  5
226
  8
SLD-0
  6
CONTINUOUS
 62
     7
 10
323.8513727865
 20
117.7587951953
 30
0.0
 11
326.4513730264
 21
117.7587951953
 31
0.0
  0
LINE
  5
227
  8
SLD-0
  6
CONTINUOUS
 62
     7
 10
323.8513727865
 20
124.7587957689
 30
0.0
 11
322.7513727925
 21
124.7587957689
 31
0.0
  0
LINE
  5
228
  8
SLD-0
  6
CONTINUOUS
 62
     7
 10
322.7513727925
 20
117.7587951953
 30
0.0
 11
323.8513727865
 21
117.7587951953
 31
0.0
  0
LINE
  5
229
  8
SLD-0
  6
CONTINUOUS
 62
     7
 10
345.0013731799
 20
-165.0411977744
 30
0.0
 11
345.0013731799
 21
-155.3411974883
 31
0.0
  0
LINE
  5
22A
  8
SLD-0
  6
CONTINUOUS
 62
     7
 10
338.6003243231
 20
-154.3412103629
 30
0.0
 11
339.2300581054
 21
-145.8391442275
 31
0.0
  0
LINE
  5
22B
  8
SLD-0
  6
CONTINUOUS
 62
     7
 10
339.2300581054
 20
-145.8391442275
 30
0.0
 11
340.0833393844
 21
-134.341199634
 31
0.0
  0
LINE
  5
22C
  8
SLD-0
  6
CONTINUOUS
 62
     7
 10
338.5833394441
 20
-134.341199634
 30
0.0
 11
337.8796423513
 21
-143.8432826972
 31
0.0
  0
LINE
  5
22D
  8
SLD-0
  6
CONTINUOUS
 62
     7
 10
337.8796423513
 20
-143.8432826972
 30
0.0
 11
337.1006911348
 21
-154.3412103629
 31
0.0
  0
LINE
  5
22E
  8
SLD-0
  6
CONTINUOUS
 62
     7
 10
340.8194073436
 20
-134.341199634
 30
0.0
 11
341.0050831462
 21
-143.8432826972
 31
0.0
  0
LINE
  5
22F
  8
SLD-0
  6
CONTINUOUS
 62
     7
 10
341.0050831462
 20
-143.8432826972
 30
0.0
 11
341.2073005184
 21
-154.3412103629
 31
0.0
  0
LINE
  5
230
  8
SLD-0
  6
CONTINUOUS
 62
     7
 10
342.7066607128
 20
-154.3412103629
 30
0.0
 11
342.5406764454
 21
-145.8391442275
 31
0.0
  0
LINE
  5
231
  8
SLD-0
  6
CONTINUOUS
 62
     7
 10
342.5406764454
 20
-145.8391442275
 30
0.0
 11
342.3194074731
 21
-134.341199634
 31
0.0
  0
LINE
  5
232
  8
SLD-0
  6
CONTINUOUS
 62
     7
 10
335.4513735703
 20
-94.3412079787
 30
0.0
 11
335.4513735703
 21
-118.8411905741
 31
0.0
  0
LINE
  5
233
  8
SLD-0
  6
CONTINUOUS
 62
     7
 10
344.4513731829
 20
-118.8411905741
 30
0.0
 11
344.4513731829
 21
-94.3412079787
 31
0.0
  0
LINE
  5
234
  8
SLD-0
  6
CONTINUOUS
 62
     7
 10
336.4513733766
 20
-119.8412045455
 30
0.0
 11
336.4513733766
 21
-134.341199634
 31
0.0
  0
LINE
  5
235
  8
SLD-0
  6
CONTINUOUS
 62
     7
 10
343.4513733766
 20
-134.341199634
 30
0.0
 11
343.4513733766
 21
-119.8412045455
 31
0.0
  0
LINE
  5
236
  8
SLD-0
  6
CONTINUOUS
 62
     7
 10
337.2016830563
 20
-134.341199634
 30
0.0
 11
337.1276592097
 21
-144.0970494723
 31
0.0
  0
LINE
  5
237
  8
SLD-0
  6
CONTINUOUS
 62
     7
 10
337.1276592097
 20
-144.0970494723
 30
0.0
 11
337.0353812079
 21
-154.3412103629
 31
0.0
  0
LINE
  5
238
  8
SLD-0
  6
CONTINUOUS
 62
     7
 10
318.9513736955
 20
130.0882324459
 30
0.0
 11
318.9513736955
 21
164.0293570117
 31
0.0
  0
LINE
  5
239
  8
SLD-0
  6
CONTINUOUS
 62
     7
 10
322.9808112603
 20
168.0587946722
 30
0.0
 11
356.9219358261
 21
168.0587946722
 31
0.0
  0
LINE
  5
23A
  8
SLD-0
  6
CONTINUOUS
 62
     7
 10
360.9513736599
 20
130.0882330709
 30
0.0
 11
360.9513730761
 21
164.0293574423
 31
0.0
  0
LINE
  5
23B
  8
SLD-0
  6
CONTINUOUS
 62
     7
 10
322.9808106281
 20
126.0587954545
 30
0.0
 11
356.9219361251
 21
126.0587954545
 31
0.0
  0
LINE
  5
23C
  8
SLD-0
  6
CONTINUOUS
 62
     7
 10
326.4513730264
 20
120.6460495168
 30
0.0
 11
326.4513733766
 21
116.5972696448
 31
0.0
  0
LINE
  5
23D
  8
SLD-0
  6
CONTINUOUS
 62
     7
 10
330.4513736821
 20
121.8156528348
 30
0.0
 11
329.2374151952
 21
121.9310884053
 31
0.0
  0
LINE
  5
23E
  8
SLD-0
  6
CONTINUOUS
 62
     7
 10
329.2374151952
 20
121.9310884053
 30
0.0
 11
328.1338789693
 21
121.873229059
 31
0.0
  0
LINE
  5
23F
  8
SLD-0
  6
CONTINUOUS
 62
     7
 10
328.1338789693
 20
121.873229059
 30
0.0
 11
327.2705373547
 21
121.6460068399
 31
0.0
  0
LINE
  5
240
  8
SLD-0
  6
CONTINUOUS
 62
     7
 10
327.2705373547
 20
121.6460068399
 30
0.0
 11
326.6920174665
 21
121.2575726831
 31
0.0
  0
LINE
  5
241
  8
SLD-0
  6
CONTINUOUS
 62
     7
 10
326.6920174665
 20
121.2575726831
 30
0.0
 11
326.4513730264
 21
120.6460495168
 31
0.0
  0
LINE
  5
242
  8
SLD-0
  6
CONTINUOUS
 62
     7
 10
353.4513737268
 20
120.6460495168
 30
0.0
 11
353.2133779681
 21
121.2546073521
 31
0.0
  0
LINE
  5
243
  8
SLD-0
  6
CONTINUOUS
 62
     7
 10
353.2133779681
 20
121.2546073521
 30
0.0
 11
352.4845239899
 21
121.7032123977
 31
0.0
  0
LINE
  5
244
  8
SLD-0
  6
CONTINUOUS
 62
     7
 10
352.4845239899
 20
121.7032123977
 30
0.0
 11
351.4379586286
 21
121.9109196836
 31
0.0
  0
LINE
  5
245
  8
SLD-0
  6
CONTINUOUS
 62
     7
 10
351.4379586286
 20
121.9109196836
 30
0.0
 11
350.2655976645
 21
121.9111189867
 31
0.0
  0
LINE
  5
246
  8
SLD-0
  6
CONTINUOUS
 62
     7
 10
350.2655976645
 20
121.9111189867
 30
0.0
 11
349.4513730711
 21
121.8156528348
 31
0.0
  0
LINE
  5
247
  8
SLD-0
  6
CONTINUOUS
 62
     7
 10
353.4513737268
 20
120.6460495168
 30
0.0
 11
353.4513733766
 21
116.5972696448
 31
0.0
  0
LINE
  5
248
  8
SLD-0
  6
CONTINUOUS
 62
     7
 10
349.4513730711
 20
121.8156528348
 30
0.0
 11
349.4513730711
 21
126.0587957377
 31
0.0
  0
LINE
  5
249
  8
SLD-0
  6
CONTINUOUS
 62
     7
 10
353.4513737268
 20
126.0587957377
 30
0.0
 11
353.4513737268
 21
120.6460495168
 31
0.0
  0
LINE
  5
24A
  8
SLD-0
  6
CONTINUOUS
 62
     7
 10
330.4513736821
 20
126.0587957377
 30
0.0
 11
330.4513736821
 21
121.8156528348
 31
0.0
  0
LINE
  5
24B
  8
SLD-0
  6
CONTINUOUS
 62
     7
 10
326.4513730264
 20
120.6460495168
 30
0.0
 11
326.4513730264
 21
126.0587957377
 31
0.0
  0
LINE
  5
24C
  8
SLD-0
  6
CONTINUOUS
 62
     7
 10
326.1513735361
 20
122.058795082
 30
0.0
 11
326.1513735361
 21
124.9587957436
 31
0.0
  0
LINE
  5
24D
  8
SLD-0
  6
CONTINUOUS
 62
     7
 10
326.1513735361
 20
119.1587962831
 30
0.0
 11
326.1513735361
 21
122.058795082
 31
0.0
  0
LINE
  5
24E
  8
SLD-0
  6
CONTINUOUS
 62
     7
 10
334.7013734474
 20
113.0587936068
 30
0.0
 11
345.2013733058
 21
113.0587936068
 31
0.0
  0
LINE
  5
24F
  8
SLD-0
  6
CONTINUOUS
 62
     7
 10
323.8513727865
 20
121.2587948377
 30
0.0
 11
323.8513727865
 21
124.7587957689
 31
0.0
  0
LINE
  5
250
  8
SLD-0
  6
CONTINUOUS
 62
     7
 10
323.8513727865
 20
117.7587951953
 30
0.0
 11
323.8513727865
 21
121.2587948377
 31
0.0
  0
LINE
  5
251
  8
SLD-0
  6
CONTINUOUS
 62
     7
 10
322.7513727925
 20
118.6134659374
 30
0.0
 11
322.7513727925
 21
118.9670202011
 31
0.0
  0
LINE
  5
252
  8
SLD-0
  6
CONTINUOUS
 62
     7
 10
321.4513731382
 20
119.8900148893
 30
0.0
 11
321.4513733766
 21
123.4587954545
 31
0.0
  0
LINE
  5
253
  8
SLD-0
  6
CONTINUOUS
 62
     7
 10
322.7513727925
 20
118.9670202011
 30
0.0
 11
322.3219790689
 21
119.0187477196
 31
0.0
  0
LINE
  5
254
  8
SLD-0
  6
CONTINUOUS
 62
     7
 10
322.3219790689
 20
119.0187477196
 30
0.0
 11
321.940999218
 21
119.1680368656
 31
0.0
  0
LINE
  5
255
  8
SLD-0
  6
CONTINUOUS
 62
     7
 10
321.940999218
 20
119.1680368656
 30
0.0
 11
321.6509555659
 21
119.3981629485
 31
0.0
  0
LINE
  5
256
  8
SLD-0
  6
CONTINUOUS
 62
     7
 10
321.6509555659
 20
119.3981629485
 30
0.0
 11
321.4841333411
 21
119.6837679172
 31
0.0
  0
LINE
  5
257
  8
SLD-0
  6
CONTINUOUS
 62
     7
 10
321.4841333411
 20
119.6837679172
 30
0.0
 11
321.4513731382
 21
119.8900148893
 31
0.0
  0
LINE
  5
258
  8
SLD-0
  6
CONTINUOUS
 62
     7
 10
321.4513733766
 20
119.0587954545
 30
0.0
 11
321.4513731382
 21
119.5364606256
 31
0.0
  0
LINE
  5
259
  8
SLD-0
  6
CONTINUOUS
 62
     7
 10
321.4513731382
 20
119.5364606256
 30
0.0
 11
321.525139474
 21
119.2295525843
 31
0.0
  0
LINE
  5
25A
  8
SLD-0
  6
CONTINUOUS
 62
     7
 10
321.525139474
 20
119.2295525843
 30
0.0
 11
321.7387457571
 21
118.9572767044
 31
0.0
  0
LINE
  5
25B
  8
SLD-0
  6
CONTINUOUS
 62
     7
 10
321.7387457571
 20
118.9572767044
 30
0.0
 11
322.0666271827
 21
118.7516946966
 31
0.0
  0
LINE
  5
25C
  8
SLD-0
  6
CONTINUOUS
 62
     7
 10
322.0666271827
 20
118.7516946966
 30
0.0
 11
322.4709571532
 21
118.6351620281
 31
0.0
  0
LINE
  5
25D
  8
SLD-0
  6
CONTINUOUS
 62
     7
 10
322.4709571532
 20
118.6351620281
 30
0.0
 11
322.7513727925
 21
118.6134659374
 31
0.0
  0
LINE
  5
25E
  8
SLD-0
  6
CONTINUOUS
 62
     7
 10
321.4513731382
 20
119.8900148893
 30
0.0
 11
321.4513731382
 21
119.5364606256
 31
0.0
  0
LINE
  5
25F
  8
SLD-0
  6
CONTINUOUS
 62
     7
 10
335.1513731486
 20
-165.0411977744
 30
0.0
 11
344.7513736046
 21
-165.0411977744
 31
0.0
  0
LINE
  5
260
  8
SLD-0
  6
CONTINUOUS
 62
     7
 10
335.1513731486
 20
-155.3411974883
 30
0.0
 11
335.1513731486
 21
-165.0411977744
 31
0.0
  0
LINE
  5
261
  8
SLD-0
  6
CONTINUOUS
 62
     7
 10
335.1513731486
 20
-155.3411974883
 30
0.0
 11
334.1513734504
 21
-155.3411974883
 31
0.0
  0
LINE
  5
262
  8
SLD-0
  6
CONTINUOUS
 62
     7
 10
334.1513734504
 20
-155.3411974883
 30
0.0
 11
334.1513734504
 21
-154.3412103629
 31
0.0
  0
LINE
  5
263
  8
SLD-0
  6
CONTINUOUS
 62
     7
 10
344.7513736046
 20
-155.3411974883
 30
0.0
 11
345.7513733029
 21
-155.3411974883
 31
0.0
  0
LINE
  5
264
  8
SLD-0
  6
CONTINUOUS
 62
     7
 10
344.7513736046
 20
-165.0411977744
 30
0.0
 11
344.7513736046
 21
-155.3411974883
 31
0.0
  0
LINE
  5
265
  8
SLD-0
  6
CONTINUOUS
 62
     7
 10
345.7513733029
 20
-154.3412103629
 30
0.0
 11
334.1513734504
 21
-154.3412103629
 31
0.0
  0
LINE
  5
266
  8
SLD-0
  6
CONTINUOUS
 62
     7
 10
345.7513733029
 20
-154.3412103629
 30
0.0
 11
345.7513733029
 21
-155.3411974883
 31
0.0
  0
LINE
  5
267
  8
SLD-0
  6
CONTINUOUS
 62
     7
 10
343.1013733807
 20
-165.0411977744
 30
0.0
 11
343.1013733807
 21
-173.9412143206
 31
0.0
  0
LINE
  5
268
  8
SLD-0
  6
CONTINUOUS
 62
     7
 10
343.8513732708
 20
-173.9412143206
 30
0.0
 11
343.8513732708
 21
-165.0411977744
 31
0.0
  0
LINE
  5
269
  8
SLD-0
  6
CONTINUOUS
 62
     7
 10
343.8513732708
 20
-173.9412143206
 30
0.0
 11
343.1013733807
 21
-173.9412143206
 31
0.0
  0
LINE
  5
26A
  8
SLD-0
  6
CONTINUOUS
 62
     7
 10
340.4513734004
 20
-165.0411977744
 30
0.0
 11
340.4513734004
 21
-173.9412143206
 31
0.0
  0
LINE
  5
26B
  8
SLD-0
  6
CONTINUOUS
 62
     7
 10
343.1013733807
 20
-173.9412143206
 30
0.0
 11
340.4513734004
 21
-173.9412143206
 31
0.0
  0
LINE
  5
26C
  8
SLD-0
  6
CONTINUOUS
 62
     7
 10
336.2513733755
 20
-165.0411977744
 30
0.0
 11
336.2513733755
 21
-173.9412143206
 31
0.0
  0
LINE
  5
26D
  8
SLD-0
  6
CONTINUOUS
 62
     7
 10
339.6513733624
 20
-173.9412143206
 30
0.0
 11
336.2513733755
 21
-173.9412143206
 31
0.0
  0
LINE
  5
26E
  8
SLD-0
  6
CONTINUOUS
 62
     7
 10
339.6513733624
 20
-165.0411977744
 30
0.0
 11
339.6513733624
 21
-173.9412143206
 31
0.0
  0
LINE
  5
26F
  8
SLD-0
  6
CONTINUOUS
 62
     7
 10
345.0013731799
 20
-165.0411977744
 30
0.0
 11
344.7513736046
 21
-165.0411977744
 31
0.0
  0
LINE
  5
270
  8
SLD-0
  6
CONTINUOUS
 62
     7
 10
335.9513733766
 20
-119.3412045455
 30
0.0
 11
343.9513733766
 21
-119.3412045455
 31
0.0
  0
LINE
  5
271
  8
SLD-0
  6
CONTINUOUS
 62
     7
 10
335.4513735703
 20
-94.3412079787
 30
0.0
 11
344.4513731829
 21
-94.3412079787
 31
0.0
  0
LINE
  5
272
  8
SLD-0
  6
CONTINUOUS
 62
     7
 10
339.9513734846
 20
-134.341199634
 30
0.0
 11
336.4513733766
 21
-134.341199634
 31
0.0
  0
LINE
  5
273
  8
SLD-0
  6
CONTINUOUS
 62
     7
 10
343.4513733766
 20
-134.341199634
 30
0.0
 11
339.9513734846
 21
-134.341199634
 31
0.0
  0
LINE
  5
274
  8
SLD-0
  6
CONTINUOUS
 62
     7
 10
334.8513733766
 20
-163.7912045455
 30
0.0
 11
332.3513732485
 21
-163.7911989665
 31
0.0
  0
LINE
  5
275
  8
SLD-0
  6
CONTINUOUS
 62
     7
 10
332.3513732485
 20
-163.7911989665
 30
0.0
 11
332.3513732485
 21
-158.5411920523
 31
0.0
  0
LINE
  5
276
  8
SLD-0
  6
CONTINUOUS
 62
     7
 10
332.3513732485
 20
-158.5411920523
 30
0.0
 11
331.6513735063
 21
-158.0411984896
 31
0.0
  0
LINE
  5
277
  8
SLD-0
  6
CONTINUOUS
 62
     7
 10
331.3513730846
 20
-158.0411984896
 30
0.0
 11
331.6513735063
 21
-158.0411984896
 31
0.0
  0
LINE
  5
278
  8
SLD-0
  6
CONTINUOUS
 62
     7
 10
331.3513730846
 20
-156.5412178015
 30
0.0
 11
331.3513730846
 21
-158.0411984896
 31
0.0
  0
LINE
  5
279
  8
SLD-0
  6
CONTINUOUS
 62
     7
 10
331.3513730846
 20
-156.5412178015
 30
0.0
 11
333.2650472603
 21
-156.5412178015
 31
0.0
  0
LINE
  5
27A
  8
SLD-0
  6
CONTINUOUS
 62
     7
 10
333.2650472603
 20
-156.5412178015
 30
0.0
 11
333.7521345548
 21
-162.1086492514
 31
0.0
  0
LINE
  5
27B
  8
SLD-0
  6
CONTINUOUS
 62
     7
 10
333.9513733245
 20
-162.2912182784
 30
0.0
 11
334.8513731926
 21
-162.2912182784
 31
0.0
  0
LINE
  5
27C
  8
SLD-0
  6
CONTINUOUS
 62
     7
 10
333.6513733684
 20
-168.4724285578
 30
0.0
 11
333.6513733684
 21
-163.7911989665
 31
0.0
  0
LINE
  5
27D
  8
SLD-0
  6
CONTINUOUS
 62
     7
 10
333.6513733684
 20
-168.4724285578
 30
0.0
 11
335.1513731486
 21
-168.3412089324
 31
0.0
  0
LINE
  5
27E
  8
SLD-0
  6
CONTINUOUS
 62
     7
 10
335.1513731486
 20
-169.8412194228
 30
0.0
 11
335.1513731486
 21
-168.3412089324
 31
0.0
  0
LINE
  5
27F
  8
SLD-0
  6
CONTINUOUS
 62
     7
 10
335.1513731486
 20
-169.8412194228
 30
0.0
 11
333.6513733684
 21
-171.3412001109
 31
0.0
  0
LINE
  5
280
  8
SLD-0
  6
CONTINUOUS
 62
     7
 10
332.3513732485
 20
-171.3412001109
 30
0.0
 11
333.6513733684
 21
-171.3412001109
 31
0.0
  0
LINE
  5
281
  8
SLD-0
  6
CONTINUOUS
 62
     7
 10
331.6513735063
 20
-170.6412031626
 30
0.0
 11
332.3513732485
 21
-171.3412001109
 31
0.0
  0
LINE
  5
282
  8
SLD-0
  6
CONTINUOUS
 62
     7
 10
331.6513735063
 20
-170.6412031626
 30
0.0
 11
331.6513735063
 21
-158.0411984896
 31
0.0
  0
LINE
  5
283
  8
SLD-0
  6
CONTINUOUS
 62
     7
 10
345.0013731799
 20
-163.4412004923
 30
0.0
 11
346.0513732589
 21
-163.4412004923
 31
0.0
  0
LINE
  5
284
  8
SLD-0
  6
CONTINUOUS
 62
     7
 10
340.4513734004
 20
-167.8412153697
 30
0.0
 11
339.976373376
 21
-167.8412153697
 31
0.0
  0
LINE
  5
285
  8
SLD-0
  6
CONTINUOUS
 62
     7
 10
339.976373376
 20
-165.0411977744
 30
0.0
 11
339.976373376
 21
-167.8412153697
 31
0.0
  0
LINE
  5
286
  8
SLD-0
  6
CONTINUOUS
 62
     7
 10
339.9263733773
 20
-167.8412153697
 30
0.0
 11
339.9263733773
 21
-165.0411977744
 31
0.0
  0
LINE
  5
287
  8
SLD-0
  6
CONTINUOUS
 62
     7
 10
339.6513733624
 20
-167.8412153697
 30
0.0
 11
339.9263733773
 21
-167.8412153697
 31
0.0
  0
LINE
  5
288
  8
SLD-0
  6
CONTINUOUS
 62
     7
 10
333.8513734943
 20
-162.2643961882
 30
0.0
 11
333.8513734943
 21
-146.941204307
 31
0.0
  0
LINE
  5
289
  8
SLD-0
  6
CONTINUOUS
 62
     7
 10
346.0513732589
 20
-146.941204307
 30
0.0
 11
342.5621920924
 21
-146.941204307
 31
0.0
  0
LINE
  5
28A
  8
SLD-0
  6
CONTINUOUS
 62
     7
 10
341.0647574074
 20
-146.941204307
 30
0.0
 11
339.1484298936
 21
-146.941204307
 31
0.0
  0
LINE
  5
28B
  8
SLD-0
  6
CONTINUOUS
 62
     7
 10
337.102039457
 20
-146.941204307
 30
0.0
 11
333.8513734943
 21
-146.941204307
 31
0.0
  0
LINE
  5
28C
  8
SLD-0
  6
CONTINUOUS
 62
     7
 10
346.0513732589
 20
-163.4412004923
 30
0.0
 11
346.0513732589
 21
-146.941204307
 31
0.0
  0
LINE
  5
28D
  8
SLD-0
  6
CONTINUOUS
 62
     7
 10
335.9763731442
 20
-144.5912017798
 30
0.0
 11
335.9763731442
 21
-146.941204307
 31
0.0
  0
LINE
  5
28E
  8
SLD-0
  6
CONTINUOUS
 62
     7
 10
341.0194902408
 20
-144.5912017798
 30
0.0
 11
339.3226694043
 21
-144.5912017798
 31
0.0
  0
LINE
  5
28F
  8
SLD-0
  6
CONTINUOUS
 62
     7
 10
337.1232079535
 20
-144.5912017798
 30
0.0
 11
335.9763731442
 21
-144.5912017798
 31
0.0
  0
LINE
  5
290
  8
SLD-0
  6
CONTINUOUS
 62
     7
 10
333.8513734943
 20
-138.9348998045
 30
0.0
 11
333.8513734943
 21
-135.1761116957
 31
0.0
  0
LINE
  5
291
  8
SLD-0
  6
CONTINUOUS
 62
     7
 10
346.0513732589
 20
-138.9348998045
 30
0.0
 11
346.0513732589
 21
-135.1761116957
 31
0.0
  0
LINE
  5
292
  8
SLD-0
  6
CONTINUOUS
 62
     7
 10
333.8513734943
 20
-130.4412081217
 30
0.0
 11
336.4513732686
 21
-130.4412081217
 31
0.0
  0
LINE
  5
293
  8
SLD-0
  6
CONTINUOUS
 62
     7
 10
343.4513734847
 20
-130.4412081217
 30
0.0
 11
346.0513732589
 21
-130.4412081217
 31
0.0
  0
LINE
  5
294
  8
SLD-0
  6
CONTINUOUS
 62
     7
 10
333.8513734943
 20
-130.9412016844
 30
0.0
 11
333.8513734943
 21
-130.4412081217
 31
0.0
  0
LINE
  5
295
  8
SLD-0
  6
CONTINUOUS
 62
     7
 10
346.0513732589
 20
-130.9412016844
 30
0.0
 11
346.0513732589
 21
-130.4412081217
 31
0.0
  0
LINE
  5
296
  8
SLD-0
  6
CONTINUOUS
 62
     7
 10
333.8513734943
 20
-135.1761116957
 30
0.0
 11
333.8513734943
 21
-130.9412016844
 31
0.0
  0
LINE
  5
297
  8
SLD-0
  6
CONTINUOUS
 62
     7
 10
346.0513732589
 20
-135.1761116957
 30
0.0
 11
346.0513732589
 21
-130.9412016844
 31
0.0
  0
LINE
  5
298
  8
SLD-0
  6
CONTINUOUS
 62
     7
 10
336.926373393
 20
-139.9412050223
 30
0.0
 11
336.926373393
 21
-140.2411951994
 31
0.0
  0
LINE
  5
299
  8
SLD-0
  6
CONTINUOUS
 62
     7
 10
336.926373393
 20
-139.9412050223
 30
0.0
 11
337.1591923951
 21
-139.9412050223
 31
0.0
  0
LINE
  5
29A
  8
SLD-0
  6
CONTINUOUS
 62
     7
 10
339.6677538422
 20
-139.9412050223
 30
0.0
 11
340.9263733502
 21
-139.9412050223
 31
0.0
  0
LINE
  5
29B
  8
SLD-0
  6
CONTINUOUS
 62
     7
 10
340.9263733502
 20
-140.2411951994
 30
0.0
 11
340.9263733502
 21
-139.9412050223
 31
0.0
  0
LINE
  5
29C
  8
SLD-0
  6
CONTINUOUS
 62
     7
 10
340.9263733502
 20
-140.7911970591
 30
0.0
 11
340.9263733502
 21
-140.2411951994
 31
0.0
  0
LINE
  5
29D
  8
SLD-0
  6
CONTINUOUS
 62
     7
 10
336.926373393
 20
-140.7911970591
 30
0.0
 11
337.1527427535
 21
-140.7911970591
 31
0.0
  0
LINE
  5
29E
  8
SLD-0
  6
CONTINUOUS
 62
     7
 10
339.6046738799
 20
-140.7911970591
 30
0.0
 11
340.9263733502
 21
-140.7911970591
 31
0.0
  0
LINE
  5
29F
  8
SLD-0
  6
CONTINUOUS
 62
     7
 10
336.926373393
 20
-140.2411951994
 30
0.0
 11
336.926373393
 21
-140.7911970591
 31
0.0
  0
LINE
  5
2A0
  8
SLD-0
  6
CONTINUOUS
 62
     7
 10
342.5233964536
 20
-144.9412002539
 30
0.0
 11
346.0513732589
 21
-144.9412002539
 31
0.0
  0
LINE
  5
2A1
  8
SLD-0
  6
CONTINUOUS
 62
     7
 10
346.0513732589
 20
-146.941204307
 30
0.0
 11
346.0513732589
 21
-144.9412002539
 31
0.0
  0
LINE
  5
2A2
  8
SLD-0
  6
CONTINUOUS
 62
     7
 10
333.8513734943
 20
-144.9412002539
 30
0.0
 11
335.9763731442
 21
-144.9412002539
 31
0.0
  0
LINE
  5
2A3
  8
SLD-0
  6
CONTINUOUS
 62
     7
 10
333.8513734943
 20
-146.941204307
 30
0.0
 11
333.8513734943
 21
-144.9412002539
 31
0.0
  0
LINE
  5
2A4
  8
SLD-0
  6
CONTINUOUS
 62
     7
 10
340.9263733502
 20
-139.9412050223
 30
0.0
 11
340.9288344865
 21
-139.9412050223
 31
0.0
  0
LINE
  5
2A5
  8
SLD-0
  6
CONTINUOUS
 62
     7
 10
340.9454440425
 20
-140.7911970591
 30
0.0
 11
340.9263733502
 21
-140.7911970591
 31
0.0
  0
LINE
  5
2A6
  8
SLD-0
  6
CONTINUOUS
 62
     7
 10
336.926373393
 20
-140.7911970591
 30
0.0
 11
336.926373393
 21
-141.6412188983
 31
0.0
  0
LINE
  5
2A7
  8
SLD-0
  6
CONTINUOUS
 62
     7
 10
340.9263733502
 20
-141.6412188983
 30
0.0
 11
340.9263733502
 21
-140.7911970591
 31
0.0
  0
LINE
  5
2A8
  8
SLD-0
  6
CONTINUOUS
 62
     7
 10
336.926373393
 20
-141.6412188983
 30
0.0
 11
337.1462933446
 21
-141.6412188983
 31
0.0
  0
LINE
  5
2A9
  8
SLD-0
  6
CONTINUOUS
 62
     7
 10
339.5415939467
 20
-141.6412188983
 30
0.0
 11
340.9263733502
 21
-141.6412188983
 31
0.0
  0
LINE
  5
2AA
  8
SLD-0
  6
CONTINUOUS
 62
     7
 10
335.9763731442
 20
-140.2411951994
 30
0.0
 11
336.926373393
 21
-140.2411951994
 31
0.0
  0
LINE
  5
2AB
  8
SLD-0
  6
CONTINUOUS
 62
     7
 10
336.926373393
 20
-139.9412050223
 30
0.0
 11
335.9763731442
 21
-139.9412050223
 31
0.0
  0
LINE
  5
2AC
  8
SLD-0
  6
CONTINUOUS
 62
     7
 10
335.9763731442
 20
-140.2411951994
 30
0.0
 11
335.9763731442
 21
-139.9412050223
 31
0.0
  0
LINE
  5
2AD
  8
SLD-0
  6
CONTINUOUS
 62
     7
 10
336.926373393
 20
-140.7911970591
 30
0.0
 11
335.9763731442
 21
-140.7911970591
 31
0.0
  0
LINE
  5
2AE
  8
SLD-0
  6
CONTINUOUS
 62
     7
 10
335.9763731442
 20
-140.7911970591
 30
0.0
 11
335.9763731442
 21
-140.2411951994
 31
0.0
  0
LINE
  5
2AF
  8
SLD-0
  6
CONTINUOUS
 62
     7
 10
341.0098589684
 20
-144.0912082171
 30
0.0
 11
340.9263733502
 21
-144.0912082171
 31
0.0
  0
LINE
  5
2B0
  8
SLD-0
  6
CONTINUOUS
 62
     7
 10
336.926373393
 20
-144.0912082171
 30
0.0
 11
335.9763731442
 21
-144.0912082171
 31
0.0
  0
LINE
  5
2B1
  8
SLD-0
  6
CONTINUOUS
 62
     7
 10
335.9763731442
 20
-144.0912082171
 30
0.0
 11
335.9763731442
 21
-140.7911970591
 31
0.0
  0
LINE
  5
2B2
  8
SLD-0
  6
CONTINUOUS
 62
     7
 10
336.926373393
 20
-141.6412188983
 30
0.0
 11
336.926373393
 21
-142.4912109351
 31
0.0
  0
LINE
  5
2B3
  8
SLD-0
  6
CONTINUOUS
 62
     7
 10
340.9263733502
 20
-142.4912109351
 30
0.0
 11
339.4785139844
 21
-142.4912109351
 31
0.0
  0
LINE
  5
2B4
  8
SLD-0
  6
CONTINUOUS
 62
     7
 10
337.139843703
 20
-142.4912109351
 30
0.0
 11
336.926373393
 21
-142.4912109351
 31
0.0
  0
LINE
  5
2B5
  8
SLD-0
  6
CONTINUOUS
 62
     7
 10
340.9263733502
 20
-142.4912109351
 30
0.0
 11
340.9263733502
 21
-141.6412188983
 31
0.0
  0
LINE
  5
2B6
  8
SLD-0
  6
CONTINUOUS
 62
     7
 10
336.926373393
 20
-142.4912109351
 30
0.0
 11
336.926373393
 21
-143.3412029719
 31
0.0
  0
LINE
  5
2B7
  8
SLD-0
  6
CONTINUOUS
 62
     7
 10
340.9263733502
 20
-143.3412029719
 30
0.0
 11
339.4154340222
 21
-143.3412029719
 31
0.0
  0
LINE
  5
2B8
  8
SLD-0
  6
CONTINUOUS
 62
     7
 10
337.1333942942
 20
-143.3412029719
 30
0.0
 11
336.926373393
 21
-143.3412029719
 31
0.0
  0
LINE
  5
2B9
  8
SLD-0
  6
CONTINUOUS
 62
     7
 10
340.9263733502
 20
-143.3412029719
 30
0.0
 11
340.9263733502
 21
-142.4912109351
 31
0.0
  0
LINE
  5
2BA
  8
SLD-0
  6
CONTINUOUS
 62
     7
 10
333.8513734943
 20
-139.8171379542
 30
0.0
 11
337.1601334966
 21
-139.8171379542
 31
0.0
  0
LINE
  5
2BB
  8
SLD-0
  6
CONTINUOUS
 62
     7
 10
339.6769600822
 20
-139.8171379542
 30
0.0
 11
340.9264104285
 21
-139.8171379542
 31
0.0
  0
LINE
  5
2BC
  8
SLD-0
  6
CONTINUOUS
 62
     7
 10
342.4247877865
 20
-139.8171379542
 30
0.0
 11
346.0513732589
 21
-139.8171379542
 31
0.0
  0
LINE
  5
2BD
  8
SLD-0
  6
CONTINUOUS
 62
     7
 10
333.8513734943
 20
-139.8171379542
 30
0.0
 11
333.8513734943
 21
-138.9348998045
 31
0.0
  0
LINE
  5
2BE
  8
SLD-0
  6
CONTINUOUS
 62
     7
 10
346.0513732589
 20
-139.8171379542
 30
0.0
 11
346.0513732589
 21
-138.9348998045
 31
0.0
  0
LINE
  5
2BF
  8
SLD-0
  6
CONTINUOUS
 62
     7
 10
336.926373393
 20
-143.3412029719
 30
0.0
 11
336.926373393
 21
-144.0912082171
 31
0.0
  0
LINE
  5
2C0
  8
SLD-0
  6
CONTINUOUS
 62
     7
 10
340.9263733502
 20
-143.3412029719
 30
0.0
 11
340.9263733502
 21
-144.0912082171
 31
0.0
  0
LINE
  5
2C1
  8
SLD-0
  6
CONTINUOUS
 62
     7
 10
340.9263733502
 20
-144.0912082171
 30
0.0
 11
339.3597752747
 21
-144.0912082171
 31
0.0
  0
LINE
  5
2C2
  8
SLD-0
  6
CONTINUOUS
 62
     7
 10
337.1277036804
 20
-144.0912082171
 30
0.0
 11
336.926373393
 21
-144.0912082171
 31
0.0
  0
LINE
  5
2C3
  8
SLD-0
  6
CONTINUOUS
 62
     7
 10
335.9763731442
 20
-144.5912017798
 30
0.0
 11
335.9763731442
 21
-144.0912082171
 31
0.0
  0
LINE
  5
2C4
  8
SLD-0
  6
CONTINUOUS
 62
     7
 10
333.8513734943
 20
-144.9412002539
 30
0.0
 11
333.8513734943
 21
-139.8171379542
 31
0.0
  0
LINE
  5
2C5
  8
SLD-0
  6
CONTINUOUS
 62
     7
 10
346.0513732589
 20
-144.9412002539
 30
0.0
 11
346.0513732589
 21
-139.8171379542
 31
0.0
  0
LINE
  5
2C6
  8
SLD-0
  6
CONTINUOUS
 62
     7
 10
340.4513734004
 20
-173.9412143206
 30
0.0
 11
339.6513733624
 21
-173.9412143206
 31
0.0
  0
LINE
  5
2C7
  8
SLD-0
  6
CONTINUOUS
 62
     8
 10
322.7513727925
 20
124.7587957689
 30
0.0
 11
322.7513727925
 21
118.9670202011
 31
0.0
  0
LINE
  5
2C8
  8
SLD-0
  6
CONTINUOUS
 62
     8
 10
322.7513727925
 20
118.6134659374
 30
0.0
 11
322.7513727925
 21
117.7587951953
 31
0.0
  0
LINE
  5
2C9
  8
SLD-0
  6
CONTINUOUS
 62
     8
 10
335.4513735703
 20
-118.8411905741
 30
0.0
 11
344.4513731829
 21
-118.8411905741
 31
0.0
  0
LINE
  5
2CA
  8
SLD-0
  6
CONTINUOUS
 62
     8
 10
343.4513733766
 20
-119.8412045455
 30
0.0
 11
336.4513733766
 21
-119.8412045455
 31
0.0
  0
LINE
  5
2CB
  8
SLD-0
  6
CONTINUOUS
 62
     8
 10
346.0513732589
 20
-135.1761116957
 30
0.0
 11
342.3354744173
 21
-135.1761116957
 31
0.0
  0
LINE
  5
2CC
  8
SLD-0
  6
CONTINUOUS
 62
     8
 10
340.8357217286
 20
-135.1761116957
 30
0.0
 11
340.021380167
 21
-135.1761116957
 31
0.0
  0
LINE
  5
2CD
  8
SLD-0
  6
CONTINUOUS
 62
     8
 10
337.1953482001
 20
-135.1761116957
 30
0.0
 11
333.8513734943
 21
-135.1761116957
 31
0.0
  0
LINE
  5
2CE
  8
SLD-0
  6
CONTINUOUS
 62
     8
 10
333.8513734943
 20
-138.9348998045
 30
0.0
 11
337.1668278433
 21
-138.9348998045
 31
0.0
  0
LINE
  5
2CF
  8
SLD-0
  6
CONTINUOUS
 62
     8
 10
339.7424335435
 20
-138.9348998045
 30
0.0
 11
340.9091707163
 21
-138.9348998045
 31
0.0
  0
LINE
  5
2D0
  8
SLD-0
  6
CONTINUOUS
 62
     8
 10
342.4078095432
 20
-138.9348998045
 30
0.0
 11
346.0513732589
 21
-138.9348998045
 31
0.0
  0
LINE
  5
2D1
  8
SLD-0
  6
CONTINUOUS
 62
     8
 10
346.0513732589
 20
-130.9412016844
 30
0.0
 11
343.4513734847
 21
-130.9412016844
 31
0.0
  0
LINE
  5
2D2
  8
SLD-0
  6
CONTINUOUS
 62
     8
 10
336.4513732686
 20
-130.9412016844
 30
0.0
 11
333.8513734943
 21
-130.9412016844
 31
0.0
  0
LINE
  5
2D3
  8
SLD-0
  6
CONTINUOUS
 62
     8
 10
336.926373393
 20
-140.2411951994
 30
0.0
 11
337.1569160099
 21
-140.2411951994
 31
0.0
  0
LINE
  5
2D4
  8
SLD-0
  6
CONTINUOUS
 62
     8
 10
339.6454903432
 20
-140.2411951994
 30
0.0
 11
340.9263733502
 21
-140.2411951994
 31
0.0
  0
LINE
  5
2D5
  8
SLD-0
  6
CONTINUOUS
 62
     8
 10
340.9263733502
 20
-140.2411951994
 30
0.0
 11
340.9346966964
 21
-140.2411951994
 31
0.0
  0
LINE
  5
2D6
  8
SLD-0
  6
CONTINUOUS
 62
     7
 10
246.3174708742
 20
222.556847343
 30
0.0
 11
244.3174707792
 21
222.556847343
 31
0.0
  0
LINE
  5
2D7
  8
SLD-0
  6
CONTINUOUS
 62
     7
 10
244.3174707792
 20
200.5568474622
 30
0.0
 11
246.3174708742
 21
200.5568474622
 31
0.0
  0
LINE
  5
2D8
  8
SLD-0
  6
CONTINUOUS
 62
     7
 10
264.3174703322
 20
214.5568474287
 30
0.0
 11
246.3174708742
 21
214.5568474287
 31
0.0
  0
LINE
  5
2D9
  8
SLD-0
  6
CONTINUOUS
 62
     7
 10
246.3174708742
 20
208.5568473765
 30
0.0
 11
264.3174703322
 21
208.5568473765
 31
0.0
  0
LINE
  5
2DA
  8
SLD-0
  6
CONTINUOUS
 62
     7
 10
175.3174707792
 20
230.0388982102
 30
0.0
 11
174.3174704812
 21
228.3068478198
 31
0.0
  0
LINE
  5
2DB
  8
SLD-0
  6
CONTINUOUS
 62
     7
 10
174.3174704812
 20
194.8068469854
 30
0.0
 11
175.3174707792
 21
193.074796595
 31
0.0
  0
LINE
  5
2DC
  8
SLD-0
  6
CONTINUOUS
 62
     7
 10
244.3174707792
 20
228.5274093406
 30
0.0
 11
234.1174704112
 21
228.5274093406
 31
0.0
  0
LINE
  5
2DD
  8
SLD-0
  6
CONTINUOUS
 62
     7
 10
234.1174704112
 20
228.5274093406
 30
0.0
 11
234.1174704112
 21
232.5568471195
 31
0.0
  0
LINE
  5
2DE
  8
SLD-0
  6
CONTINUOUS
 62
     7
 10
244.3174707792
 20
232.5568471195
 30
0.0
 11
234.1174704112
 21
232.5568471195
 31
0.0
  0
LINE
  5
2DF
  8
SLD-0
  6
CONTINUOUS
 62
     7
 10
244.3174707792
 20
228.5274093406
 30
0.0
 11
244.3174707792
 21
232.5568471195
 31
0.0
  0
LINE
  5
2E0
  8
SLD-0
  6
CONTINUOUS
 62
     7
 10
234.1174704112
 20
194.5862855852
 30
0.0
 11
244.3174707792
 21
194.5862855852
 31
0.0
  0
LINE
  5
2E1
  8
SLD-0
  6
CONTINUOUS
 62
     7
 10
244.3174707792
 20
194.5862855852
 30
0.0
 11
244.3174707792
 21
228.5274093406
 31
0.0
  0
LINE
  5
2E2
  8
SLD-0
  6
CONTINUOUS
 62
     7
 10
234.1174704112
 20
194.5862855852
 30
0.0
 11
234.1174704112
 21
228.5274093406
 31
0.0
  0
LINE
  5
2E3
  8
SLD-0
  6
CONTINUOUS
 62
     7
 10
244.3174707792
 20
190.5568476856
 30
0.0
 11
234.1174704112
 21
190.5568476856
 31
0.0
  0
LINE
  5
2E4
  8
SLD-0
  6
CONTINUOUS
 62
     7
 10
244.3174707792
 20
190.5568476856
 30
0.0
 11
244.3174707792
 21
194.5862855852
 31
0.0
  0
LINE
  5
2E5
  8
SLD-0
  6
CONTINUOUS
 62
     7
 10
234.1174704112
 20
190.5568476856
 30
0.0
 11
234.1174704112
 21
194.5862855852
 31
0.0
  0
LINE
  5
2E6
  8
SLD-0
  6
CONTINUOUS
 62
     7
 10
246.3174708742
 20
222.556847343
 30
0.0
 11
246.3174708742
 21
200.5568474622
 31
0.0
  0
LINE
  5
2E7
  8
SLD-0
  6
CONTINUOUS
 62
     7
 10
264.3174703322
 20
214.5568474287
 30
0.0
 11
264.3174703322
 21
208.5568473765
 31
0.0
  0
LINE
  5
2E8
  8
SLD-0
  6
CONTINUOUS
 62
     7
 10
234.1174704112
 20
228.5274093406
 30
0.0
 11
212.117469599
 21
228.5274093406
 31
0.0
  0
LINE
  5
2E9
  8
SLD-0
  6
CONTINUOUS
 62
     7
 10
212.117469599
 20
228.5274093406
 30
0.0
 11
212.117469599
 21
232.5568471195
 31
0.0
  0
LINE
  5
2EA
  8
SLD-0
  6
CONTINUOUS
 62
     7
 10
234.1174704112
 20
232.5568471195
 30
0.0
 11
212.117469599
 21
232.5568471195
 31
0.0
  0
LINE
  5
2EB
  8
SLD-0
  6
CONTINUOUS
 62
     7
 10
212.117469599
 20
194.5862855852
 30
0.0
 11
234.1174704112
 21
194.5862855852
 31
0.0
  0
LINE
  5
2EC
  8
SLD-0
  6
CONTINUOUS
 62
     7
 10
212.117469599
 20
194.5862855852
 30
0.0
 11
212.117469599
 21
228.5274093406
 31
0.0
  0
LINE
  5
2ED
  8
SLD-0
  6
CONTINUOUS
 62
     7
 10
234.1174704112
 20
190.5568476856
 30
0.0
 11
212.117469599
 21
190.5568476856
 31
0.0
  0
LINE
  5
2EE
  8
SLD-0
  6
CONTINUOUS
 62
     7
 10
212.117469599
 20
190.5568476856
 30
0.0
 11
212.117469599
 21
194.5862855852
 31
0.0
  0
LINE
  5
2EF
  8
SLD-0
  6
CONTINUOUS
 62
     7
 10
212.117469599
 20
228.5274093406
 30
0.0
 11
192.1174700461
 21
228.5274093406
 31
0.0
  0
LINE
  5
2F0
  8
SLD-0
  6
CONTINUOUS
 62
     7
 10
212.117469599
 20
232.5568471195
 30
0.0
 11
192.1174700461
 21
232.5568471195
 31
0.0
  0
LINE
  5
2F1
  8
SLD-0
  6
CONTINUOUS
 62
     7
 10
192.1174700461
 20
228.5274093406
 30
0.0
 11
192.1174700461
 21
232.5568471195
 31
0.0
  0
LINE
  5
2F2
  8
SLD-0
  6
CONTINUOUS
 62
     7
 10
192.1174700461
 20
194.5862855852
 30
0.0
 11
212.117469599
 21
194.5862855852
 31
0.0
  0
LINE
  5
2F3
  8
SLD-0
  6
CONTINUOUS
 62
     7
 10
192.1174700461
 20
194.5862855852
 30
0.0
 11
192.1174700461
 21
228.5274093406
 31
0.0
  0
LINE
  5
2F4
  8
SLD-0
  6
CONTINUOUS
 62
     7
 10
212.117469599
 20
190.5568476856
 30
0.0
 11
192.1174700461
 21
190.5568476856
 31
0.0
  0
LINE
  5
2F5
  8
SLD-0
  6
CONTINUOUS
 62
     7
 10
192.1174700461
 20
190.5568476856
 30
0.0
 11
192.1174700461
 21
194.5862855852
 31
0.0
  0
LINE
  5
2F6
  8
SLD-0
  6
CONTINUOUS
 62
     7
 10
177.3086692897
 20
232.5568471195
 30
0.0
 11
175.8245614839
 21
232.5568474026
 31
0.0
  0
LINE
  5
2F7
  8
SLD-0
  6
CONTINUOUS
 62
     7
 10
177.3086692897
 20
232.5568471195
 30
0.0
 11
177.3086692897
 21
228.5274093406
 31
0.0
  0
LINE
  5
2F8
  8
SLD-0
  6
CONTINUOUS
 62
     7
 10
176.6398667629
 20
198.9568476289
 30
0.0
 11
175.6100583422
 21
198.9568476289
 31
0.0
  0
LINE
  5
2F9
  8
SLD-0
  6
CONTINUOUS
 62
     7
 10
176.6398652285
 20
190.5568474026
 30
0.0
 11
175.8245614839
 21
190.5568474026
 31
0.0
  0
LINE
  5
2FA
  8
SLD-0
  6
CONTINUOUS
 62
     7
 10
175.3174725078
 20
211.5568474026
 30
0.0
 11
175.3174707792
 21
193.074796595
 31
0.0
  0
LINE
  5
2FB
  8
SLD-0
  6
CONTINUOUS
 62
     7
 10
175.3174707792
 20
230.0388982102
 30
0.0
 11
175.3174725078
 21
211.5568474026
 31
0.0
  0
LINE
  5
2FC
  8
SLD-0
  6
CONTINUOUS
 62
     7
 10
192.1174700461
 20
228.5274093406
 30
0.0
 11
177.3086692897
 21
228.5274093406
 31
0.0
  0
LINE
  5
2FD
  8
SLD-0
  6
CONTINUOUS
 62
     7
 10
177.3086692897
 20
232.5568471195
 30
0.0
 11
192.1174700461
 21
232.5568471195
 31
0.0
  0
LINE
  5
2FE
  8
SLD-0
  6
CONTINUOUS
 62
     7
 10
192.1174700461
 20
198.9568476289
 30
0.0
 11
176.6398667629
 21
198.9568476289
 31
0.0
  0
LINE
  5
2FF
  8
SLD-0
  6
CONTINUOUS
 62
     7
 10
192.1174700461
 20
198.9568476289
 30
0.0
 11
192.1174700461
 21
228.5274093406
 31
0.0
  0
LINE
  5
300
  8
SLD-0
  6
CONTINUOUS
 62
     7
 10
174.3174704812
 20
211.5568474026
 30
0.0
 11
174.3174704812
 21
194.8068469854
 31
0.0
  0
LINE
  5
301
  8
SLD-0
  6
CONTINUOUS
 62
     7
 10
174.3174704812
 20
228.3068478198
 30
0.0
 11
174.3174704812
 21
211.5568474026
 31
0.0
  0
LINE
  5
302
  8
SLD-0
  6
CONTINUOUS
 62
     7
 10
192.1174715805
 20
196.0568478987
 30
0.0
 11
175.6100583422
 21
196.0568478987
 31
0.0
  0
LINE
  5
303
  8
SLD-0
  6
CONTINUOUS
 62
     7
 10
192.1174700461
 20
190.5568476856
 30
0.0
 11
176.6398652285
 21
190.5568474026
 31
0.0
  0
LINE
  5
304
  8
SLD-0
  6
CONTINUOUS
 62
     7
 10
174.3174704812
 20
217.6568472849
 30
0.0
 11
174.1174670957
 21
217.6568472849
 31
0.0
  0
LINE
  5
305
  8
SLD-0
  6
CONTINUOUS
 62
     7
 10
174.1174670957
 20
205.4568475203
 30
0.0
 11
174.1174670957
 21
217.6568472849
 31
0.0
  0
LINE
  5
306
  8
SLD-0
  6
CONTINUOUS
 62
     7
 10
174.3174704812
 20
205.4568475203
 30
0.0
 11
174.1174670957
 21
205.4568475203
 31
0.0
  0
LINE
  5
307
  8
SLD-0
  6
CONTINUOUS
 62
     7
 10
173.9760476253
 20
207.5818471701
 30
0.0
 11
173.9760476253
 21
213.5818474551
 31
0.0
  0
LINE
  5
308
  8
SLD-0
  6
CONTINUOUS
 62
     7
 10
174.1174670957
 20
213.5818474551
 30
0.0
 11
173.9760476253
 21
213.5818474551
 31
0.0
  0
LINE
  5
309
  8
SLD-0
  6
CONTINUOUS
 62
     7
 10
173.9760476253
 20
207.5818471701
 30
0.0
 11
174.1174670957
 21
207.5818471701
 31
0.0
  0
LINE
  5
30A
  8
SLD-0
  6
CONTINUOUS
 62
     7
 10
173.9174711607
 20
205.4568475203
 30
0.0
 11
173.9174711607
 21
217.6568472849
 31
0.0
  0
LINE
  5
30B
  8
SLD-0
  6
CONTINUOUS
 62
     7
 10
174.1174670957
 20
217.6568472849
 30
0.0
 11
173.9174711607
 21
217.6568472849
 31
0.0
  0
LINE
  5
30C
  8
SLD-0
  6
CONTINUOUS
 62
     7
 10
174.1174670957
 20
205.4568475203
 30
0.0
 11
173.9174711607
 21
205.4568475203
 31
0.0
  0
LINE
  5
30D
  8
SLD-0
  6
CONTINUOUS
 62
     7
 10
246.3174708742
 20
280.5427384339
 30
0.0
 11
244.3174707792
 21
280.5427384339
 31
0.0
  0
LINE
  5
30E
  8
SLD-0
  6
CONTINUOUS
 62
     7
 10
244.3174707792
 20
258.5427385531
 30
0.0
 11
246.3174708742
 21
258.5427385531
 31
0.0
  0
LINE
  5
30F
  8
SLD-0
  6
CONTINUOUS
 62
     7
 10
264.3174703322
 20
272.5427385196
 30
0.0
 11
246.3174708742
 21
272.5427385196
 31
0.0
  0
LINE
  5
310
  8
SLD-0
  6
CONTINUOUS
 62
     7
 10
246.3174708742
 20
266.5427384674
 30
0.0
 11
264.3174703322
 21
266.5427384674
 31
0.0
  0
LINE
  5
311
  8
SLD-0
  6
CONTINUOUS
 62
     7
 10
207.0174689494
 20
303.5427403413
 30
0.0
 11
207.0174689494
 21
510.9427419267
 31
0.0
  0
LINE
  5
312
  8
SLD-0
  6
CONTINUOUS
 62
     7
 10
199.0174713633
 20
510.9427419267
 30
0.0
 11
199.0174713633
 21
303.5427403413
 31
0.0
  0
LINE
  5
313
  8
SLD-0
  6
CONTINUOUS
 62
     7
 10
175.3174707792
 20
288.0247893011
 30
0.0
 11
174.3174704812
 21
286.2927389107
 31
0.0
  0
LINE
  5
314
  8
SLD-0
  6
CONTINUOUS
 62
     7
 10
174.3174704812
 20
252.7927380763
 30
0.0
 11
175.3174707792
 21
251.0606876859
 31
0.0
  0
LINE
  5
315
  8
SLD-0
  6
CONTINUOUS
 62
     7
 10
186.3174724482
 20
303.5427403413
 30
0.0
 11
186.3174724482
 21
547.0427420698
 31
0.0
  0
LINE
  5
316
  8
SLD-0
  6
CONTINUOUS
 62
     7
 10
180.3174677394
 20
547.0427420698
 30
0.0
 11
180.3174677394
 21
303.5427403413
 31
0.0
  0
LINE
  5
317
  8
SLD-0
  6
CONTINUOUS
 62
     7
 10
197.7674725554
 20
301.5427400134
 30
0.0
 11
194.0174724064
 21
301.5427400134
 31
0.0
  0
LINE
  5
318
  8
SLD-0
  6
CONTINUOUS
 62
     7
 10
210.217470964
 20
301.5427400134
 30
0.0
 11
208.202390661
 21
301.5427400134
 31
0.0
  0
LINE
  5
319
  8
SLD-0
  6
CONTINUOUS
 62
     7
 10
222.5302985958
 20
295.5364805422
 30
0.0
 11
210.2500896058
 21
301.5268255733
 31
0.0
  0
LINE
  5
31A
  8
SLD-0
  6
CONTINUOUS
 62
     7
 10
208.2674714826
 20
301.5371185504
 30
0.0
 11
208.2674714826
 21
303.5427403413
 31
0.0
  0
LINE
  5
31B
  8
SLD-0
  6
CONTINUOUS
 62
     7
 10
197.7674725554
 20
303.5427403413
 30
0.0
 11
197.7674725554
 21
301.5427400134
 31
0.0
  0
LINE
  5
31C
  8
SLD-0
  6
CONTINUOUS
 62
     7
 10
207.5174699626
 20
510.9427419267
 30
0.0
 11
207.5174699626
 21
535.4427245222
 31
0.0
  0
LINE
  5
31D
  8
SLD-0
  6
CONTINUOUS
 62
     7
 10
198.5174703501
 20
535.4427245222
 30
0.0
 11
198.5174703501
 21
510.9427419267
 31
0.0
  0
LINE
  5
31E
  8
SLD-0
  6
CONTINUOUS
 62
     7
 10
206.5174707792
 20
536.4427384935
 30
0.0
 11
206.5174716614
 21
550.9427335821
 31
0.0
  0
LINE
  5
31F
  8
SLD-0
  6
CONTINUOUS
 62
     7
 10
199.5174723766
 20
550.9427335821
 30
0.0
 11
199.5174707792
 21
536.4427384935
 31
0.0
  0
LINE
  5
320
  8
SLD-0
  6
CONTINUOUS
 62
     7
 10
198.2118512593
 20
570.9427443109
 30
0.0
 11
199.4385595522
 21
562.4406781755
 31
0.0
  0
LINE
  5
321
  8
SLD-0
  6
CONTINUOUS
 62
     7
 10
199.4385595522
 20
562.4406781755
 30
0.0
 11
201.0919365189
 21
550.9427335821
 31
0.0
  0
LINE
  5
322
  8
SLD-0
  6
CONTINUOUS
 62
     7
 10
202.591865053
 20
550.9427335821
 30
0.0
 11
201.2208166621
 21
560.4448166452
 31
0.0
  0
LINE
  5
323
  8
SLD-0
  6
CONTINUOUS
 62
     7
 10
201.2208166621
 20
560.4448166452
 30
0.0
 11
199.7111800216
 21
570.9427443109
 31
0.0
  0
LINE
  5
324
  8
SLD-0
  6
CONTINUOUS
 62
     7
 10
204.9430410467
 20
550.9427335821
 30
0.0
 11
206.3100251458
 21
560.4448166452
 31
0.0
  0
LINE
  5
325
  8
SLD-0
  6
CONTINUOUS
 62
     7
 10
206.3100251458
 20
560.4448166452
 30
0.0
 11
207.8231933616
 21
570.9427443109
 31
0.0
  0
LINE
  5
326
  8
SLD-0
  6
CONTINUOUS
 62
     7
 10
206.3237342141
 20
570.9427443109
 30
0.0
 11
205.100501617
 21
562.4406781755
 31
0.0
  0
LINE
  5
327
  8
SLD-0
  6
CONTINUOUS
 62
     7
 10
205.100501617
 20
562.4406781755
 30
0.0
 11
203.4430417321
 21
550.9427335821
 31
0.0
  0
LINE
  5
328
  8
SLD-0
  6
CONTINUOUS
 62
     7
 10
198.1799702249
 20
570.9427443109
 30
0.0
 11
199.3073734544
 21
560.91634899
 31
0.0
  0
LINE
  5
329
  8
SLD-0
  6
CONTINUOUS
 62
     7
 10
199.3073734544
 20
560.91634899
 30
0.0
 11
199.615775337
 21
558.0685582719
 31
0.0
  0
LINE
  5
32A
  8
SLD-0
  6
CONTINUOUS
 62
     7
 10
199.615775337
 20
558.0685582719
 30
0.0
 11
200.3654937349
 21
550.9427335821
 31
0.0
  0
LINE
  5
32B
  8
SLD-0
  6
CONTINUOUS
 62
     7
 10
205.6695844136
 20
550.9427335821
 30
0.0
 11
206.7085455261
 21
560.4448166452
 31
0.0
  0
LINE
  5
32C
  8
SLD-0
  6
CONTINUOUS
 62
     7
 10
206.7085455261
 20
560.4448166452
 30
0.0
 11
207.8579130671
 21
570.9427443109
 31
0.0
  0
LINE
  5
32D
  8
SLD-0
  6
CONTINUOUS
 62
     7
 10
203.7653724752
 20
553.1787720285
 30
0.0
 11
203.7601011894
 21
560.4448166452
 31
0.0
  0
LINE
  5
32E
  8
SLD-0
  6
CONTINUOUS
 62
     7
 10
203.7601011894
 20
560.4448166452
 30
0.0
 11
203.7668290637
 21
570.9427443109
 31
0.0
  0
LINE
  5
32F
  8
SLD-0
  6
CONTINUOUS
 62
     7
 10
202.2682453595
 20
570.9427443109
 30
0.0
 11
202.2748465739
 21
562.4406781755
 31
0.0
  0
LINE
  5
330
  8
SLD-0
  6
CONTINUOUS
 62
     7
 10
202.2748465739
 20
562.4406781755
 30
0.0
 11
202.2692884407
 21
553.178354796
 31
0.0
  0
LINE
  5
331
  8
SLD-0
  6
CONTINUOUS
 62
     7
 10
178.3174711368
 20
301.5427400134
 30
0.0
 11
177.3174691103
 21
301.5427400134
 31
0.0
  0
LINE
  5
332
  8
SLD-0
  6
CONTINUOUS
 62
     7
 10
189.3174710772
 20
301.5427400134
 30
0.0
 11
188.2555733524
 21
301.5427400134
 31
0.0
  0
LINE
  5
333
  8
SLD-0
  6
CONTINUOUS
 62
     7
 10
188.3174690507
 20
301.5376475416
 30
0.0
 11
188.3174690507
 21
303.5427403413
 31
0.0
  0
LINE
  5
334
  8
SLD-0
  6
CONTINUOUS
 62
     7
 10
178.3174711368
 20
303.5427403413
 30
0.0
 11
178.3174711368
 21
301.5427400134
 31
0.0
  0
LINE
  5
335
  8
SLD-0
  6
CONTINUOUS
 62
     7
 10
234.1174728746
 20
290.5427382104
 30
0.0
 11
244.3174732426
 21
290.5427382104
 31
0.0
  0
LINE
  5
336
  8
SLD-0
  6
CONTINUOUS
 62
     7
 10
234.1174728746
 20
286.513300745
 30
0.0
 11
244.3174732426
 21
286.513300745
 31
0.0
  0
LINE
  5
337
  8
SLD-0
  6
CONTINUOUS
 62
     7
 10
234.1174728746
 20
286.513300745
 30
0.0
 11
234.1174728746
 21
290.5427382104
 31
0.0
  0
LINE
  5
338
  8
SLD-0
  6
CONTINUOUS
 62
     7
 10
244.3174732426
 20
286.513300745
 30
0.0
 11
244.3174732426
 21
290.5427382104
 31
0.0
  0
LINE
  5
339
  8
SLD-0
  6
CONTINUOUS
 62
     7
 10
244.3174732426
 20
252.5721771104
 30
0.0
 11
234.1174728746
 21
252.5721771104
 31
0.0
  0
LINE
  5
33A
  8
SLD-0
  6
CONTINUOUS
 62
     7
 10
234.1174728746
 20
252.5721771104
 30
0.0
 11
234.1174728746
 21
286.513300745
 31
0.0
  0
LINE
  5
33B
  8
SLD-0
  6
CONTINUOUS
 62
     7
 10
244.3174732426
 20
286.513300745
 30
0.0
 11
244.3174732426
 21
252.5721771104
 31
0.0
  0
LINE
  5
33C
  8
SLD-0
  6
CONTINUOUS
 62
     7
 10
244.3174732426
 20
248.5427387766
 30
0.0
 11
234.1174728746
 21
248.5427387766
 31
0.0
  0
LINE
  5
33D
  8
SLD-0
  6
CONTINUOUS
 62
     7
 10
234.1174728746
 20
248.5427387766
 30
0.0
 11
234.1174728746
 21
252.5721771104
 31
0.0
  0
LINE
  5
33E
  8
SLD-0
  6
CONTINUOUS
 62
     7
 10
244.3174732426
 20
248.5427387766
 30
0.0
 11
244.3174732426
 21
252.5721771104
 31
0.0
  0
LINE
  5
33F
  8
SLD-0
  6
CONTINUOUS
 62
     7
 10
246.3174708742
 20
269.5427384935
 30
0.0
 11
246.3174708742
 21
258.5427385531
 31
0.0
  0
LINE
  5
340
  8
SLD-0
  6
CONTINUOUS
 62
     7
 10
246.3174708742
 20
280.5427384339
 30
0.0
 11
246.3174708742
 21
269.5427384935
 31
0.0
  0
LINE
  5
341
  8
SLD-0
  6
CONTINUOUS
 62
     7
 10
264.3174703322
 20
269.5427384935
 30
0.0
 11
264.3174703322
 21
266.5427384674
 31
0.0
  0
LINE
  5
342
  8
SLD-0
  6
CONTINUOUS
 62
     7
 10
264.3174703322
 20
272.5427385196
 30
0.0
 11
264.3174703322
 21
269.5427384935
 31
0.0
  0
LINE
  5
343
  8
SLD-0
  6
CONTINUOUS
 62
     7
 10
212.1174720624
 20
290.5427382104
 30
0.0
 11
234.1174728746
 21
290.5427382104
 31
0.0
  0
LINE
  5
344
  8
SLD-0
  6
CONTINUOUS
 62
     7
 10
212.1174720624
 20
286.513300745
 30
0.0
 11
234.1174728746
 21
286.513300745
 31
0.0
  0
LINE
  5
345
  8
SLD-0
  6
CONTINUOUS
 62
     7
 10
212.1174720624
 20
286.513300745
 30
0.0
 11
212.1174720624
 21
290.5427382104
 31
0.0
  0
LINE
  5
346
  8
SLD-0
  6
CONTINUOUS
 62
     7
 10
234.1174728746
 20
252.5721771104
 30
0.0
 11
212.1174720624
 21
252.5721771104
 31
0.0
  0
LINE
  5
347
  8
SLD-0
  6
CONTINUOUS
 62
     7
 10
212.1174720624
 20
252.5721771104
 30
0.0
 11
212.1174720624
 21
286.513300745
 31
0.0
  0
LINE
  5
348
  8
SLD-0
  6
CONTINUOUS
 62
     7
 10
234.1174728746
 20
248.5427387766
 30
0.0
 11
212.1174720624
 21
248.5427387766
 31
0.0
  0
LINE
  5
349
  8
SLD-0
  6
CONTINUOUS
 62
     7
 10
212.1174720624
 20
248.5427387766
 30
0.0
 11
212.1174720624
 21
252.5721771104
 31
0.0
  0
LINE
  5
34A
  8
SLD-0
  6
CONTINUOUS
 62
     7
 10
192.1174725095
 20
290.5427382104
 30
0.0
 11
212.1174720624
 21
290.5427382104
 31
0.0
  0
LINE
  5
34B
  8
SLD-0
  6
CONTINUOUS
 62
     7
 10
192.1174725095
 20
286.513300745
 30
0.0
 11
212.1174720624
 21
286.513300745
 31
0.0
  0
LINE
  5
34C
  8
SLD-0
  6
CONTINUOUS
 62
     7
 10
192.1174725095
 20
286.513300745
 30
0.0
 11
192.1174725095
 21
290.5427382104
 31
0.0
  0
LINE
  5
34D
  8
SLD-0
  6
CONTINUOUS
 62
     7
 10
212.1174720624
 20
252.5721771104
 30
0.0
 11
192.1174725095
 21
252.5721771104
 31
0.0
  0
LINE
  5
34E
  8
SLD-0
  6
CONTINUOUS
 62
     7
 10
192.1174725095
 20
252.5721771104
 30
0.0
 11
192.1174725095
 21
286.513300745
 31
0.0
  0
LINE
  5
34F
  8
SLD-0
  6
CONTINUOUS
 62
     7
 10
212.1174720624
 20
248.5427387766
 30
0.0
 11
192.1174725095
 21
248.5427387766
 31
0.0
  0
LINE
  5
350
  8
SLD-0
  6
CONTINUOUS
 62
     7
 10
192.1174725095
 20
248.5427387766
 30
0.0
 11
192.1174725095
 21
252.5721771104
 31
0.0
  0
LINE
  5
351
  8
SLD-0
  6
CONTINUOUS
 62
     7
 10
176.6398677733
 20
282.1427386662
 30
0.0
 11
175.6100559738
 21
282.1427386662
 31
0.0
  0
LINE
  5
352
  8
SLD-0
  6
CONTINUOUS
 62
     7
 10
177.3086703213
 20
252.5721761791
 30
0.0
 11
177.308672438
 21
248.5427387766
 31
0.0
  0
LINE
  5
353
  8
SLD-0
  6
CONTINUOUS
 62
     7
 10
175.8245614839
 20
248.5427384935
 30
0.0
 11
177.308672438
 21
248.5427387766
 31
0.0
  0
LINE
  5
354
  8
SLD-0
  6
CONTINUOUS
 62
     7
 10
176.9057649277
 20
290.5427382104
 30
0.0
 11
175.8245614839
 21
290.5427384935
 31
0.0
  0
LINE
  5
355
  8
SLD-0
  6
CONTINUOUS
 62
     7
 10
176.3439721328
 20
287.7648701676
 30
0.0
 11
176.1274466422
 21
287.2663734889
 31
0.0
  0
LINE
  5
356
  8
SLD-0
  6
CONTINUOUS
 62
     7
 10
176.1274466422
 20
287.2663734889
 30
0.0
 11
175.9048381951
 21
286.5067383682
 31
0.0
  0
LINE
  5
357
  8
SLD-0
  6
CONTINUOUS
 62
     7
 10
175.9048381951
 20
286.5067383682
 30
0.0
 11
175.7007891443
 21
285.5680695212
 31
0.0
  0
LINE
  5
358
  8
SLD-0
  6
CONTINUOUS
 62
     7
 10
175.7007891443
 20
285.5680695212
 30
0.0
 11
175.541532984
 21
284.5707217639
 31
0.0
  0
LINE
  5
359
  8
SLD-0
  6
CONTINUOUS
 62
     7
 10
175.541532984
 20
284.5707217639
 30
0.0
 11
175.4456961658
 21
283.6422136461
 31
0.0
  0
LINE
  5
35A
  8
SLD-0
  6
CONTINUOUS
 62
     7
 10
175.4456961658
 20
283.6422136461
 30
0.0
 11
175.421124151
 21
282.8869408404
 31
0.0
  0
LINE
  5
35B
  8
SLD-0
  6
CONTINUOUS
 62
     7
 10
175.421124151
 20
282.8869408404
 30
0.0
 11
175.4669228699
 21
282.3754519632
 31
0.0
  0
LINE
  5
35C
  8
SLD-0
  6
CONTINUOUS
 62
     7
 10
175.4669228699
 20
282.3754519632
 30
0.0
 11
175.5769083407
 21
282.1509287169
 31
0.0
  0
LINE
  5
35D
  8
SLD-0
  6
CONTINUOUS
 62
     7
 10
175.5769083407
 20
282.1509287169
 30
0.0
 11
175.6100559738
 21
282.1427386662
 31
0.0
  0
LINE
  5
35E
  8
SLD-0
  6
CONTINUOUS
 62
     7
 10
175.3174707792
 20
288.0247893011
 30
0.0
 11
175.3174707792
 21
251.0606876859
 31
0.0
  0
LINE
  5
35F
  8
SLD-0
  6
CONTINUOUS
 62
     7
 10
177.3086703213
 20
252.5721761791
 30
0.0
 11
192.1174725095
 21
252.5721771104
 31
0.0
  0
LINE
  5
360
  8
SLD-0
  6
CONTINUOUS
 62
     7
 10
192.1174725095
 20
282.1427386662
 30
0.0
 11
176.6398677733
 21
282.1427386662
 31
0.0
  0
LINE
  5
361
  8
SLD-0
  6
CONTINUOUS
 62
     7
 10
192.1174725095
 20
282.1427386662
 30
0.0
 11
192.1174725095
 21
252.5721771104
 31
0.0
  0
LINE
  5
362
  8
SLD-0
  6
CONTINUOUS
 62
     7
 10
192.1174725095
 20
248.5427387766
 30
0.0
 11
177.308672438
 21
248.5427387766
 31
0.0
  0
LINE
  5
363
  8
SLD-0
  6
CONTINUOUS
 62
     7
 10
174.3174704812
 20
286.2927389107
 30
0.0
 11
174.3174704812
 21
252.7927380763
 31
0.0
  0
LINE
  5
364
  8
SLD-0
  6
CONTINUOUS
 62
     7
 10
192.1174692121
 20
287.7648694849
 30
0.0
 11
176.3439721328
 21
287.7648701676
 31
0.0
  0
LINE
  5
365
  8
SLD-0
  6
CONTINUOUS
 62
     7
 10
192.1174725095
 20
290.5427382104
 30
0.0
 11
176.9057649277
 21
290.5427382104
 31
0.0
  0
LINE
  5
366
  8
SLD-0
  6
CONTINUOUS
 62
     7
 10
210.217470964
 20
300.004264038
 30
0.0
 11
194.0174724064
 21
300.004264038
 31
0.0
  0
LINE
  5
367
  8
SLD-0
  6
CONTINUOUS
 62
     7
 10
194.0174724064
 20
300.004264038
 30
0.0
 11
194.0174724064
 21
301.5427400134
 31
0.0
  0
LINE
  5
368
  8
SLD-0
  6
CONTINUOUS
 62
     7
 10
210.217470964
 20
301.5427400134
 30
0.0
 11
210.217470964
 21
300.004264038
 31
0.0
  0
LINE
  5
369
  8
SLD-0
  6
CONTINUOUS
 62
     7
 10
197.7674725554
 20
301.5427400134
 30
0.0
 11
198.0621020399
 21
301.5176762603
 31
0.0
  0
LINE
  5
36A
  8
SLD-0
  6
CONTINUOUS
 62
     7
 10
198.0621020399
 20
301.5176762603
 30
0.0
 11
198.9121983848
 21
301.4534299038
 31
0.0
  0
LINE
  5
36B
  8
SLD-0
  6
CONTINUOUS
 62
     7
 10
198.9121983848
 20
301.4534299038
 30
0.0
 11
200.2256947658
 21
301.3777729831
 31
0.0
  0
LINE
  5
36C
  8
SLD-0
  6
CONTINUOUS
 62
     7
 10
200.2256947658
 20
301.3777729831
 30
0.0
 11
201.8570329152
 21
301.3238717578
 31
0.0
  0
LINE
  5
36D
  8
SLD-0
  6
CONTINUOUS
 62
     7
 10
201.8570329152
 20
301.3238717578
 30
0.0
 11
203.6157275639
 21
301.3156053386
 31
0.0
  0
LINE
  5
36E
  8
SLD-0
  6
CONTINUOUS
 62
     7
 10
203.6157275639
 20
301.3156053386
 30
0.0
 11
205.3022707901
 21
301.356263157
 31
0.0
  0
LINE
  5
36F
  8
SLD-0
  6
CONTINUOUS
 62
     7
 10
205.3022707901
 20
301.356263157
 30
0.0
 11
206.7342500291
 21
301.4280606769
 31
0.0
  0
LINE
  5
370
  8
SLD-0
  6
CONTINUOUS
 62
     7
 10
206.7342500291
 20
301.4280606769
 30
0.0
 11
207.7523048125
 21
301.4998581968
 31
0.0
  0
LINE
  5
371
  8
SLD-0
  6
CONTINUOUS
 62
     7
 10
207.7523048125
 20
301.4998581968
 30
0.0
 11
208.2363131545
 21
301.5400205515
 31
0.0
  0
LINE
  5
372
  8
SLD-0
  6
CONTINUOUS
 62
     7
 10
208.2363131545
 20
301.5400205515
 30
0.0
 11
208.202390661
 21
301.5370999239
 31
0.0
  0
LINE
  5
373
  8
SLD-0
  6
CONTINUOUS
 62
     7
 10
222.5174705587
 20
295.510183718
 30
0.0
 11
222.5174705587
 21
294.7858811132
 31
0.0
  0
LINE
  5
374
  8
SLD-0
  6
CONTINUOUS
 62
     7
 10
218.517469903
 20
295.9554844312
 30
0.0
 11
219.8766327552
 21
295.346926596
 31
0.0
  0
LINE
  5
375
  8
SLD-0
  6
CONTINUOUS
 62
     7
 10
219.8766327552
 20
295.346926596
 30
0.0
 11
221.1251507602
 21
294.8983215503
 31
0.0
  0
LINE
  5
376
  8
SLD-0
  6
CONTINUOUS
 62
     7
 10
221.1251507602
 20
294.8983215503
 30
0.0
 11
221.9892821364
 21
294.6906142644
 31
0.0
  0
LINE
  5
377
  8
SLD-0
  6
CONTINUOUS
 62
     7
 10
221.9892821364
 20
294.6906142644
 30
0.0
 11
222.4337241701
 21
294.6904149614
 31
0.0
  0
LINE
  5
378
  8
SLD-0
  6
CONTINUOUS
 62
     7
 10
222.4337241701
 20
294.6904149614
 30
0.0
 11
222.5174705587
 21
294.7858811132
 31
0.0
  0
LINE
  5
379
  8
SLD-0
  6
CONTINUOUS
 62
     7
 10
218.517469903
 20
295.9554844312
 30
0.0
 11
210.217470964
 21
300.004264038
 31
0.0
  0
LINE
  5
37A
  8
SLD-0
  6
CONTINUOUS
 62
     7
 10
194.0174724064
 20
300.004264038
 30
0.0
 11
194.0174724064
 21
290.5427382104
 31
0.0
  0
LINE
  5
37B
  8
SLD-0
  6
CONTINUOUS
 62
     7
 10
218.517469903
 20
290.5427382104
 30
0.0
 11
218.517469903
 21
295.9554844312
 31
0.0
  0
LINE
  5
37C
  8
SLD-0
  6
CONTINUOUS
 62
     7
 10
222.5174705587
 20
294.7858811132
 30
0.0
 11
222.5174705587
 21
290.5427382104
 31
0.0
  0
LINE
  5
37D
  8
SLD-0
  6
CONTINUOUS
 62
     7
 10
208.2674714826
 20
303.5427403413
 30
0.0
 11
197.7674725554
 21
303.5427403413
 31
0.0
  0
LINE
  5
37E
  8
SLD-0
  6
CONTINUOUS
 62
     7
 10
196.1174707017
 20
570.9427443109
 30
0.0
 11
209.917469611
 21
570.9427443109
 31
0.0
  0
LINE
  5
37F
  8
SLD-0
  6
CONTINUOUS
 62
     7
 10
209.917469611
 20
571.9427314363
 30
0.0
 11
196.1174707017
 21
571.9427314363
 31
0.0
  0
LINE
  5
380
  8
SLD-0
  6
CONTINUOUS
 62
     7
 10
196.1174707017
 20
570.9427443109
 30
0.0
 11
196.1174707017
 21
571.9427314363
 31
0.0
  0
LINE
  5
381
  8
SLD-0
  6
CONTINUOUS
 62
     7
 10
209.917469611
 20
570.9427443109
 30
0.0
 11
209.917469611
 21
571.9427314363
 31
0.0
  0
LINE
  5
382
  8
SLD-0
  6
CONTINUOUS
 62
     7
 10
206.9674718283
 20
581.6427317224
 30
0.0
 11
207.4674691163
 21
581.6427317224
 31
0.0
  0
LINE
  5
383
  8
SLD-0
  6
CONTINUOUS
 62
     7
 10
207.4674691163
 20
571.9427314363
 30
0.0
 11
207.4674691163
 21
581.6427317224
 31
0.0
  0
LINE
  5
384
  8
SLD-0
  6
CONTINUOUS
 62
     7
 10
206.9674718283
 20
581.6427317224
 30
0.0
 11
206.9674718283
 21
571.9427314363
 31
0.0
  0
LINE
  5
385
  8
SLD-0
  6
CONTINUOUS
 62
     7
 10
203.5424697302
 20
571.9427314363
 30
0.0
 11
203.5424697302
 21
581.6427317224
 31
0.0
  0
LINE
  5
386
  8
SLD-0
  6
CONTINUOUS
 62
     7
 10
203.0424724422
 20
571.9427314363
 30
0.0
 11
203.0424724422
 21
581.6427317224
 31
0.0
  0
LINE
  5
387
  8
SLD-0
  6
CONTINUOUS
 62
     7
 10
203.0424724422
 20
581.6427317224
 30
0.0
 11
203.5424697302
 21
581.6427317224
 31
0.0
  0
LINE
  5
388
  8
SLD-0
  6
CONTINUOUS
 62
     7
 10
202.9924715958
 20
581.6427317224
 30
0.0
 11
202.9924715958
 21
571.9427314363
 31
0.0
  0
LINE
  5
389
  8
SLD-0
  6
CONTINUOUS
 62
     7
 10
202.4924705825
 20
581.6427317224
 30
0.0
 11
202.4924705825
 21
571.9427314363
 31
0.0
  0
LINE
  5
38A
  8
SLD-0
  6
CONTINUOUS
 62
     7
 10
202.4924705825
 20
581.6427317224
 30
0.0
 11
202.9924715958
 21
581.6427317224
 31
0.0
  0
LINE
  5
38B
  8
SLD-0
  6
CONTINUOUS
 62
     7
 10
206.9174709819
 20
581.6427317224
 30
0.0
 11
206.9174709819
 21
571.9427314363
 31
0.0
  0
LINE
  5
38C
  8
SLD-0
  6
CONTINUOUS
 62
     7
 10
206.4174699686
 20
581.6427317224
 30
0.0
 11
206.4174699686
 21
571.9427314363
 31
0.0
  0
LINE
  5
38D
  8
SLD-0
  6
CONTINUOUS
 62
     7
 10
206.4174699686
 20
581.6427317224
 30
0.0
 11
206.9174709819
 21
581.6427317224
 31
0.0
  0
LINE
  5
38E
  8
SLD-0
  6
CONTINUOUS
 62
     7
 10
208.0174709759
 20
571.9427314363
 30
0.0
 11
208.0174709759
 21
581.6427317224
 31
0.0
  0
LINE
  5
38F
  8
SLD-0
  6
CONTINUOUS
 62
     7
 10
207.5174699626
 20
571.9427314363
 30
0.0
 11
207.5174699626
 21
581.6427317224
 31
0.0
  0
LINE
  5
390
  8
SLD-0
  6
CONTINUOUS
 62
     7
 10
207.5174699626
 20
581.6427317224
 30
0.0
 11
208.0174709759
 21
581.6427317224
 31
0.0
  0
LINE
  5
391
  8
SLD-0
  6
CONTINUOUS
 62
     7
 10
199.0674722097
 20
581.6427317224
 30
0.0
 11
199.0674722097
 21
571.9427314363
 31
0.0
  0
LINE
  5
392
  8
SLD-0
  6
CONTINUOUS
 62
     7
 10
198.5674711965
 20
581.6427317224
 30
0.0
 11
198.5674711965
 21
571.9427314363
 31
0.0
  0
LINE
  5
393
  8
SLD-0
  6
CONTINUOUS
 62
     7
 10
199.0674722097
 20
581.6427317224
 30
0.0
 11
198.5674711965
 21
581.6427317224
 31
0.0
  0
LINE
  5
394
  8
SLD-0
  6
CONTINUOUS
 62
     7
 10
206.9174709819
 20
581.6427317224
 30
0.0
 11
206.9674718283
 21
581.6427317224
 31
0.0
  0
LINE
  5
395
  8
SLD-0
  6
CONTINUOUS
 62
     7
 10
207.4674691163
 20
581.6427317224
 30
0.0
 11
207.5174699626
 21
581.6427317224
 31
0.0
  0
LINE
  5
396
  8
SLD-0
  6
CONTINUOUS
 62
     7
 10
196.1174707017
 20
581.6427317224
 30
0.0
 11
198.5674711965
 21
581.6427317224
 31
0.0
  0
LINE
  5
397
  8
SLD-0
  6
CONTINUOUS
 62
     7
 10
196.1174707017
 20
581.6427317224
 30
0.0
 11
196.1174707017
 21
571.9427314363
 31
0.0
  0
LINE
  5
398
  8
SLD-0
  6
CONTINUOUS
 62
     7
 10
202.9924715958
 20
581.6427317224
 30
0.0
 11
203.0424724422
 21
581.6427317224
 31
0.0
  0
LINE
  5
399
  8
SLD-0
  6
CONTINUOUS
 62
     7
 10
202.4924705825
 20
581.6427317224
 30
0.0
 11
199.0674722097
 21
581.6427317224
 31
0.0
  0
LINE
  5
39A
  8
SLD-0
  6
CONTINUOUS
 62
     7
 10
206.4174699686
 20
581.6427317224
 30
0.0
 11
203.5424697302
 21
581.6427317224
 31
0.0
  0
LINE
  5
39B
  8
SLD-0
  6
CONTINUOUS
 62
     7
 10
209.917469611
 20
581.6427317224
 30
0.0
 11
208.0174709759
 21
581.6427317224
 31
0.0
  0
LINE
  5
39C
  8
SLD-0
  6
CONTINUOUS
 62
     7
 10
209.917469611
 20
581.6427317224
 30
0.0
 11
209.917469611
 21
571.9427314363
 31
0.0
  0
LINE
  5
39D
  8
SLD-0
  6
CONTINUOUS
 62
     7
 10
207.0174707792
 20
535.9427384935
 30
0.0
 11
199.0174707792
 21
535.9427384935
 31
0.0
  0
LINE
  5
39E
  8
SLD-0
  6
CONTINUOUS
 62
     7
 10
207.5174699626
 20
510.9427419267
 30
0.0
 11
198.5174703501
 21
510.9427419267
 31
0.0
  0
LINE
  5
39F
  8
SLD-0
  6
CONTINUOUS
 62
     7
 10
203.9674694739
 20
590.5427482687
 30
0.0
 11
203.9674694739
 21
581.6427317224
 31
0.0
  0
LINE
  5
3A0
  8
SLD-0
  6
CONTINUOUS
 62
     7
 10
202.0674708388
 20
581.6427317224
 30
0.0
 11
202.0674708388
 21
590.5427482687
 31
0.0
  0
LINE
  5
3A1
  8
SLD-0
  6
CONTINUOUS
 62
     7
 10
202.0674708388
 20
590.5427482687
 30
0.0
 11
203.9674694739
 21
590.5427482687
 31
0.0
  0
LINE
  5
3A2
  8
SLD-0
  6
CONTINUOUS
 62
     7
 10
204.7174709938
 20
581.6427317224
 30
0.0
 11
204.7174709938
 21
590.5427482687
 31
0.0
  0
LINE
  5
3A3
  8
SLD-0
  6
CONTINUOUS
 62
     7
 10
203.9674694739
 20
590.5427482687
 30
0.0
 11
204.7174709938
 21
590.5427482687
 31
0.0
  0
LINE
  5
3A4
  8
SLD-0
  6
CONTINUOUS
 62
     7
 10
208.9174713097
 20
581.6427317224
 30
0.0
 11
208.9174713097
 21
590.5427482687
 31
0.0
  0
LINE
  5
3A5
  8
SLD-0
  6
CONTINUOUS
 62
     7
 10
208.1674697898
 20
590.5427482687
 30
0.0
 11
208.1674697898
 21
581.6427317224
 31
0.0
  0
LINE
  5
3A6
  8
SLD-0
  6
CONTINUOUS
 62
     7
 10
208.1674697898
 20
590.5427482687
 30
0.0
 11
208.9174713097
 21
590.5427482687
 31
0.0
  0
LINE
  5
3A7
  8
SLD-0
  6
CONTINUOUS
 62
     7
 10
206.2674711547
 20
581.6427317224
 30
0.0
 11
206.2674711547
 21
590.5427482687
 31
0.0
  0
LINE
  5
3A8
  8
SLD-0
  6
CONTINUOUS
 62
     7
 10
205.5174696348
 20
590.5427482687
 30
0.0
 11
205.5174696348
 21
581.6427317224
 31
0.0
  0
LINE
  5
3A9
  8
SLD-0
  6
CONTINUOUS
 62
     7
 10
206.2674711547
 20
590.5427482687
 30
0.0
 11
205.5174696348
 21
590.5427482687
 31
0.0
  0
LINE
  5
3AA
  8
SLD-0
  6
CONTINUOUS
 62
     7
 10
201.3174693189
 20
590.5427482687
 30
0.0
 11
201.3174693189
 21
581.6427317224
 31
0.0
  0
LINE
  5
3AB
  8
SLD-0
  6
CONTINUOUS
 62
     7
 10
202.0674708388
 20
590.5427482687
 30
0.0
 11
201.3174693189
 21
590.5427482687
 31
0.0
  0
LINE
  5
3AC
  8
SLD-0
  6
CONTINUOUS
 62
     7
 10
206.2674711547
 20
590.5427482687
 30
0.0
 11
208.1674697898
 21
590.5427482687
 31
0.0
  0
LINE
  5
3AD
  8
SLD-0
  6
CONTINUOUS
 62
     7
 10
197.117469003
 20
590.5427482687
 30
0.0
 11
200.5174706779
 21
590.5427482687
 31
0.0
  0
LINE
  5
3AE
  8
SLD-0
  6
CONTINUOUS
 62
     7
 10
200.5174706779
 20
581.6427317224
 30
0.0
 11
200.5174706779
 21
590.5427482687
 31
0.0
  0
LINE
  5
3AF
  8
SLD-0
  6
CONTINUOUS
 62
     7
 10
197.117469003
 20
590.5427482687
 30
0.0
 11
197.117469003
 21
581.6427317224
 31
0.0
  0
LINE
  5
3B0
  8
SLD-0
  6
CONTINUOUS
 62
     7
 10
199.5174723766
 20
550.9427335821
 30
0.0
 11
206.5174716614
 21
550.9427335821
 31
0.0
  0
LINE
  5
3B1
  8
SLD-0
  6
CONTINUOUS
 62
     7
 10
189.3174710772
 20
300.1174774728
 30
0.0
 11
177.3174691103
 21
300.1174774728
 31
0.0
  0
LINE
  5
3B2
  8
SLD-0
  6
CONTINUOUS
 62
     7
 10
177.3174691103
 20
300.1174774728
 30
0.0
 11
177.3174691103
 21
301.5427400134
 31
0.0
  0
LINE
  5
3B3
  8
SLD-0
  6
CONTINUOUS
 62
     7
 10
178.3174711368
 20
301.5427400134
 30
0.0
 11
178.598186662
 21
301.5199971162
 31
0.0
  0
LINE
  5
3B4
  8
SLD-0
  6
CONTINUOUS
 62
     7
 10
178.598186662
 20
301.5199971162
 30
0.0
 11
179.4081914328
 21
301.4617037736
 31
0.0
  0
LINE
  5
3B5
  8
SLD-0
  6
CONTINUOUS
 62
     7
 10
179.4081914328
 20
301.4617037736
 30
0.0
 11
180.6594195865
 21
301.3930951021
 31
0.0
  0
LINE
  5
3B6
  8
SLD-0
  6
CONTINUOUS
 62
     7
 10
180.6594195865
 20
301.3930951021
 30
0.0
 11
182.2129997514
 21
301.3442416452
 31
0.0
  0
LINE
  5
3B7
  8
SLD-0
  6
CONTINUOUS
 62
     7
 10
182.2129997514
 20
301.3442416452
 30
0.0
 11
183.8880914352
 21
301.3367649875
 31
0.0
  0
LINE
  5
3B8
  8
SLD-0
  6
CONTINUOUS
 62
     7
 10
183.8880914352
 20
301.3367649875
 30
0.0
 11
185.4947867892
 21
301.3736714385
 31
0.0
  0
LINE
  5
3B9
  8
SLD-0
  6
CONTINUOUS
 62
     7
 10
185.4947867892
 20
301.3736714385
 30
0.0
 11
186.8586341939
 21
301.43881559
 31
0.0
  0
LINE
  5
3BA
  8
SLD-0
  6
CONTINUOUS
 62
     7
 10
186.8586341939
 20
301.43881559
 30
0.0
 11
187.8276567064
 21
301.5039075874
 31
0.0
  0
LINE
  5
3BB
  8
SLD-0
  6
CONTINUOUS
 62
     7
 10
187.8276567064
 20
301.5039075874
 30
0.0
 11
188.287983378
 21
301.5402887724
 31
0.0
  0
LINE
  5
3BC
  8
SLD-0
  6
CONTINUOUS
 62
     7
 10
188.287983378
 20
301.5402887724
 30
0.0
 11
188.2555733524
 21
301.5376289151
 31
0.0
  0
LINE
  5
3BD
  8
SLD-0
  6
CONTINUOUS
 62
     7
 10
189.3174710772
 20
300.1174774728
 30
0.0
 11
189.3174710772
 21
301.5427400134
 31
0.0
  0
LINE
  5
3BE
  8
SLD-0
  6
CONTINUOUS
 62
     7
 10
177.3174691103
 20
300.1174774728
 30
0.0
 11
177.3174691103
 21
290.5427382104
 31
0.0
  0
LINE
  5
3BF
  8
SLD-0
  6
CONTINUOUS
 62
     7
 10
189.3174710772
 20
300.1174774728
 30
0.0
 11
189.3174710772
 21
290.5427382104
 31
0.0
  0
LINE
  5
3C0
  8
SLD-0
  6
CONTINUOUS
 62
     7
 10
188.3174690507
 20
303.5427403413
 30
0.0
 11
178.3174711368
 21
303.5427403413
 31
0.0
  0
LINE
  5
3C1
  8
SLD-0
  6
CONTINUOUS
 62
     7
 10
174.1174701519
 20
547.5427342479
 30
0.0
 11
174.1174701519
 21
551.7776442592
 31
0.0
  0
LINE
  5
3C2
  8
SLD-0
  6
CONTINUOUS
 62
     7
 10
175.8202816876
 20
555.5364322728
 30
0.0
 11
176.8260511658
 21
556.4186719021
 31
0.0
  0
LINE
  5
3C3
  8
SLD-0
  6
CONTINUOUS
 62
     7
 10
176.8260511658
 20
556.4186719021
 30
0.0
 11
176.8260511658
 21
561.5427342019
 31
0.0
  0
LINE
  5
3C4
  8
SLD-0
  6
CONTINUOUS
 62
     7
 10
176.8260511658
 20
561.5427342019
 30
0.0
 11
174.8260471127
 21
563.5427382551
 31
0.0
  0
LINE
  5
3C5
  8
SLD-0
  6
CONTINUOUS
 62
     7
 10
174.8260471127
 20
563.5427382551
 30
0.0
 11
173.9174711607
 21
563.5427382551
 31
0.0
  0
LINE
  5
3C6
  8
SLD-0
  6
CONTINUOUS
 62
     7
 10
173.9174711607
 20
563.5427382551
 30
0.0
 11
173.9174711607
 21
580.0427344404
 31
0.0
  0
LINE
  5
3C7
  8
SLD-0
  6
CONTINUOUS
 62
     7
 10
173.9174711607
 20
580.0427344404
 30
0.0
 11
192.7174673324
 21
580.0427344404
 31
0.0
  0
LINE
  5
3C8
  8
SLD-0
  6
CONTINUOUS
 62
     7
 10
192.7174673324
 20
580.0427344404
 30
0.0
 11
192.7174673324
 21
563.5427317066
 31
0.0
  0
LINE
  5
3C9
  8
SLD-0
  6
CONTINUOUS
 62
     7
 10
192.7174673324
 20
563.5427317066
 30
0.0
 11
191.8088913804
 21
563.5427317066
 31
0.0
  0
LINE
  5
3CA
  8
SLD-0
  6
CONTINUOUS
 62
     7
 10
191.8088913804
 20
563.5427317066
 30
0.0
 11
189.8088910526
 21
561.5427276535
 31
0.0
  0
LINE
  5
3CB
  8
SLD-0
  6
CONTINUOUS
 62
     7
 10
189.8088910526
 20
561.5427276535
 30
0.0
 11
189.8088910526
 21
556.4186653537
 31
0.0
  0
LINE
  5
3CC
  8
SLD-0
  6
CONTINUOUS
 62
     7
 10
189.8088910526
 20
556.4186653537
 30
0.0
 11
190.8146598285
 21
555.5364272041
 31
0.0
  0
LINE
  5
3CD
  8
SLD-0
  6
CONTINUOUS
 62
     7
 10
192.5174709118
 20
551.7776309877
 30
0.0
 11
192.5174694992
 21
547.5427299117
 31
0.0
  0
LINE
  5
3CE
  8
SLD-0
  6
CONTINUOUS
 62
     7
 10
192.0174702055
 20
547.042733479
 30
0.0
 11
174.6174675352
 21
547.0427370553
 31
0.0
  0
LINE
  5
3CF
  8
SLD-0
  6
CONTINUOUS
 62
     7
 10
178.0674743555
 20
590.5427482687
 30
0.0
 11
178.0674743555
 21
580.0427344404
 31
0.0
  0
LINE
  5
3D0
  8
SLD-0
  6
CONTINUOUS
 62
     7
 10
178.0674743555
 20
590.5427482687
 30
0.0
 11
186.9674722753
 21
590.5427482687
 31
0.0
  0
LINE
  5
3D1
  8
SLD-0
  6
CONTINUOUS
 62
     7
 10
186.9674722753
 20
590.5427482687
 30
0.0
 11
186.9674722753
 21
580.0427344404
 31
0.0
  0
LINE
  5
3D2
  8
SLD-0
  6
CONTINUOUS
 62
     7
 10
186.9674722753
 20
590.5427482687
 30
0.0
 11
187.6711051069
 21
590.5427482687
 31
0.0
  0
LINE
  5
3D3
  8
SLD-0
  6
CONTINUOUS
 62
     7
 10
187.6711051069
 20
590.5427482687
 30
0.0
 11
187.6711051069
 21
580.0427344404
 31
0.0
  0
LINE
  5
3D4
  8
SLD-0
  6
CONTINUOUS
 62
     7
 10
177.6674675844
 20
590.5427482687
 30
0.0
 11
177.6674675844
 21
580.0427344404
 31
0.0
  0
LINE
  5
3D5
  8
SLD-0
  6
CONTINUOUS
 62
     7
 10
177.6674675844
 20
590.5427482687
 30
0.0
 11
178.0674743555
 21
590.5427482687
 31
0.0
  0
LINE
  5
3D6
  8
SLD-0
  6
CONTINUOUS
 62
     7
 10
188.8489264152
 20
590.5427482687
 30
0.0
 11
188.8489264152
 21
580.0427344404
 31
0.0
  0
LINE
  5
3D7
  8
SLD-0
  6
CONTINUOUS
 62
     7
 10
187.6711051069
 20
590.5427482687
 30
0.0
 11
188.8489264152
 21
590.5427482687
 31
0.0
  0
LINE
  5
3D8
  8
SLD-0
  6
CONTINUOUS
 62
     7
 10
190.2174697166
 20
584.4427493177
 30
0.0
 11
192.7174673324
 21
584.4427493177
 31
0.0
  0
LINE
  5
3D9
  8
SLD-0
  6
CONTINUOUS
 62
     7
 10
190.2174697166
 20
580.0427344404
 30
0.0
 11
190.2174697166
 21
584.4427493177
 31
0.0
  0
LINE
  5
3DA
  8
SLD-0
  6
CONTINUOUS
 62
     7
 10
192.7174673324
 20
584.4427493177
 30
0.0
 11
192.7174673324
 21
580.0427344404
 31
0.0
  0
LINE
  5
3DB
  8
SLD-0
  6
CONTINUOUS
 62
     7
 10
173.9174711607
 20
584.4427493177
 30
0.0
 11
176.4174687765
 21
584.4427493177
 31
0.0
  0
LINE
  5
3DC
  8
SLD-0
  6
CONTINUOUS
 62
     7
 10
176.4174687765
 20
584.4427493177
 30
0.0
 11
176.4174687765
 21
580.0427344404
 31
0.0
  0
LINE
  5
3DD
  8
SLD-0
  6
CONTINUOUS
 62
     7
 10
173.9174711607
 20
580.0427344404
 30
0.0
 11
173.9174711607
 21
584.4427493177
 31
0.0
  0
LINE
  5
3DE
  8
SLD-0
  6
CONTINUOUS
 62
     7
 10
176.8260522802
 20
556.9427468558
 30
0.0
 11
176.4260529597
 21
556.5427400847
 31
0.0
  0
LINE
  5
3DF
  8
SLD-0
  6
CONTINUOUS
 62
     7
 10
176.4260529597
 20
556.5427400847
 30
0.0
 11
175.3760500867
 21
556.5427400847
 31
0.0
  0
LINE
  5
3E0
  8
SLD-0
  6
CONTINUOUS
 62
     7
 10
175.0760507757
 20
556.8427398463
 30
0.0
 11
175.0760526974
 21
557.3927310072
 31
0.0
  0
LINE
  5
3E1
  8
SLD-0
  6
CONTINUOUS
 62
     7
 10
175.0760526974
 20
557.3927310072
 30
0.0
 11
176.3260515053
 21
560.6927421652
 31
0.0
  0
LINE
  5
3E2
  8
SLD-0
  6
CONTINUOUS
 62
     7
 10
176.3260515053
 20
560.6927421652
 30
0.0
 11
176.3260515053
 21
561.1927357279
 31
0.0
  0
LINE
  5
3E3
  8
SLD-0
  6
CONTINUOUS
 62
     7
 10
176.3260515053
 20
561.1927357279
 30
0.0
 11
173.9760489781
 21
563.5427382551
 31
0.0
  0
LINE
  5
3E4
  8
SLD-0
  6
CONTINUOUS
 62
     7
 10
190.3088937602
 20
560.6927421652
 30
0.0
 11
191.5588925682
 21
557.3927310072
 31
0.0
  0
LINE
  5
3E5
  8
SLD-0
  6
CONTINUOUS
 62
     7
 10
191.5588925682
 20
557.3927310072
 30
0.0
 11
191.5588925682
 21
556.8427291475
 31
0.0
  0
LINE
  5
3E6
  8
SLD-0
  6
CONTINUOUS
 62
     7
 10
191.2588923519
 20
556.5427382771
 30
0.0
 11
190.2088922839
 21
556.5427387539
 31
0.0
  0
LINE
  5
3E7
  8
SLD-0
  6
CONTINUOUS
 62
     7
 10
190.2088922839
 20
556.5427387539
 30
0.0
 11
189.8088929634
 21
556.942745525
 31
0.0
  0
LINE
  5
3E8
  8
SLD-0
  6
CONTINUOUS
 62
     7
 10
192.6588925622
 20
563.5427382551
 30
0.0
 11
190.3088937602
 21
561.1927357279
 31
0.0
  0
LINE
  5
3E9
  8
SLD-0
  6
CONTINUOUS
 62
     7
 10
190.3088937602
 20
561.1927357279
 30
0.0
 11
190.3088937602
 21
560.6927421652
 31
0.0
  0
LINE
  5
3EA
  8
SLD-0
  6
CONTINUOUS
 62
     7
 10
188.9674726031
 20
590.5427482687
 30
0.0
 11
188.9674726031
 21
580.0427344404
 31
0.0
  0
LINE
  5
3EB
  8
SLD-0
  6
CONTINUOUS
 62
     7
 10
188.8489264152
 20
590.5427482687
 30
0.0
 11
188.9674726031
 21
590.5427482687
 31
0.0
  0
LINE
  5
3EC
  8
SLD-0
  6
CONTINUOUS
 62
     7
 10
174.7540819548
 20
556.8427291475
 30
0.0
 11
174.7540819548
 21
557.3927310072
 31
0.0
  0
LINE
  5
3ED
  8
SLD-0
  6
CONTINUOUS
 62
     7
 10
174.7540819548
 20
557.3927310072
 30
0.0
 11
175.0760526974
 21
557.3927310072
 31
0.0
  0
LINE
  5
3EE
  8
SLD-0
  6
CONTINUOUS
 62
     7
 10
175.0540808403
 20
556.5427396079
 30
0.0
 11
175.3760500867
 21
556.5427400847
 31
0.0
  0
LINE
  5
3EF
  8
SLD-0
  6
CONTINUOUS
 62
     7
 10
191.8808621116
 20
557.3927310072
 30
0.0
 11
191.8808621116
 21
556.842728994
 31
0.0
  0
LINE
  5
3F0
  8
SLD-0
  6
CONTINUOUS
 62
     7
 10
191.5588925682
 20
557.3927310072
 30
0.0
 11
191.8808621116
 21
557.3927310072
 31
0.0
  0
LINE
  5
3F1
  8
SLD-0
  6
CONTINUOUS
 62
     7
 10
191.2588923519
 20
556.5427382771
 30
0.0
 11
191.5808620488
 21
556.5427382771
 31
0.0
  0
LINE
  5
3F2
  8
SLD-0
  6
CONTINUOUS
 62
     7
 10
191.2369231782
 20
558.2427528463
 30
0.0
 11
191.5588925682
 21
558.2427528463
 31
0.0
  0
LINE
  5
3F3
  8
SLD-0
  6
CONTINUOUS
 62
     7
 10
191.5588925682
 20
558.2427528463
 30
0.0
 11
191.5588925682
 21
557.3927310072
 31
0.0
  0
LINE
  5
3F4
  8
SLD-0
  6
CONTINUOUS
 62
     7
 10
175.0760526974
 20
557.3927310072
 30
0.0
 11
175.0760526974
 21
558.2427528463
 31
0.0
  0
LINE
  5
3F5
  8
SLD-0
  6
CONTINUOUS
 62
     7
 10
175.0760526974
 20
558.2427528463
 30
0.0
 11
175.3980220873
 21
558.2427528463
 31
0.0
  0
LINE
  5
3F6
  8
SLD-0
  6
CONTINUOUS
 62
     7
 10
190.9149537883
 20
559.0927448831
 30
0.0
 11
191.2369231782
 21
559.0927448831
 31
0.0
  0
LINE
  5
3F7
  8
SLD-0
  6
CONTINUOUS
 62
     7
 10
191.2369231782
 20
559.0927448831
 30
0.0
 11
191.2369231782
 21
558.2427528463
 31
0.0
  0
LINE
  5
3F8
  8
SLD-0
  6
CONTINUOUS
 62
     7
 10
175.3980220873
 20
558.2427528463
 30
0.0
 11
175.3980220873
 21
559.0927448831
 31
0.0
  0
LINE
  5
3F9
  8
SLD-0
  6
CONTINUOUS
 62
     7
 10
175.3980220873
 20
559.0927448831
 30
0.0
 11
175.7199914772
 21
559.0927448831
 31
0.0
  0
LINE
  5
3FA
  8
SLD-0
  6
CONTINUOUS
 62
     7
 10
175.7199914772
 20
559.0927448831
 30
0.0
 11
175.7199914772
 21
559.9427369199
 31
0.0
  0
LINE
  5
3FB
  8
SLD-0
  6
CONTINUOUS
 62
     7
 10
175.7199914772
 20
559.9427369199
 30
0.0
 11
176.0419608671
 21
559.9427369199
 31
0.0
  0
LINE
  5
3FC
  8
SLD-0
  6
CONTINUOUS
 62
     7
 10
190.5929843984
 20
559.9427369199
 30
0.0
 11
190.9149537883
 21
559.9427369199
 31
0.0
  0
LINE
  5
3FD
  8
SLD-0
  6
CONTINUOUS
 62
     7
 10
190.9149537883
 20
559.9427369199
 30
0.0
 11
190.9149537883
 21
559.0927448831
 31
0.0
  0
LINE
  5
3FE
  8
SLD-0
  6
CONTINUOUS
 62
     7
 10
190.3088937602
 20
560.6927421652
 30
0.0
 11
190.5929843984
 21
560.6927421652
 31
0.0
  0
LINE
  5
3FF
  8
SLD-0
  6
CONTINUOUS
 62
     7
 10
190.5929843984
 20
559.9427369199
 30
0.0
 11
190.5929843984
 21
560.6927421652
 31
0.0
  0
LINE
  5
400
  8
SLD-0
  6
CONTINUOUS
 62
     7
 10
176.0419608671
 20
560.6927421652
 30
0.0
 11
176.3260515053
 21
560.6927421652
 31
0.0
  0
LINE
  5
401
  8
SLD-0
  6
CONTINUOUS
 62
     7
 10
176.0419608671
 20
560.6927421652
 30
0.0
 11
176.0419608671
 21
559.9427369199
 31
0.0
  0
LINE
  5
402
  8
SLD-0
  6
CONTINUOUS
 62
     8
 10
207.5174699626
 20
535.4427245222
 30
0.0
 11
198.5174703501
 21
535.4427245222
 31
0.0
  0
LINE
  5
403
  8
SLD-0
  6
CONTINUOUS
 62
     8
 10
199.5174707792
 20
536.4427384935
 30
0.0
 11
206.5174707792
 21
536.4427384935
 31
0.0
  0
LINE
  5
404
  8
SLD-0
  6
CONTINUOUS
 62
     7
 10
246.3174708742
 20
661.0172877763
 30
0.0
 11
244.3174707792
 21
661.0172877763
 31
0.0
  0
LINE
  5
405
  8
SLD-0
  6
CONTINUOUS
 62
     7
 10
244.3174707792
 20
639.0172878955
 30
0.0
 11
246.3174708742
 21
639.0172878955
 31
0.0
  0
LINE
  5
406
  8
SLD-0
  6
CONTINUOUS
 62
     7
 10
264.3174703322
 20
653.017287862
 30
0.0
 11
246.3174708742
 21
653.017287862
 31
0.0
  0
LINE
  5
407
  8
SLD-0
  6
CONTINUOUS
 62
     7
 10
246.3174708742
 20
647.0172878098
 30
0.0
 11
264.3174703322
 21
647.0172878098
 31
0.0
  0
LINE
  5
408
  8
SLD-0
  6
CONTINUOUS
 62
     7
 10
175.3174707792
 20
668.4993386435
 30
0.0
 11
174.3174704812
 21
666.767288253
 31
0.0
  0
LINE
  5
409
  8
SLD-0
  6
CONTINUOUS
 62
     7
 10
174.3174704812
 20
633.2672874186
 30
0.0
 11
175.3174707792
 21
631.5352370282
 31
0.0
  0
LINE
  5
40A
  8
SLD-0
  6
CONTINUOUS
 62
     7
 10
202.5174708924
 20
663.5172881861
 30
0.0
 11
202.5174708924
 21
666.117288426
 31
0.0
  0
LINE
  5
40B
  8
SLD-0
  6
CONTINUOUS
 62
     7
 10
195.517471721
 20
666.117288426
 30
0.0
 11
195.517471721
 21
663.5172881861
 31
0.0
  0
LINE
  5
40C
  8
SLD-0
  6
CONTINUOUS
 62
     7
 10
211.9174699388
 20
663.5172881861
 30
0.0
 11
211.9174699388
 21
663.8172876765
 31
0.0
  0
LINE
  5
40D
  8
SLD-0
  6
CONTINUOUS
 62
     7
 10
206.1174723409
 20
663.8172876765
 30
0.0
 11
206.1174723409
 21
663.5172881861
 31
0.0
  0
LINE
  5
40E
  8
SLD-0
  6
CONTINUOUS
 62
     7
 10
202.5174708924
 20
666.117288426
 30
0.0
 11
202.5174708924
 21
667.21728842
 31
0.0
  0
LINE
  5
40F
  8
SLD-0
  6
CONTINUOUS
 62
     7
 10
195.5174707792
 20
667.2172878359
 30
0.0
 11
195.517471721
 21
666.117288426
 31
0.0
  0
LINE
  5
410
  8
SLD-0
  6
CONTINUOUS
 62
     7
 10
244.3174707792
 20
666.9878496531
 30
0.0
 11
234.1174704112
 21
666.9878496531
 31
0.0
  0
LINE
  5
411
  8
SLD-0
  6
CONTINUOUS
 62
     7
 10
234.1174704112
 20
671.0172875527
 30
0.0
 11
244.3174707792
 21
671.0172875527
 31
0.0
  0
LINE
  5
412
  8
SLD-0
  6
CONTINUOUS
 62
     7
 10
244.3174707792
 20
666.9878496531
 30
0.0
 11
244.3174707792
 21
671.0172875527
 31
0.0
  0
LINE
  5
413
  8
SLD-0
  6
CONTINUOUS
 62
     7
 10
234.1174704112
 20
666.9878496531
 30
0.0
 11
234.1174704112
 21
671.0172875527
 31
0.0
  0
LINE
  5
414
  8
SLD-0
  6
CONTINUOUS
 62
     7
 10
234.1174704112
 20
633.0467260185
 30
0.0
 11
244.3174707792
 21
633.0467260185
 31
0.0
  0
LINE
  5
415
  8
SLD-0
  6
CONTINUOUS
 62
     7
 10
244.3174707792
 20
666.9878496531
 30
0.0
 11
244.3174707792
 21
633.0467260185
 31
0.0
  0
LINE
  5
416
  8
SLD-0
  6
CONTINUOUS
 62
     7
 10
234.1174704112
 20
666.9878496531
 30
0.0
 11
234.1174704112
 21
633.0467260185
 31
0.0
  0
LINE
  5
417
  8
SLD-0
  6
CONTINUOUS
 62
     7
 10
234.1174704112
 20
629.0172881189
 30
0.0
 11
244.3174707792
 21
629.0172881189
 31
0.0
  0
LINE
  5
418
  8
SLD-0
  6
CONTINUOUS
 62
     7
 10
244.3174707792
 20
629.0172881189
 30
0.0
 11
244.3174707792
 21
633.0467260185
 31
0.0
  0
LINE
  5
419
  8
SLD-0
  6
CONTINUOUS
 62
     7
 10
234.1174704112
 20
629.0172881189
 30
0.0
 11
234.1174704112
 21
633.0467260185
 31
0.0
  0
LINE
  5
41A
  8
SLD-0
  6
CONTINUOUS
 62
     7
 10
246.3174708742
 20
661.0172877763
 30
0.0
 11
246.3174708742
 21
639.0172878955
 31
0.0
  0
LINE
  5
41B
  8
SLD-0
  6
CONTINUOUS
 62
     7
 10
264.3174703322
 20
653.017287862
 30
0.0
 11
264.3174703322
 21
647.0172878098
 31
0.0
  0
LINE
  5
41C
  8
SLD-0
  6
CONTINUOUS
 62
     7
 10
234.1174704112
 20
666.9878496531
 30
0.0
 11
212.117469599
 21
666.9878496531
 31
0.0
  0
LINE
  5
41D
  8
SLD-0
  6
CONTINUOUS
 62
     7
 10
212.117469599
 20
666.9878496531
 30
0.0
 11
212.117469599
 21
671.0172875527
 31
0.0
  0
LINE
  5
41E
  8
SLD-0
  6
CONTINUOUS
 62
     7
 10
212.117469599
 20
671.0172875527
 30
0.0
 11
234.1174704112
 21
671.0172875527
 31
0.0
  0
LINE
  5
41F
  8
SLD-0
  6
CONTINUOUS
 62
     7
 10
212.117469599
 20
633.0467260185
 30
0.0
 11
234.1174704112
 21
633.0467260185
 31
0.0
  0
LINE
  5
420
  8
SLD-0
  6
CONTINUOUS
 62
     7
 10
212.117469599
 20
666.9878496531
 30
0.0
 11
212.117469599
 21
663.517288186
 31
0.0
  0
LINE
  5
421
  8
SLD-0
  6
CONTINUOUS
 62
     7
 10
212.117469599
 20
636.5172874856
 30
0.0
 11
212.117469599
 21
633.0467260185
 31
0.0
  0
LINE
  5
422
  8
SLD-0
  6
CONTINUOUS
 62
     7
 10
212.117469599
 20
629.0172881189
 30
0.0
 11
234.1174704112
 21
629.0172881189
 31
0.0
  0
LINE
  5
423
  8
SLD-0
  6
CONTINUOUS
 62
     7
 10
212.117469599
 20
629.0172881189
 30
0.0
 11
212.117469599
 21
633.0467260185
 31
0.0
  0
LINE
  5
424
  8
SLD-0
  6
CONTINUOUS
 62
     7
 10
212.117469599
 20
666.9878496531
 30
0.0
 11
202.5174710057
 21
666.9878496531
 31
0.0
  0
LINE
  5
425
  8
SLD-0
  6
CONTINUOUS
 62
     7
 10
195.517471721
 20
666.9878496531
 30
0.0
 11
192.1174700461
 21
666.9878496531
 31
0.0
  0
LINE
  5
426
  8
SLD-0
  6
CONTINUOUS
 62
     7
 10
192.1174700461
 20
666.9878496531
 30
0.0
 11
192.1174700461
 21
671.0172875527
 31
0.0
  0
LINE
  5
427
  8
SLD-0
  6
CONTINUOUS
 62
     7
 10
192.1174700461
 20
671.0172875527
 30
0.0
 11
212.117469599
 21
671.0172875527
 31
0.0
  0
LINE
  5
428
  8
SLD-0
  6
CONTINUOUS
 62
     7
 10
192.1174700461
 20
633.0467260185
 30
0.0
 11
212.117469599
 21
633.0467260185
 31
0.0
  0
LINE
  5
429
  8
SLD-0
  6
CONTINUOUS
 62
     7
 10
192.1174700461
 20
666.9878496531
 30
0.0
 11
192.1174700461
 21
656.1172877181
 31
0.0
  0
LINE
  5
42A
  8
SLD-0
  6
CONTINUOUS
 62
     7
 10
192.1174700461
 20
643.9172879535
 30
0.0
 11
192.1174700461
 21
633.0467260185
 31
0.0
  0
LINE
  5
42B
  8
SLD-0
  6
CONTINUOUS
 62
     7
 10
192.1174700461
 20
629.0172881189
 30
0.0
 11
212.117469599
 21
629.0172881189
 31
0.0
  0
LINE
  5
42C
  8
SLD-0
  6
CONTINUOUS
 62
     7
 10
192.1174700461
 20
629.0172881189
 30
0.0
 11
192.1174700461
 21
633.0467260185
 31
0.0
  0
LINE
  5
42D
  8
SLD-0
  6
CONTINUOUS
 62
     7
 10
192.1174700461
 20
666.9878496531
 30
0.0
 11
177.3086699746
 21
666.9878496531
 31
0.0
  0
LINE
  5
42E
  8
SLD-0
  6
CONTINUOUS
 62
     7
 10
177.3086699746
 20
671.0172875527
 30
0.0
 11
177.3086699746
 21
666.9878496531
 31
0.0
  0
LINE
  5
42F
  8
SLD-0
  6
CONTINUOUS
 62
     7
 10
192.1174700461
 20
671.0172875527
 30
0.0
 11
177.3086699746
 21
671.0172875527
 31
0.0
  0
LINE
  5
430
  8
SLD-0
  6
CONTINUOUS
 62
     7
 10
175.8245614839
 20
629.0172878359
 30
0.0
 11
176.6398652285
 21
629.0172878359
 31
0.0
  0
LINE
  5
431
  8
SLD-0
  6
CONTINUOUS
 62
     7
 10
175.8245614839
 20
671.0172878358
 30
0.0
 11
177.3086699746
 21
671.0172875527
 31
0.0
  0
LINE
  5
432
  8
SLD-0
  6
CONTINUOUS
 62
     7
 10
176.3439762495
 20
635.517288253
 30
0.0
 11
176.9057658575
 21
635.5172878359
 31
0.0
  0
LINE
  5
433
  8
SLD-0
  6
CONTINUOUS
 62
     7
 10
176.3439762495
 20
635.517288253
 30
0.0
 11
176.1274474762
 21
636.3788594234
 31
0.0
  0
LINE
  5
434
  8
SLD-0
  6
CONTINUOUS
 62
     7
 10
176.1274474762
 20
636.3788594234
 30
0.0
 11
175.9048390291
 21
637.020626359
 31
0.0
  0
LINE
  5
435
  8
SLD-0
  6
CONTINUOUS
 62
     7
 10
175.9048390291
 20
637.020626359
 30
0.0
 11
175.7007899783
 21
637.3693098057
 31
0.0
  0
LINE
  5
436
  8
SLD-0
  6
CONTINUOUS
 62
     7
 10
175.7007899783
 20
637.3693098057
 30
0.0
 11
175.541533818
 21
637.3786165121
 31
0.0
  0
LINE
  5
437
  8
SLD-0
  6
CONTINUOUS
 62
     7
 10
175.541533818
 20
637.3786165121
 30
0.0
 11
175.4456969998
 21
637.0566834438
 31
0.0
  0
LINE
  5
438
  8
SLD-0
  6
CONTINUOUS
 62
     7
 10
175.4456969998
 20
637.0566834438
 30
0.0
 11
175.421124985
 21
636.4570141512
 31
0.0
  0
LINE
  5
439
  8
SLD-0
  6
CONTINUOUS
 62
     7
 10
175.421124985
 20
636.4570141512
 30
0.0
 11
175.4669237039
 21
635.6555244628
 31
0.0
  0
LINE
  5
43A
  8
SLD-0
  6
CONTINUOUS
 62
     7
 10
175.4669237039
 20
635.6555244628
 30
0.0
 11
175.5769091747
 21
634.7350843925
 31
0.0
  0
LINE
  5
43B
  8
SLD-0
  6
CONTINUOUS
 62
     7
 10
175.5769091747
 20
634.7350843925
 30
0.0
 11
175.6100584207
 21
634.5172878358
 31
0.0
  0
LINE
  5
43C
  8
SLD-0
  6
CONTINUOUS
 62
     7
 10
175.3174707792
 20
668.4993386435
 30
0.0
 11
175.3174725078
 21
656.1172877181
 31
0.0
  0
LINE
  5
43D
  8
SLD-0
  6
CONTINUOUS
 62
     7
 10
175.3174725078
 20
643.9172879535
 30
0.0
 11
175.3174707792
 21
631.5352370282
 31
0.0
  0
LINE
  5
43E
  8
SLD-0
  6
CONTINUOUS
 62
     7
 10
192.1174700461
 20
635.517288253
 30
0.0
 11
176.9057658575
 21
635.5172878359
 31
0.0
  0
LINE
  5
43F
  8
SLD-0
  6
CONTINUOUS
 62
     7
 10
192.1174700461
 20
643.9172879535
 30
0.0
 11
192.1174700461
 21
635.517288253
 31
0.0
  0
LINE
  5
440
  8
SLD-0
  6
CONTINUOUS
 62
     7
 10
174.3174704812
 20
666.767288253
 30
0.0
 11
174.3174704812
 21
656.1172877181
 31
0.0
  0
LINE
  5
441
  8
SLD-0
  6
CONTINUOUS
 62
     7
 10
174.3174704812
 20
643.9172879535
 30
0.0
 11
174.3174704812
 21
633.2672874186
 31
0.0
  0
LINE
  5
442
  8
SLD-0
  6
CONTINUOUS
 62
     7
 10
192.1174700461
 20
634.5172880891
 30
0.0
 11
175.6100584207
 21
634.5172878358
 31
0.0
  0
LINE
  5
443
  8
SLD-0
  6
CONTINUOUS
 62
     7
 10
192.1174700461
 20
629.0172881189
 30
0.0
 11
176.6398652285
 21
629.0172878359
 31
0.0
  0
LINE
  5
444
  8
SLD-0
  6
CONTINUOUS
 62
     7
 10
210.217470964
 20
636.5172874857
 30
0.0
 11
194.0174724064
 21
636.5172874857
 31
0.0
  0
LINE
  5
445
  8
SLD-0
  6
CONTINUOUS
 62
     7
 10
194.0174724064
 20
636.5172874857
 30
0.0
 11
194.0174724064
 21
663.5172881861
 31
0.0
  0
LINE
  5
446
  8
SLD-0
  6
CONTINUOUS
 62
     7
 10
194.0174724064
 20
663.5172881861
 30
0.0
 11
210.217470964
 21
663.5172881861
 31
0.0
  0
LINE
  5
447
  8
SLD-0
  6
CONTINUOUS
 62
     7
 10
210.217470964
 20
663.5172881861
 30
0.0
 11
210.217470964
 21
636.5172874857
 31
0.0
  0
LINE
  5
448
  8
SLD-0
  6
CONTINUOUS
 62
     7
 10
218.517469903
 20
663.5172881861
 30
0.0
 11
210.217470964
 21
663.5172881861
 31
0.0
  0
LINE
  5
449
  8
SLD-0
  6
CONTINUOUS
 62
     7
 10
222.5174705587
 20
659.5172875304
 30
0.0
 11
222.5174705587
 21
640.5172881414
 31
0.0
  0
LINE
  5
44A
  8
SLD-0
  6
CONTINUOUS
 62
     7
 10
218.517469903
 20
636.5172874857
 30
0.0
 11
210.217470964
 21
636.5172874857
 31
0.0
  0
LINE
  5
44B
  8
SLD-0
  6
CONTINUOUS
 62
     7
 10
195.517471721
 20
666.117288426
 30
0.0
 11
202.5174708924
 21
666.117288426
 31
0.0
  0
LINE
  5
44C
  8
SLD-0
  6
CONTINUOUS
 62
     7
 10
206.1174723409
 20
663.8172876765
 30
0.0
 11
211.9174699388
 21
663.8172876765
 31
0.0
  0
LINE
  5
44D
  8
SLD-0
  6
CONTINUOUS
 62
     7
 10
196.8174707792
 20
668.5172878359
 30
0.0
 11
200.3862510524
 21
668.5172880743
 31
0.0
  0
LINE
  5
44E
  8
SLD-0
  6
CONTINUOUS
 62
     7
 10
200.3862510524
 20
668.5172880743
 30
0.0
 11
200.6931590937
 21
668.4435217385
 31
0.0
  0
LINE
  5
44F
  8
SLD-0
  6
CONTINUOUS
 62
     7
 10
200.6931590937
 20
668.4435217385
 30
0.0
 11
200.9654368363
 21
668.2299154554
 31
0.0
  0
LINE
  5
450
  8
SLD-0
  6
CONTINUOUS
 62
     7
 10
200.9654368363
 20
668.2299154554
 30
0.0
 11
201.1710169814
 21
667.9020340298
 31
0.0
  0
LINE
  5
451
  8
SLD-0
  6
CONTINUOUS
 62
     7
 10
201.1710169814
 20
667.9020340298
 30
0.0
 11
201.2875515125
 21
667.4977040593
 31
0.0
  0
LINE
  5
452
  8
SLD-0
  6
CONTINUOUS
 62
     7
 10
201.2875515125
 20
667.4977040593
 30
0.0
 11
201.3092476032
 21
667.21728842
 31
0.0
  0
LINE
  5
453
  8
SLD-0
  6
CONTINUOUS
 62
     7
 10
201.3092476032
 20
667.21728842
 30
0.0
 11
201.6628000043
 21
667.21728842
 31
0.0
  0
LINE
  5
454
  8
SLD-0
  6
CONTINUOUS
 62
     7
 10
200.7398071788
 20
668.5172880743
 30
0.0
 11
201.2174707792
 21
668.5172878359
 31
0.0
  0
LINE
  5
455
  8
SLD-0
  6
CONTINUOUS
 62
     7
 10
201.6628000043
 20
667.21728842
 30
0.0
 11
201.6110706232
 21
667.6466821436
 31
0.0
  0
LINE
  5
456
  8
SLD-0
  6
CONTINUOUS
 62
     7
 10
201.6110706232
 20
667.6466821436
 30
0.0
 11
201.4617833398
 21
668.0276619945
 31
0.0
  0
LINE
  5
457
  8
SLD-0
  6
CONTINUOUS
 62
     7
 10
201.4617833398
 20
668.0276619945
 30
0.0
 11
201.2316572569
 21
668.3177056466
 31
0.0
  0
LINE
  5
458
  8
SLD-0
  6
CONTINUOUS
 62
     7
 10
201.2316572569
 20
668.3177056466
 30
0.0
 11
200.9460541509
 21
668.4845278714
 31
0.0
  0
LINE
  5
459
  8
SLD-0
  6
CONTINUOUS
 62
     7
 10
200.9460541509
 20
668.4845278714
 30
0.0
 11
200.7398071788
 21
668.5172880743
 31
0.0
  0
LINE
  5
45A
  8
SLD-0
  6
CONTINUOUS
 62
     7
 10
200.3862510524
 20
668.5172880743
 30
0.0
 11
200.7398071788
 21
668.5172880743
 31
0.0
  0
LINE
  5
45B
  8
SLD-0
  6
CONTINUOUS
 62
     7
 10
197.8674705229
 20
650.3172878501
 30
0.0
 11
197.117469003
 21
651.0672877985
 31
0.0
  0
LINE
  5
45C
  8
SLD-0
  6
CONTINUOUS
 62
     7
 10
200.5174706779
 20
653.717287837
 30
0.0
 11
197.117469003
 21
653.717287837
 31
0.0
  0
LINE
  5
45D
  8
SLD-0
  6
CONTINUOUS
 62
     7
 10
200.5174706779
 20
651.0672877985
 30
0.0
 11
200.5174706779
 21
653.717287837
 31
0.0
  0
LINE
  5
45E
  8
SLD-0
  6
CONTINUOUS
 62
     7
 10
200.5174706779
 20
651.0672877985
 30
0.0
 11
199.767469158
 21
650.3172878501
 31
0.0
  0
LINE
  5
45F
  8
SLD-0
  6
CONTINUOUS
 62
     7
 10
197.8674705229
 20
650.3172878501
 30
0.0
 11
199.767469158
 21
650.3172878501
 31
0.0
  0
LINE
  5
460
  8
SLD-0
  6
CONTINUOUS
 62
     7
 10
197.9174713693
 20
652.5672879279
 30
0.0
 11
198.0174693368
 21
652.5672879279
 31
0.0
  0
LINE
  5
461
  8
SLD-0
  6
CONTINUOUS
 62
     7
 10
197.9174713693
 20
652.067287846
 30
0.0
 11
197.9174713693
 21
652.5672879279
 31
0.0
  0
LINE
  5
462
  8
SLD-0
  6
CONTINUOUS
 62
     7
 10
198.0174693368
 20
652.067287846
 30
0.0
 11
197.9174713693
 21
652.067287846
 31
0.0
  0
LINE
  5
463
  8
SLD-0
  6
CONTINUOUS
 62
     7
 10
198.0174693368
 20
651.417287786
 30
0.0
 11
198.0174693368
 21
652.067287846
 31
0.0
  0
LINE
  5
464
  8
SLD-0
  6
CONTINUOUS
 62
     7
 10
198.342471113
 20
651.417287786
 30
0.0
 11
198.0174693368
 21
651.417287786
 31
0.0
  0
LINE
  5
465
  8
SLD-0
  6
CONTINUOUS
 62
     7
 10
198.4424690805
 20
651.3172878394
 30
0.0
 11
198.342471113
 21
651.417287786
 31
0.0
  0
LINE
  5
466
  8
SLD-0
  6
CONTINUOUS
 62
     7
 10
199.1924706004
 20
651.3172878394
 30
0.0
 11
198.4424690805
 21
651.3172878394
 31
0.0
  0
LINE
  5
467
  8
SLD-0
  6
CONTINUOUS
 62
     7
 10
199.2924722932
 20
651.417287786
 30
0.0
 11
199.1924706004
 21
651.3172878394
 31
0.0
  0
LINE
  5
468
  8
SLD-0
  6
CONTINUOUS
 62
     7
 10
199.6174703441
 20
651.417287786
 30
0.0
 11
199.2924722932
 21
651.417287786
 31
0.0
  0
LINE
  5
469
  8
SLD-0
  6
CONTINUOUS
 62
     7
 10
199.6174703441
 20
652.067287846
 30
0.0
 11
199.6174703441
 21
651.417287786
 31
0.0
  0
LINE
  5
46A
  8
SLD-0
  6
CONTINUOUS
 62
     7
 10
199.7174720369
 20
652.067287846
 30
0.0
 11
199.6174703441
 21
652.067287846
 31
0.0
  0
LINE
  5
46B
  8
SLD-0
  6
CONTINUOUS
 62
     7
 10
199.7174720369
 20
652.5672879279
 30
0.0
 11
199.7174720369
 21
652.067287846
 31
0.0
  0
LINE
  5
46C
  8
SLD-0
  6
CONTINUOUS
 62
     7
 10
199.6174703441
 20
652.5672879279
 30
0.0
 11
199.7174720369
 21
652.5672879279
 31
0.0
  0
LINE
  5
46D
  8
SLD-0
  6
CONTINUOUS
 62
     7
 10
199.6174703441
 20
653.067287777
 30
0.0
 11
199.6174703441
 21
652.5672879279
 31
0.0
  0
LINE
  5
46E
  8
SLD-0
  6
CONTINUOUS
 62
     7
 10
199.6174703441
 20
653.067287777
 30
0.0
 11
198.0174693368
 21
653.067287777
 31
0.0
  0
LINE
  5
46F
  8
SLD-0
  6
CONTINUOUS
 62
     7
 10
198.0174693368
 20
652.5672879279
 30
0.0
 11
198.0174693368
 21
653.067287777
 31
0.0
  0
LINE
  5
470
  8
SLD-0
  6
CONTINUOUS
 62
     7
 10
197.117469003
 20
653.717287837
 30
0.0
 11
197.117469003
 21
651.0672877985
 31
0.0
  0
LINE
  5
471
  8
SLD-0
  6
CONTINUOUS
 62
     7
 10
205.5174696348
 20
650.3172878501
 30
0.0
 11
208.9174713097
 21
650.3172878501
 31
0.0
  0
LINE
  5
472
  8
SLD-0
  6
CONTINUOUS
 62
     7
 10
205.5174696348
 20
653.717287837
 30
0.0
 11
205.5174696348
 21
650.3172878501
 31
0.0
  0
LINE
  5
473
  8
SLD-0
  6
CONTINUOUS
 62
     7
 10
208.9174713097
 20
653.717287837
 30
0.0
 11
205.5174696348
 21
653.717287837
 31
0.0
  0
LINE
  5
474
  8
SLD-0
  6
CONTINUOUS
 62
     7
 10
208.9174713097
 20
650.3172878501
 30
0.0
 11
208.9174713097
 21
653.717287837
 31
0.0
  0
LINE
  5
475
  8
SLD-0
  6
CONTINUOUS
 62
     7
 10
206.3174720011
 20
652.5672879279
 30
0.0
 11
206.4174699686
 21
652.5672879279
 31
0.0
  0
LINE
  5
476
  8
SLD-0
  6
CONTINUOUS
 62
     7
 10
206.3174720011
 20
652.067287846
 30
0.0
 11
206.3174720011
 21
652.5672879279
 31
0.0
  0
LINE
  5
477
  8
SLD-0
  6
CONTINUOUS
 62
     7
 10
206.4174699686
 20
652.067287846
 30
0.0
 11
206.3174720011
 21
652.067287846
 31
0.0
  0
LINE
  5
478
  8
SLD-0
  6
CONTINUOUS
 62
     7
 10
206.4174699686
 20
651.417287786
 30
0.0
 11
206.4174699686
 21
652.067287846
 31
0.0
  0
LINE
  5
479
  8
SLD-0
  6
CONTINUOUS
 62
     7
 10
206.7424717448
 20
651.417287786
 30
0.0
 11
206.4174699686
 21
651.417287786
 31
0.0
  0
LINE
  5
47A
  8
SLD-0
  6
CONTINUOUS
 62
     7
 10
206.8424697123
 20
651.3172878394
 30
0.0
 11
206.7424717448
 21
651.417287786
 31
0.0
  0
LINE
  5
47B
  8
SLD-0
  6
CONTINUOUS
 62
     7
 10
207.5924712322
 20
651.3172878394
 30
0.0
 11
206.8424697123
 21
651.3172878394
 31
0.0
  0
LINE
  5
47C
  8
SLD-0
  6
CONTINUOUS
 62
     7
 10
207.6924691997
 20
651.417287786
 30
0.0
 11
207.5924712322
 21
651.3172878394
 31
0.0
  0
LINE
  5
47D
  8
SLD-0
  6
CONTINUOUS
 62
     7
 10
208.0174709759
 20
651.417287786
 30
0.0
 11
207.6924691997
 21
651.417287786
 31
0.0
  0
LINE
  5
47E
  8
SLD-0
  6
CONTINUOUS
 62
     7
 10
208.0174709759
 20
652.067287846
 30
0.0
 11
208.0174709759
 21
651.417287786
 31
0.0
  0
LINE
  5
47F
  8
SLD-0
  6
CONTINUOUS
 62
     7
 10
208.1174689434
 20
652.067287846
 30
0.0
 11
208.0174709759
 21
652.067287846
 31
0.0
  0
LINE
  5
480
  8
SLD-0
  6
CONTINUOUS
 62
     7
 10
208.1174689434
 20
652.5672879279
 30
0.0
 11
208.1174689434
 21
652.067287846
 31
0.0
  0
LINE
  5
481
  8
SLD-0
  6
CONTINUOUS
 62
     7
 10
208.0174709759
 20
652.5672879279
 30
0.0
 11
208.1174689434
 21
652.5672879279
 31
0.0
  0
LINE
  5
482
  8
SLD-0
  6
CONTINUOUS
 62
     7
 10
208.0174709759
 20
653.067287777
 30
0.0
 11
208.0174709759
 21
652.5672879279
 31
0.0
  0
LINE
  5
483
  8
SLD-0
  6
CONTINUOUS
 62
     7
 10
208.0174709759
 20
653.067287777
 30
0.0
 11
206.4174699686
 21
653.067287777
 31
0.0
  0
LINE
  5
484
  8
SLD-0
  6
CONTINUOUS
 62
     7
 10
206.4174699686
 20
652.5672879279
 30
0.0
 11
206.4174699686
 21
653.067287777
 31
0.0
  0
LINE
  5
485
  8
SLD-0
  6
CONTINUOUS
 62
     7
 10
201.3174693189
 20
650.3172878501
 30
0.0
 11
204.7174709938
 21
650.3172878501
 31
0.0
  0
LINE
  5
486
  8
SLD-0
  6
CONTINUOUS
 62
     7
 10
204.7174709938
 20
653.717287837
 30
0.0
 11
201.3174693189
 21
653.717287837
 31
0.0
  0
LINE
  5
487
  8
SLD-0
  6
CONTINUOUS
 62
     7
 10
204.7174709938
 20
650.3172878501
 30
0.0
 11
204.7174709938
 21
653.717287837
 31
0.0
  0
LINE
  5
488
  8
SLD-0
  6
CONTINUOUS
 62
     7
 10
202.1174716852
 20
652.5672879279
 30
0.0
 11
202.2174696527
 21
652.5672879279
 31
0.0
  0
LINE
  5
489
  8
SLD-0
  6
CONTINUOUS
 62
     7
 10
202.1174716852
 20
652.067287846
 30
0.0
 11
202.1174716852
 21
652.5672879279
 31
0.0
  0
LINE
  5
48A
  8
SLD-0
  6
CONTINUOUS
 62
     7
 10
202.2174696527
 20
652.067287846
 30
0.0
 11
202.1174716852
 21
652.067287846
 31
0.0
  0
LINE
  5
48B
  8
SLD-0
  6
CONTINUOUS
 62
     7
 10
202.2174696527
 20
651.417287786
 30
0.0
 11
202.2174696527
 21
652.067287846
 31
0.0
  0
LINE
  5
48C
  8
SLD-0
  6
CONTINUOUS
 62
     7
 10
202.5424714289
 20
651.417287786
 30
0.0
 11
202.2174696527
 21
651.417287786
 31
0.0
  0
LINE
  5
48D
  8
SLD-0
  6
CONTINUOUS
 62
     7
 10
202.6424693964
 20
651.3172878394
 30
0.0
 11
202.5424714289
 21
651.417287786
 31
0.0
  0
LINE
  5
48E
  8
SLD-0
  6
CONTINUOUS
 62
     7
 10
203.3924709163
 20
651.3172878394
 30
0.0
 11
202.6424693964
 21
651.3172878394
 31
0.0
  0
LINE
  5
48F
  8
SLD-0
  6
CONTINUOUS
 62
     7
 10
203.4924726091
 20
651.417287786
 30
0.0
 11
203.3924709163
 21
651.3172878394
 31
0.0
  0
LINE
  5
490
  8
SLD-0
  6
CONTINUOUS
 62
     7
 10
203.81747066
 20
651.417287786
 30
0.0
 11
203.4924726091
 21
651.417287786
 31
0.0
  0
LINE
  5
491
  8
SLD-0
  6
CONTINUOUS
 62
     7
 10
203.81747066
 20
652.067287846
 30
0.0
 11
203.81747066
 21
651.417287786
 31
0.0
  0
LINE
  5
492
  8
SLD-0
  6
CONTINUOUS
 62
     7
 10
203.9174723528
 20
652.067287846
 30
0.0
 11
203.81747066
 21
652.067287846
 31
0.0
  0
LINE
  5
493
  8
SLD-0
  6
CONTINUOUS
 62
     7
 10
203.9174723528
 20
652.5672879279
 30
0.0
 11
203.9174723528
 21
652.067287846
 31
0.0
  0
LINE
  5
494
  8
SLD-0
  6
CONTINUOUS
 62
     7
 10
203.81747066
 20
652.5672879279
 30
0.0
 11
203.9174723528
 21
652.5672879279
 31
0.0
  0
LINE
  5
495
  8
SLD-0
  6
CONTINUOUS
 62
     7
 10
203.81747066
 20
653.067287777
 30
0.0
 11
202.2174696527
 21
653.067287777
 31
0.0
  0
LINE
  5
496
  8
SLD-0
  6
CONTINUOUS
 62
     7
 10
202.2174696527
 20
652.5672879279
 30
0.0
 11
202.2174696527
 21
653.067287777
 31
0.0
  0
LINE
  5
497
  8
SLD-0
  6
CONTINUOUS
 62
     7
 10
201.3174693189
 20
653.717287837
 30
0.0
 11
201.3174693189
 21
650.3172878501
 31
0.0
  0
LINE
  5
498
  8
SLD-0
  6
CONTINUOUS
 62
     7
 10
203.81747066
 20
653.067287777
 30
0.0
 11
203.81747066
 21
652.5672879279
 31
0.0
  0
LINE
  5
499
  8
SLD-0
  6
CONTINUOUS
 62
     7
 10
208.9174713097
 20
646.8672878318
 30
0.0
 11
208.9174713097
 21
649.5172878121
 31
0.0
  0
LINE
  5
49A
  8
SLD-0
  6
CONTINUOUS
 62
     7
 10
208.1674697898
 20
646.1172879417
 30
0.0
 11
208.9174713097
 21
646.8672878318
 31
0.0
  0
LINE
  5
49B
  8
SLD-0
  6
CONTINUOUS
 62
     7
 10
206.2674711547
 20
646.1172879417
 30
0.0
 11
208.1674697898
 21
646.1172879417
 31
0.0
  0
LINE
  5
49C
  8
SLD-0
  6
CONTINUOUS
 62
     7
 10
206.2674711547
 20
646.1172879417
 30
0.0
 11
205.5174696348
 21
646.8672878318
 31
0.0
  0
LINE
  5
49D
  8
SLD-0
  6
CONTINUOUS
 62
     7
 10
205.5174696348
 20
649.5172878121
 30
0.0
 11
205.5174696348
 21
646.8672878318
 31
0.0
  0
LINE
  5
49E
  8
SLD-0
  6
CONTINUOUS
 62
     7
 10
208.9174713097
 20
649.5172878121
 30
0.0
 11
205.5174696348
 21
649.5172878121
 31
0.0
  0
LINE
  5
49F
  8
SLD-0
  6
CONTINUOUS
 62
     7
 10
206.3174720011
 20
647.8672877629
 30
0.0
 11
206.3174720011
 21
648.3672878448
 31
0.0
  0
LINE
  5
4A0
  8
SLD-0
  6
CONTINUOUS
 62
     7
 10
206.4174699686
 20
647.8672877629
 30
0.0
 11
206.3174720011
 21
647.8672877629
 31
0.0
  0
LINE
  5
4A1
  8
SLD-0
  6
CONTINUOUS
 62
     7
 10
206.4174699686
 20
647.2172879357
 30
0.0
 11
206.4174699686
 21
647.8672877629
 31
0.0
  0
LINE
  5
4A2
  8
SLD-0
  6
CONTINUOUS
 62
     7
 10
206.7424717448
 20
647.2172879357
 30
0.0
 11
206.4174699686
 21
647.2172879357
 31
0.0
  0
LINE
  5
4A3
  8
SLD-0
  6
CONTINUOUS
 62
     7
 10
206.8424697123
 20
647.1172878728
 30
0.0
 11
206.7424717448
 21
647.2172879357
 31
0.0
  0
LINE
  5
4A4
  8
SLD-0
  6
CONTINUOUS
 62
     7
 10
207.5924712322
 20
647.1172878728
 30
0.0
 11
206.8424697123
 21
647.1172878728
 31
0.0
  0
LINE
  5
4A5
  8
SLD-0
  6
CONTINUOUS
 62
     7
 10
207.6924691997
 20
647.2172879357
 30
0.0
 11
207.5924712322
 21
647.1172878728
 31
0.0
  0
LINE
  5
4A6
  8
SLD-0
  6
CONTINUOUS
 62
     7
 10
208.0174709759
 20
647.2172879357
 30
0.0
 11
207.6924691997
 21
647.2172879357
 31
0.0
  0
LINE
  5
4A7
  8
SLD-0
  6
CONTINUOUS
 62
     7
 10
208.0174709759
 20
647.8672877629
 30
0.0
 11
208.0174709759
 21
647.2172879357
 31
0.0
  0
LINE
  5
4A8
  8
SLD-0
  6
CONTINUOUS
 62
     7
 10
208.1174689434
 20
647.8672877629
 30
0.0
 11
208.0174709759
 21
647.8672877629
 31
0.0
  0
LINE
  5
4A9
  8
SLD-0
  6
CONTINUOUS
 62
     7
 10
208.0174709759
 20
648.3672878448
 30
0.0
 11
208.1174689434
 21
648.3672878448
 31
0.0
  0
LINE
  5
4AA
  8
SLD-0
  6
CONTINUOUS
 62
     7
 10
208.0174709759
 20
648.8672878104
 30
0.0
 11
208.0174709759
 21
648.3672878448
 31
0.0
  0
LINE
  5
4AB
  8
SLD-0
  6
CONTINUOUS
 62
     7
 10
208.0174709759
 20
648.8672878104
 30
0.0
 11
206.4174699686
 21
648.8672878104
 31
0.0
  0
LINE
  5
4AC
  8
SLD-0
  6
CONTINUOUS
 62
     7
 10
206.4174699686
 20
648.3672878448
 30
0.0
 11
206.4174699686
 21
648.8672878104
 31
0.0
  0
LINE
  5
4AD
  8
SLD-0
  6
CONTINUOUS
 62
     7
 10
206.3174720011
 20
648.3672878448
 30
0.0
 11
206.4174699686
 21
648.3672878448
 31
0.0
  0
LINE
  5
4AE
  8
SLD-0
  6
CONTINUOUS
 62
     7
 10
208.1174689434
 20
648.3672878448
 30
0.0
 11
208.1174689434
 21
647.8672877629
 31
0.0
  0
LINE
  5
4AF
  8
SLD-0
  6
CONTINUOUS
 62
     7
 10
203.9674694739
 20
646.1172879417
 30
0.0
 11
204.7174709938
 21
646.8672878318
 31
0.0
  0
LINE
  5
4B0
  8
SLD-0
  6
CONTINUOUS
 62
     7
 10
202.0674708388
 20
646.1172879417
 30
0.0
 11
203.9674694739
 21
646.1172879417
 31
0.0
  0
LINE
  5
4B1
  8
SLD-0
  6
CONTINUOUS
 62
     7
 10
202.0674708388
 20
646.1172879417
 30
0.0
 11
201.3174693189
 21
646.8672878318
 31
0.0
  0
LINE
  5
4B2
  8
SLD-0
  6
CONTINUOUS
 62
     7
 10
201.3174693189
 20
649.5172878121
 30
0.0
 11
201.3174693189
 21
646.8672878318
 31
0.0
  0
LINE
  5
4B3
  8
SLD-0
  6
CONTINUOUS
 62
     7
 10
202.1174716852
 20
647.8672877629
 30
0.0
 11
202.1174716852
 21
648.3672878448
 31
0.0
  0
LINE
  5
4B4
  8
SLD-0
  6
CONTINUOUS
 62
     7
 10
202.5424714289
 20
647.2172879357
 30
0.0
 11
202.2174696527
 21
647.2172879357
 31
0.0
  0
LINE
  5
4B5
  8
SLD-0
  6
CONTINUOUS
 62
     7
 10
203.3924709163
 20
647.1172878728
 30
0.0
 11
202.6424693964
 21
647.1172878728
 31
0.0
  0
LINE
  5
4B6
  8
SLD-0
  6
CONTINUOUS
 62
     7
 10
203.81747066
 20
647.2172879357
 30
0.0
 11
203.4924726091
 21
647.2172879357
 31
0.0
  0
LINE
  5
4B7
  8
SLD-0
  6
CONTINUOUS
 62
     7
 10
203.9174723528
 20
648.3672878448
 30
0.0
 11
203.9174723528
 21
647.8672877629
 31
0.0
  0
LINE
  5
4B8
  8
SLD-0
  6
CONTINUOUS
 62
     7
 10
203.81747066
 20
648.8672878104
 30
0.0
 11
202.2174696527
 21
648.8672878104
 31
0.0
  0
LINE
  5
4B9
  8
SLD-0
  6
CONTINUOUS
 62
     7
 10
203.9174723528
 20
647.8672877629
 30
0.0
 11
203.81747066
 21
647.8672877629
 31
0.0
  0
LINE
  5
4BA
  8
SLD-0
  6
CONTINUOUS
 62
     7
 10
203.81747066
 20
647.8672877629
 30
0.0
 11
203.81747066
 21
647.2172879357
 31
0.0
  0
LINE
  5
4BB
  8
SLD-0
  6
CONTINUOUS
 62
     7
 10
202.2174696527
 20
648.3672878448
 30
0.0
 11
202.2174696527
 21
648.8672878104
 31
0.0
  0
LINE
  5
4BC
  8
SLD-0
  6
CONTINUOUS
 62
     7
 10
203.81747066
 20
648.8672878104
 30
0.0
 11
203.81747066
 21
648.3672878448
 31
0.0
  0
LINE
  5
4BD
  8
SLD-0
  6
CONTINUOUS
 62
     7
 10
202.1174716852
 20
648.3672878448
 30
0.0
 11
202.2174696527
 21
648.3672878448
 31
0.0
  0
LINE
  5
4BE
  8
SLD-0
  6
CONTINUOUS
 62
     7
 10
202.2174696527
 20
647.2172879357
 30
0.0
 11
202.2174696527
 21
647.8672877629
 31
0.0
  0
LINE
  5
4BF
  8
SLD-0
  6
CONTINUOUS
 62
     7
 10
202.2174696527
 20
647.8672877629
 30
0.0
 11
202.1174716852
 21
647.8672877629
 31
0.0
  0
LINE
  5
4C0
  8
SLD-0
  6
CONTINUOUS
 62
     7
 10
203.4924726091
 20
647.2172879357
 30
0.0
 11
203.3924709163
 21
647.1172878728
 31
0.0
  0
LINE
  5
4C1
  8
SLD-0
  6
CONTINUOUS
 62
     7
 10
202.6424693964
 20
647.1172878728
 30
0.0
 11
202.5424714289
 21
647.2172879357
 31
0.0
  0
LINE
  5
4C2
  8
SLD-0
  6
CONTINUOUS
 62
     7
 10
204.7174709938
 20
646.8672878318
 30
0.0
 11
204.7174709938
 21
649.5172878121
 31
0.0
  0
LINE
  5
4C3
  8
SLD-0
  6
CONTINUOUS
 62
     7
 10
204.7174709938
 20
649.5172878121
 30
0.0
 11
201.3174693189
 21
649.5172878121
 31
0.0
  0
LINE
  5
4C4
  8
SLD-0
  6
CONTINUOUS
 62
     7
 10
203.81747066
 20
648.3672878448
 30
0.0
 11
203.9174723528
 21
648.3672878448
 31
0.0
  0
LINE
  5
4C5
  8
SLD-0
  6
CONTINUOUS
 62
     7
 10
197.117469003
 20
646.1172879417
 30
0.0
 11
200.5174706779
 21
646.1172879417
 31
0.0
  0
LINE
  5
4C6
  8
SLD-0
  6
CONTINUOUS
 62
     7
 10
198.342471113
 20
647.2172879357
 30
0.0
 11
198.0174693368
 21
647.2172879357
 31
0.0
  0
LINE
  5
4C7
  8
SLD-0
  6
CONTINUOUS
 62
     7
 10
199.1924706004
 20
647.1172878728
 30
0.0
 11
198.4424690805
 21
647.1172878728
 31
0.0
  0
LINE
  5
4C8
  8
SLD-0
  6
CONTINUOUS
 62
     7
 10
199.6174703441
 20
647.2172879357
 30
0.0
 11
199.2924722932
 21
647.2172879357
 31
0.0
  0
LINE
  5
4C9
  8
SLD-0
  6
CONTINUOUS
 62
     7
 10
199.7174720369
 20
647.8672877629
 30
0.0
 11
199.6174703441
 21
647.8672877629
 31
0.0
  0
LINE
  5
4CA
  8
SLD-0
  6
CONTINUOUS
 62
     7
 10
199.6174703441
 20
647.8672877629
 30
0.0
 11
199.6174703441
 21
647.2172879357
 31
0.0
  0
LINE
  5
4CB
  8
SLD-0
  6
CONTINUOUS
 62
     7
 10
197.9174713693
 20
648.3672878448
 30
0.0
 11
198.0174693368
 21
648.3672878448
 31
0.0
  0
LINE
  5
4CC
  8
SLD-0
  6
CONTINUOUS
 62
     7
 10
200.5174706779
 20
649.5172878121
 30
0.0
 11
197.117469003
 21
649.5172878121
 31
0.0
  0
LINE
  5
4CD
  8
SLD-0
  6
CONTINUOUS
 62
     7
 10
199.6174703441
 20
648.3672878448
 30
0.0
 11
199.7174720369
 21
648.3672878448
 31
0.0
  0
LINE
  5
4CE
  8
SLD-0
  6
CONTINUOUS
 62
     7
 10
197.9174713693
 20
647.8672877629
 30
0.0
 11
197.9174713693
 21
648.3672878448
 31
0.0
  0
LINE
  5
4CF
  8
SLD-0
  6
CONTINUOUS
 62
     7
 10
198.4424690805
 20
647.1172878728
 30
0.0
 11
198.342471113
 21
647.2172879357
 31
0.0
  0
LINE
  5
4D0
  8
SLD-0
  6
CONTINUOUS
 62
     7
 10
198.0174693368
 20
647.8672877629
 30
0.0
 11
197.9174713693
 21
647.8672877629
 31
0.0
  0
LINE
  5
4D1
  8
SLD-0
  6
CONTINUOUS
 62
     7
 10
199.6174703441
 20
648.8672878104
 30
0.0
 11
198.0174693368
 21
648.8672878104
 31
0.0
  0
LINE
  5
4D2
  8
SLD-0
  6
CONTINUOUS
 62
     7
 10
199.7174720369
 20
648.3672878448
 30
0.0
 11
199.7174720369
 21
647.8672877629
 31
0.0
  0
LINE
  5
4D3
  8
SLD-0
  6
CONTINUOUS
 62
     7
 10
198.0174693368
 20
647.2172879357
 30
0.0
 11
198.0174693368
 21
647.8672877629
 31
0.0
  0
LINE
  5
4D4
  8
SLD-0
  6
CONTINUOUS
 62
     7
 10
199.2924722932
 20
647.2172879357
 30
0.0
 11
199.1924706004
 21
647.1172878728
 31
0.0
  0
LINE
  5
4D5
  8
SLD-0
  6
CONTINUOUS
 62
     7
 10
200.5174706779
 20
646.1172879417
 30
0.0
 11
200.5174706779
 21
649.5172878121
 31
0.0
  0
LINE
  5
4D6
  8
SLD-0
  6
CONTINUOUS
 62
     7
 10
197.117469003
 20
649.5172878121
 30
0.0
 11
197.117469003
 21
646.1172879417
 31
0.0
  0
LINE
  5
4D7
  8
SLD-0
  6
CONTINUOUS
 62
     7
 10
199.6174703441
 20
648.8672878104
 30
0.0
 11
199.6174703441
 21
648.3672878448
 31
0.0
  0
LINE
  5
4D8
  8
SLD-0
  6
CONTINUOUS
 62
     7
 10
198.0174693368
 20
648.3672878448
 30
0.0
 11
198.0174693368
 21
648.8672878104
 31
0.0
  0
LINE
  5
4D9
  8
SLD-0
  6
CONTINUOUS
 62
     7
 10
204.5174713335
 20
657.617287964
 30
0.0
 11
201.5174689792
 21
657.617287964
 31
0.0
  0
LINE
  5
4DA
  8
SLD-0
  6
CONTINUOUS
 62
     7
 10
204.5174713335
 20
658.3172877063
 30
0.0
 11
201.5174689792
 21
658.3172877063
 31
0.0
  0
LINE
  5
4DB
  8
SLD-0
  6
CONTINUOUS
 62
     7
 10
204.5174713335
 20
658.3172877063
 30
0.0
 11
204.5174713335
 21
657.617287964
 31
0.0
  0
LINE
  5
4DC
  8
SLD-0
  6
CONTINUOUS
 62
     7
 10
201.5174689792
 20
657.617287964
 30
0.0
 11
201.5174689792
 21
658.3172877063
 31
0.0
  0
LINE
  5
4DD
  8
SLD-0
  6
CONTINUOUS
 62
     7
 10
204.5174713335
 20
654.8172880639
 30
0.0
 11
201.5174689792
 21
654.8172880639
 31
0.0
  0
LINE
  5
4DE
  8
SLD-0
  6
CONTINUOUS
 62
     7
 10
201.5174689792
 20
656.3172878441
 30
0.0
 11
204.5174713335
 21
656.3172878441
 31
0.0
  0
LINE
  5
4DF
  8
SLD-0
  6
CONTINUOUS
 62
     7
 10
204.5174713335
 20
654.8172880639
 30
0.0
 11
204.5174713335
 21
656.3172878441
 31
0.0
  0
LINE
  5
4E0
  8
SLD-0
  6
CONTINUOUS
 62
     7
 10
201.5174689792
 20
656.3172878441
 30
0.0
 11
201.5174689792
 21
654.8172880639
 31
0.0
  0
LINE
  5
4E1
  8
SLD-0
  6
CONTINUOUS
 62
     7
 10
204.5174713335
 20
657.617287964
 30
0.0
 11
204.5174713335
 21
656.3172878441
 31
0.0
  0
LINE
  5
4E2
  8
SLD-0
  6
CONTINUOUS
 62
     7
 10
201.5174689792
 20
656.3172878441
 30
0.0
 11
201.5174689792
 21
657.617287964
 31
0.0
  0
LINE
  5
4E3
  8
SLD-0
  6
CONTINUOUS
 62
     7
 10
199.5674694977
 20
653.067287777
 30
0.0
 11
199.5674694977
 21
652.5672879279
 31
0.0
  0
LINE
  5
4E4
  8
SLD-0
  6
CONTINUOUS
 62
     7
 10
199.5674694977
 20
652.5672879279
 30
0.0
 11
199.6174703441
 21
652.5672879279
 31
0.0
  0
LINE
  5
4E5
  8
SLD-0
  6
CONTINUOUS
 62
     7
 10
207.9674701295
 20
653.067287777
 30
0.0
 11
207.9674701295
 21
652.5672879279
 31
0.0
  0
LINE
  5
4E6
  8
SLD-0
  6
CONTINUOUS
 62
     7
 10
207.9674701295
 20
652.5672879279
 30
0.0
 11
208.0174709759
 21
652.5672879279
 31
0.0
  0
LINE
  5
4E7
  8
SLD-0
  6
CONTINUOUS
 62
     7
 10
203.7674698136
 20
653.067287777
 30
0.0
 11
203.7674698136
 21
652.5672879279
 31
0.0
  0
LINE
  5
4E8
  8
SLD-0
  6
CONTINUOUS
 62
     7
 10
203.7674698136
 20
652.5672879279
 30
0.0
 11
203.81747066
 21
652.5672879279
 31
0.0
  0
LINE
  5
4E9
  8
SLD-0
  6
CONTINUOUS
 62
     7
 10
206.467470815
 20
653.067287777
 30
0.0
 11
206.467470815
 21
652.5672879279
 31
0.0
  0
LINE
  5
4EA
  8
SLD-0
  6
CONTINUOUS
 62
     7
 10
206.467470815
 20
652.5672879279
 30
0.0
 11
206.4174699686
 21
652.5672879279
 31
0.0
  0
LINE
  5
4EB
  8
SLD-0
  6
CONTINUOUS
 62
     7
 10
198.0674701832
 20
653.067287777
 30
0.0
 11
198.0674701832
 21
652.5672879279
 31
0.0
  0
LINE
  5
4EC
  8
SLD-0
  6
CONTINUOUS
 62
     7
 10
198.0674701832
 20
652.5672879279
 30
0.0
 11
198.0174693368
 21
652.5672879279
 31
0.0
  0
LINE
  5
4ED
  8
SLD-0
  6
CONTINUOUS
 62
     7
 10
202.2674704991
 20
653.067287777
 30
0.0
 11
202.2674704991
 21
652.5672879279
 31
0.0
  0
LINE
  5
4EE
  8
SLD-0
  6
CONTINUOUS
 62
     7
 10
202.2674704991
 20
652.5672879279
 30
0.0
 11
202.2174696527
 21
652.5672879279
 31
0.0
  0
LINE
  5
4EF
  8
SLD-0
  6
CONTINUOUS
 62
     7
 10
206.9174709819
 20
645.2172876079
 30
0.0
 11
206.9674707792
 21
645.2172878359
 31
0.0
  0
LINE
  5
4F0
  8
SLD-0
  6
CONTINUOUS
 62
     7
 10
206.4174707792
 20
645.2172878359
 30
0.0
 11
203.5424697302
 21
645.2172876079
 31
0.0
  0
LINE
  5
4F1
  8
SLD-0
  6
CONTINUOUS
 62
     7
 10
202.9924715958
 20
645.2172876079
 30
0.0
 11
203.0424707792
 21
645.2172878359
 31
0.0
  0
LINE
  5
4F2
  8
SLD-0
  6
CONTINUOUS
 62
     7
 10
202.4924707792
 20
645.2172878359
 30
0.0
 11
199.0674722097
 21
645.2172876079
 31
0.0
  0
LINE
  5
4F3
  8
SLD-0
  6
CONTINUOUS
 62
     7
 10
196.1174707017
 20
645.2172876079
 30
0.0
 11
198.5674707792
 21
645.2172878359
 31
0.0
  0
LINE
  5
4F4
  8
SLD-0
  6
CONTINUOUS
 62
     7
 10
209.917469611
 20
645.2172876079
 30
0.0
 11
208.0174709759
 21
645.2172876079
 31
0.0
  0
LINE
  5
4F5
  8
SLD-0
  6
CONTINUOUS
 62
     7
 10
207.4674707792
 20
645.2172878359
 30
0.0
 11
207.5174707792
 21
645.2172878359
 31
0.0
  0
LINE
  5
4F6
  8
SLD-0
  6
CONTINUOUS
 62
     7
 10
209.917469611
 20
654.8172880639
 30
0.0
 11
209.917469611
 21
645.2172876079
 31
0.0
  0
LINE
  5
4F7
  8
SLD-0
  6
CONTINUOUS
 62
     7
 10
196.1174707017
 20
654.8172880639
 30
0.0
 11
201.5174689792
 21
654.8172880639
 31
0.0
  0
LINE
  5
4F8
  8
SLD-0
  6
CONTINUOUS
 62
     7
 10
204.5174713335
 20
654.8172880639
 30
0.0
 11
209.917469611
 21
654.8172880639
 31
0.0
  0
LINE
  5
4F9
  8
SLD-0
  6
CONTINUOUS
 62
     7
 10
196.1174707017
 20
654.8172880639
 30
0.0
 11
196.1174707017
 21
645.2172876079
 31
0.0
  0
LINE
  5
4FA
  8
SLD-0
  6
CONTINUOUS
 62
     7
 10
198.0674701832
 20
648.8672878104
 30
0.0
 11
198.0674701832
 21
648.3672878448
 31
0.0
  0
LINE
  5
4FB
  8
SLD-0
  6
CONTINUOUS
 62
     7
 10
198.0674701832
 20
648.3672878448
 30
0.0
 11
198.0174693368
 21
648.3672878448
 31
0.0
  0
LINE
  5
4FC
  8
SLD-0
  6
CONTINUOUS
 62
     7
 10
206.467470815
 20
651.6922877845
 30
0.0
 11
206.467470815
 21
652.067287846
 31
0.0
  0
LINE
  5
4FD
  8
SLD-0
  6
CONTINUOUS
 62
     7
 10
206.467470815
 20
651.6922877845
 30
0.0
 11
206.7424717448
 21
651.417287786
 31
0.0
  0
LINE
  5
4FE
  8
SLD-0
  6
CONTINUOUS
 62
     7
 10
206.467470815
 20
652.067287846
 30
0.0
 11
206.4174699686
 21
652.067287846
 31
0.0
  0
LINE
  5
4FF
  8
SLD-0
  6
CONTINUOUS
 62
     7
 10
206.467470815
 20
647.4922879342
 30
0.0
 11
206.467470815
 21
647.8672877629
 31
0.0
  0
LINE
  5
500
  8
SLD-0
  6
CONTINUOUS
 62
     7
 10
206.467470815
 20
647.8672877629
 30
0.0
 11
206.4174699686
 21
647.8672877629
 31
0.0
  0
LINE
  5
501
  8
SLD-0
  6
CONTINUOUS
 62
     7
 10
206.467470815
 20
647.4922879342
 30
0.0
 11
206.7424717448
 21
647.2172879357
 31
0.0
  0
LINE
  5
502
  8
SLD-0
  6
CONTINUOUS
 62
     7
 10
203.7674698136
 20
647.8672877629
 30
0.0
 11
203.7674698136
 21
647.4922879342
 31
0.0
  0
LINE
  5
503
  8
SLD-0
  6
CONTINUOUS
 62
     7
 10
203.81747066
 20
647.8672877629
 30
0.0
 11
203.7674698136
 21
647.8672877629
 31
0.0
  0
LINE
  5
504
  8
SLD-0
  6
CONTINUOUS
 62
     7
 10
203.7674698136
 20
647.4922879342
 30
0.0
 11
203.4924726091
 21
647.2172879357
 31
0.0
  0
LINE
  5
505
  8
SLD-0
  6
CONTINUOUS
 62
     7
 10
198.0674701832
 20
651.6922877845
 30
0.0
 11
198.0674701832
 21
652.067287846
 31
0.0
  0
LINE
  5
506
  8
SLD-0
  6
CONTINUOUS
 62
     7
 10
198.0674701832
 20
652.067287846
 30
0.0
 11
198.0174693368
 21
652.067287846
 31
0.0
  0
LINE
  5
507
  8
SLD-0
  6
CONTINUOUS
 62
     7
 10
198.0674701832
 20
651.6922877845
 30
0.0
 11
198.342471113
 21
651.417287786
 31
0.0
  0
LINE
  5
508
  8
SLD-0
  6
CONTINUOUS
 62
     7
 10
206.467470815
 20
648.8672878104
 30
0.0
 11
206.467470815
 21
648.3672878448
 31
0.0
  0
LINE
  5
509
  8
SLD-0
  6
CONTINUOUS
 62
     7
 10
206.467470815
 20
648.3672878448
 30
0.0
 11
206.4174699686
 21
648.3672878448
 31
0.0
  0
LINE
  5
50A
  8
SLD-0
  6
CONTINUOUS
 62
     7
 10
207.9674701295
 20
648.8672878104
 30
0.0
 11
207.9674701295
 21
648.3672878448
 31
0.0
  0
LINE
  5
50B
  8
SLD-0
  6
CONTINUOUS
 62
     7
 10
207.9674701295
 20
648.3672878448
 30
0.0
 11
208.0174709759
 21
648.3672878448
 31
0.0
  0
LINE
  5
50C
  8
SLD-0
  6
CONTINUOUS
 62
     7
 10
203.7674698136
 20
652.067287846
 30
0.0
 11
203.7674698136
 21
651.6922877845
 31
0.0
  0
LINE
  5
50D
  8
SLD-0
  6
CONTINUOUS
 62
     7
 10
203.81747066
 20
652.067287846
 30
0.0
 11
203.7674698136
 21
652.067287846
 31
0.0
  0
LINE
  5
50E
  8
SLD-0
  6
CONTINUOUS
 62
     7
 10
203.7674698136
 20
651.6922877845
 30
0.0
 11
203.4924726091
 21
651.417287786
 31
0.0
  0
LINE
  5
50F
  8
SLD-0
  6
CONTINUOUS
 62
     7
 10
207.9674701295
 20
652.067287846
 30
0.0
 11
207.9674701295
 21
651.6922877845
 31
0.0
  0
LINE
  5
510
  8
SLD-0
  6
CONTINUOUS
 62
     7
 10
208.0174709759
 20
652.067287846
 30
0.0
 11
207.9674701295
 21
652.067287846
 31
0.0
  0
LINE
  5
511
  8
SLD-0
  6
CONTINUOUS
 62
     7
 10
207.9674701295
 20
651.6922877845
 30
0.0
 11
207.6924691997
 21
651.417287786
 31
0.0
  0
LINE
  5
512
  8
SLD-0
  6
CONTINUOUS
 62
     7
 10
203.7674698136
 20
648.8672878104
 30
0.0
 11
203.7674698136
 21
648.3672878448
 31
0.0
  0
LINE
  5
513
  8
SLD-0
  6
CONTINUOUS
 62
     7
 10
203.7674698136
 20
648.3672878448
 30
0.0
 11
203.81747066
 21
648.3672878448
 31
0.0
  0
LINE
  5
514
  8
SLD-0
  6
CONTINUOUS
 62
     7
 10
207.9674701295
 20
647.8672877629
 30
0.0
 11
207.9674701295
 21
647.4922879342
 31
0.0
  0
LINE
  5
515
  8
SLD-0
  6
CONTINUOUS
 62
     7
 10
208.0174709759
 20
647.8672877629
 30
0.0
 11
207.9674701295
 21
647.8672877629
 31
0.0
  0
LINE
  5
516
  8
SLD-0
  6
CONTINUOUS
 62
     7
 10
207.9674701295
 20
647.4922879342
 30
0.0
 11
207.6924691997
 21
647.2172879357
 31
0.0
  0
LINE
  5
517
  8
SLD-0
  6
CONTINUOUS
 62
     7
 10
202.2674704991
 20
647.4922879342
 30
0.0
 11
202.2674704991
 21
647.8672877629
 31
0.0
  0
LINE
  5
518
  8
SLD-0
  6
CONTINUOUS
 62
     7
 10
202.2674704991
 20
647.8672877629
 30
0.0
 11
202.2174696527
 21
647.8672877629
 31
0.0
  0
LINE
  5
519
  8
SLD-0
  6
CONTINUOUS
 62
     7
 10
202.2674704991
 20
647.4922879342
 30
0.0
 11
202.5424714289
 21
647.2172879357
 31
0.0
  0
LINE
  5
51A
  8
SLD-0
  6
CONTINUOUS
 62
     7
 10
199.5674694977
 20
648.8672878104
 30
0.0
 11
199.5674694977
 21
648.3672878448
 31
0.0
  0
LINE
  5
51B
  8
SLD-0
  6
CONTINUOUS
 62
     7
 10
199.5674694977
 20
648.3672878448
 30
0.0
 11
199.6174703441
 21
648.3672878448
 31
0.0
  0
LINE
  5
51C
  8
SLD-0
  6
CONTINUOUS
 62
     7
 10
199.5674694977
 20
647.8672877629
 30
0.0
 11
199.5674694977
 21
647.4922879342
 31
0.0
  0
LINE
  5
51D
  8
SLD-0
  6
CONTINUOUS
 62
     7
 10
199.6174703441
 20
647.8672877629
 30
0.0
 11
199.5674694977
 21
647.8672877629
 31
0.0
  0
LINE
  5
51E
  8
SLD-0
  6
CONTINUOUS
 62
     7
 10
199.5674694977
 20
647.4922879342
 30
0.0
 11
199.2924722932
 21
647.2172879357
 31
0.0
  0
LINE
  5
51F
  8
SLD-0
  6
CONTINUOUS
 62
     7
 10
198.0674701832
 20
647.4922879342
 30
0.0
 11
198.0674701832
 21
647.8672877629
 31
0.0
  0
LINE
  5
520
  8
SLD-0
  6
CONTINUOUS
 62
     7
 10
198.0674701832
 20
647.4922879342
 30
0.0
 11
198.342471113
 21
647.2172879357
 31
0.0
  0
LINE
  5
521
  8
SLD-0
  6
CONTINUOUS
 62
     7
 10
198.0674701832
 20
647.8672877629
 30
0.0
 11
198.0174693368
 21
647.8672877629
 31
0.0
  0
LINE
  5
522
  8
SLD-0
  6
CONTINUOUS
 62
     7
 10
202.2674704991
 20
651.6922877845
 30
0.0
 11
202.2674704991
 21
652.067287846
 31
0.0
  0
LINE
  5
523
  8
SLD-0
  6
CONTINUOUS
 62
     7
 10
202.2674704991
 20
651.6922877845
 30
0.0
 11
202.5424714289
 21
651.417287786
 31
0.0
  0
LINE
  5
524
  8
SLD-0
  6
CONTINUOUS
 62
     7
 10
202.2674704991
 20
652.067287846
 30
0.0
 11
202.2174696527
 21
652.067287846
 31
0.0
  0
LINE
  5
525
  8
SLD-0
  6
CONTINUOUS
 62
     7
 10
202.2674704991
 20
648.8672878104
 30
0.0
 11
202.2674704991
 21
648.3672878448
 31
0.0
  0
LINE
  5
526
  8
SLD-0
  6
CONTINUOUS
 62
     7
 10
202.2674704991
 20
648.3672878448
 30
0.0
 11
202.2174696527
 21
648.3672878448
 31
0.0
  0
LINE
  5
527
  8
SLD-0
  6
CONTINUOUS
 62
     7
 10
199.5674694977
 20
652.067287846
 30
0.0
 11
199.5674694977
 21
651.6922877845
 31
0.0
  0
LINE
  5
528
  8
SLD-0
  6
CONTINUOUS
 62
     7
 10
199.6174703441
 20
652.067287846
 30
0.0
 11
199.5674694977
 21
652.067287846
 31
0.0
  0
LINE
  5
529
  8
SLD-0
  6
CONTINUOUS
 62
     7
 10
199.5674694977
 20
651.6922877845
 30
0.0
 11
199.2924722932
 21
651.417287786
 31
0.0
  0
LINE
  5
52A
  8
SLD-0
  6
CONTINUOUS
 62
     7
 10
200.3174710176
 20
655.1172880199
 30
0.0
 11
201.5174689792
 21
655.1172880199
 31
0.0
  0
LINE
  5
52B
  8
SLD-0
  6
CONTINUOUS
 62
     7
 10
200.3174710176
 20
655.1172880199
 30
0.0
 11
200.3174710176
 21
654.8172880639
 31
0.0
  0
LINE
  5
52C
  8
SLD-0
  6
CONTINUOUS
 62
     7
 10
204.5174713335
 20
655.1172880199
 30
0.0
 11
205.7174692951
 21
655.1172880199
 31
0.0
  0
LINE
  5
52D
  8
SLD-0
  6
CONTINUOUS
 62
     7
 10
205.7174692951
 20
654.8172880639
 30
0.0
 11
205.7174692951
 21
655.1172880199
 31
0.0
  0
LINE
  5
52E
  8
SLD-0
  6
CONTINUOUS
 62
     7
 10
198.0674701832
 20
652.067287846
 30
0.0
 11
198.0674701832
 21
652.5672879279
 31
0.0
  0
LINE
  5
52F
  8
SLD-0
  6
CONTINUOUS
 62
     7
 10
202.2674704991
 20
652.067287846
 30
0.0
 11
202.2674704991
 21
652.5672879279
 31
0.0
  0
LINE
  5
530
  8
SLD-0
  6
CONTINUOUS
 62
     7
 10
199.5674694977
 20
652.5672879279
 30
0.0
 11
199.5674694977
 21
652.067287846
 31
0.0
  0
LINE
  5
531
  8
SLD-0
  6
CONTINUOUS
 62
     7
 10
206.467470815
 20
652.067287846
 30
0.0
 11
206.467470815
 21
652.5672879279
 31
0.0
  0
LINE
  5
532
  8
SLD-0
  6
CONTINUOUS
 62
     7
 10
207.9674701295
 20
652.5672879279
 30
0.0
 11
207.9674701295
 21
652.067287846
 31
0.0
  0
LINE
  5
533
  8
SLD-0
  6
CONTINUOUS
 62
     7
 10
202.2674704991
 20
647.8672877629
 30
0.0
 11
202.2674704991
 21
648.3672878448
 31
0.0
  0
LINE
  5
534
  8
SLD-0
  6
CONTINUOUS
 62
     7
 10
206.467470815
 20
647.8672877629
 30
0.0
 11
206.467470815
 21
648.3672878448
 31
0.0
  0
LINE
  5
535
  8
SLD-0
  6
CONTINUOUS
 62
     7
 10
198.0674701832
 20
647.8672877629
 30
0.0
 11
198.0674701832
 21
648.3672878448
 31
0.0
  0
LINE
  5
536
  8
SLD-0
  6
CONTINUOUS
 62
     7
 10
199.5674694977
 20
648.3672878448
 30
0.0
 11
199.5674694977
 21
647.8672877629
 31
0.0
  0
LINE
  5
537
  8
SLD-0
  6
CONTINUOUS
 62
     7
 10
203.7674698136
 20
648.3672878448
 30
0.0
 11
203.7674698136
 21
647.8672877629
 31
0.0
  0
LINE
  5
538
  8
SLD-0
  6
CONTINUOUS
 62
     7
 10
207.9674701295
 20
648.3672878448
 30
0.0
 11
207.9674701295
 21
647.8672877629
 31
0.0
  0
LINE
  5
539
  8
SLD-0
  6
CONTINUOUS
 62
     7
 10
203.7674698136
 20
652.5672879279
 30
0.0
 11
203.7674698136
 21
652.067287846
 31
0.0
  0
LINE
  5
53A
  8
SLD-0
  6
CONTINUOUS
 62
     7
 10
200.3174710176
 20
657.617287964
 30
0.0
 11
201.5174689792
 21
657.617287964
 31
0.0
  0
LINE
  5
53B
  8
SLD-0
  6
CONTINUOUS
 62
     7
 10
200.3174710176
 20
657.617287964
 30
0.0
 11
200.3174710176
 21
655.1172880199
 31
0.0
  0
LINE
  5
53C
  8
SLD-0
  6
CONTINUOUS
 62
     7
 10
205.7174692951
 20
657.617287964
 30
0.0
 11
204.5174713335
 21
657.617287964
 31
0.0
  0
LINE
  5
53D
  8
SLD-0
  6
CONTINUOUS
 62
     7
 10
205.7174692951
 20
655.1172880199
 30
0.0
 11
205.7174692951
 21
657.617287964
 31
0.0
  0
LINE
  5
53E
  8
SLD-0
  6
CONTINUOUS
 62
     7
 10
205.7174692951
 20
658.3172877063
 30
0.0
 11
204.5174713335
 21
658.3172877063
 31
0.0
  0
LINE
  5
53F
  8
SLD-0
  6
CONTINUOUS
 62
     7
 10
205.7174692951
 20
657.617287964
 30
0.0
 11
205.7174692951
 21
658.3172877063
 31
0.0
  0
LINE
  5
540
  8
SLD-0
  6
CONTINUOUS
 62
     7
 10
201.5174689792
 20
658.3172877063
 30
0.0
 11
200.3174710176
 21
658.3172877063
 31
0.0
  0
LINE
  5
541
  8
SLD-0
  6
CONTINUOUS
 62
     7
 10
200.3174710176
 20
658.3172877063
 30
0.0
 11
200.3174710176
 21
657.617287964
 31
0.0
  0
LINE
  5
542
  8
SLD-0
  6
CONTINUOUS
 62
     7
 10
205.7174692951
 20
658.617288128
 30
0.0
 11
200.3174710176
 21
658.617288128
 31
0.0
  0
LINE
  5
543
  8
SLD-0
  6
CONTINUOUS
 62
     7
 10
205.7174692951
 20
658.617288128
 30
0.0
 11
205.7174692951
 21
658.3172877063
 31
0.0
  0
LINE
  5
544
  8
SLD-0
  6
CONTINUOUS
 62
     7
 10
200.3174710176
 20
658.3172877063
 30
0.0
 11
200.3174710176
 21
658.617288128
 31
0.0
  0
LINE
  5
545
  8
SLD-0
  6
CONTINUOUS
 62
     7
 10
199.5174723766
 20
654.8172880639
 30
0.0
 11
199.5174723766
 21
655.8172877621
 31
0.0
  0
LINE
  5
546
  8
SLD-0
  6
CONTINUOUS
 62
     7
 10
196.1174707017
 20
655.8172877621
 30
0.0
 11
199.5174723766
 21
655.8172877621
 31
0.0
  0
LINE
  5
547
  8
SLD-0
  6
CONTINUOUS
 62
     7
 10
196.1174707017
 20
654.8172880639
 30
0.0
 11
196.1174707017
 21
655.8172877621
 31
0.0
  0
LINE
  5
548
  8
SLD-0
  6
CONTINUOUS
 62
     7
 10
206.5174716614
 20
654.8172880639
 30
0.0
 11
206.5174716614
 21
655.8172877621
 31
0.0
  0
LINE
  5
549
  8
SLD-0
  6
CONTINUOUS
 62
     7
 10
206.5174716614
 20
655.8172877621
 30
0.0
 11
209.917469611
 21
655.8172877621
 31
0.0
  0
LINE
  5
54A
  8
SLD-0
  6
CONTINUOUS
 62
     7
 10
209.917469611
 20
654.8172880639
 30
0.0
 11
209.917469611
 21
655.8172877621
 31
0.0
  0
LINE
  5
54B
  8
SLD-0
  6
CONTINUOUS
 62
     7
 10
209.917469611
 20
644.2172879097
 30
0.0
 11
196.1174707017
 21
644.2172879097
 31
0.0
  0
LINE
  5
54C
  8
SLD-0
  6
CONTINUOUS
 62
     7
 10
209.917469611
 20
645.2172876079
 30
0.0
 11
209.917469611
 21
644.2172879097
 31
0.0
  0
LINE
  5
54D
  8
SLD-0
  6
CONTINUOUS
 62
     7
 10
196.1174707017
 20
644.2172879097
 30
0.0
 11
196.1174707017
 21
645.2172876079
 31
0.0
  0
LINE
  5
54E
  8
SLD-0
  6
CONTINUOUS
 62
     7
 10
189.3174710772
 20
637.0172875677
 30
0.0
 11
177.3174691103
 21
637.0172875677
 31
0.0
  0
LINE
  5
54F
  8
SLD-0
  6
CONTINUOUS
 62
     7
 10
177.3174691103
 20
637.0172875677
 30
0.0
 11
177.3174691103
 21
643.9172879536
 31
0.0
  0
LINE
  5
550
  8
SLD-0
  6
CONTINUOUS
 62
     7
 10
177.3174691103
 20
656.1172877182
 30
0.0
 11
177.3174691103
 21
663.0172881041
 31
0.0
  0
LINE
  5
551
  8
SLD-0
  6
CONTINUOUS
 62
     7
 10
177.3174691103
 20
663.0172881041
 30
0.0
 11
189.3174710772
 21
663.0172881041
 31
0.0
  0
LINE
  5
552
  8
SLD-0
  6
CONTINUOUS
 62
     7
 10
189.3174710772
 20
637.0172875677
 30
0.0
 11
189.3174710772
 21
643.9172879536
 31
0.0
  0
LINE
  5
553
  8
SLD-0
  6
CONTINUOUS
 62
     7
 10
189.3174710772
 20
656.1172877182
 30
0.0
 11
189.3174710772
 21
663.0172881041
 31
0.0
  0
LINE
  5
554
  8
SLD-0
  6
CONTINUOUS
 62
     7
 10
186.9674707224
 20
653.1172894778
 30
0.0
 11
178.0674728026
 21
653.1172894778
 31
0.0
  0
LINE
  5
555
  8
SLD-0
  6
CONTINUOUS
 62
     7
 10
188.8489248936
 20
651.6615142083
 30
0.0
 11
187.6711040792
 21
652.8278512412
 31
0.0
  0
LINE
  5
556
  8
SLD-0
  6
CONTINUOUS
 62
     7
 10
188.9674712111
 20
648.6572881599
 30
0.0
 11
188.9674693872
 21
651.3772881546
 31
0.0
  0
LINE
  5
557
  8
SLD-0
  6
CONTINUOUS
 62
     7
 10
187.6711052686
 20
647.2067257099
 30
0.0
 11
188.8489248695
 21
648.3730627961
 31
0.0
  0
LINE
  5
558
  8
SLD-0
  6
CONTINUOUS
 62
     7
 10
178.0674744
 20
646.9172877914
 30
0.0
 11
186.9674708237
 21
646.9172877914
 31
0.0
  0
LINE
  5
559
  8
SLD-0
  6
CONTINUOUS
 62
     7
 10
177.6674675844
 20
652.7172879059
 30
0.0
 11
177.6674707792
 21
647.3172878359
 31
0.0
  0
LINE
  5
55A
  8
SLD-0
  6
CONTINUOUS
 62
     7
 10
190.217471411
 20
647.5172878918
 30
0.0
 11
192.7174690268
 21
647.5172878918
 31
0.0
  0
LINE
  5
55B
  8
SLD-0
  6
CONTINUOUS
 62
     7
 10
190.217471411
 20
647.5172878918
 30
0.0
 11
190.217471411
 21
649.9922878365
 31
0.0
  0
LINE
  5
55C
  8
SLD-0
  6
CONTINUOUS
 62
     7
 10
192.7174690268
 20
649.9922878365
 30
0.0
 11
190.217471411
 21
649.9922878365
 31
0.0
  0
LINE
  5
55D
  8
SLD-0
  6
CONTINUOUS
 62
     7
 10
192.7174690268
 20
647.5172878918
 30
0.0
 11
192.7174690268
 21
649.9922878365
 31
0.0
  0
LINE
  5
55E
  8
SLD-0
  6
CONTINUOUS
 62
     7
 10
173.9174711607
 20
647.5172878918
 30
0.0
 11
176.4174687765
 21
647.5172878918
 31
0.0
  0
LINE
  5
55F
  8
SLD-0
  6
CONTINUOUS
 62
     7
 10
176.4174687765
 20
649.9922878365
 30
0.0
 11
173.9174711607
 21
649.9922878365
 31
0.0
  0
LINE
  5
560
  8
SLD-0
  6
CONTINUOUS
 62
     7
 10
176.4174687765
 20
647.5172878918
 30
0.0
 11
176.4174687765
 21
649.9922878365
 31
0.0
  0
LINE
  5
561
  8
SLD-0
  6
CONTINUOUS
 62
     7
 10
173.9174711607
 20
647.5172878918
 30
0.0
 11
173.9174711607
 21
649.9922878365
 31
0.0
  0
LINE
  5
562
  8
SLD-0
  6
CONTINUOUS
 62
     7
 10
176.4174687765
 20
652.51728778
 30
0.0
 11
173.9174711607
 21
652.51728778
 31
0.0
  0
LINE
  5
563
  8
SLD-0
  6
CONTINUOUS
 62
     7
 10
176.4174687765
 20
650.0422878353
 30
0.0
 11
176.4174687765
 21
652.51728778
 31
0.0
  0
LINE
  5
564
  8
SLD-0
  6
CONTINUOUS
 62
     7
 10
176.4174687765
 20
650.0422878353
 30
0.0
 11
173.9174711607
 21
650.0422878353
 31
0.0
  0
LINE
  5
565
  8
SLD-0
  6
CONTINUOUS
 62
     7
 10
173.9174711607
 20
650.0422878353
 30
0.0
 11
173.9174711607
 21
652.51728778
 31
0.0
  0
LINE
  5
566
  8
SLD-0
  6
CONTINUOUS
 62
     7
 10
192.7174690268
 20
652.51728778
 30
0.0
 11
190.217471411
 21
652.51728778
 31
0.0
  0
LINE
  5
567
  8
SLD-0
  6
CONTINUOUS
 62
     7
 10
190.217471411
 20
652.51728778
 30
0.0
 11
190.217471411
 21
650.0422878353
 31
0.0
  0
LINE
  5
568
  8
SLD-0
  6
CONTINUOUS
 62
     7
 10
192.7174690268
 20
650.0422878353
 30
0.0
 11
190.217471411
 21
650.0422878353
 31
0.0
  0
LINE
  5
569
  8
SLD-0
  6
CONTINUOUS
 62
     7
 10
192.7174690268
 20
652.51728778
 30
0.0
 11
192.7174690268
 21
650.0422878353
 31
0.0
  0
LINE
  5
56A
  8
SLD-0
  6
CONTINUOUS
 62
     7
 10
173.9174711607
 20
643.9172879536
 30
0.0
 11
192.7174690268
 21
643.9172879536
 31
0.0
  0
LINE
  5
56B
  8
SLD-0
  6
CONTINUOUS
 62
     7
 10
173.9174711607
 20
656.1172877182
 30
0.0
 11
192.7174690268
 21
656.1172877182
 31
0.0
  0
LINE
  5
56C
  8
SLD-0
  6
CONTINUOUS
 62
     7
 10
192.7174690268
 20
647.5172878918
 30
0.0
 11
192.7174690268
 21
643.9172879536
 31
0.0
  0
LINE
  5
56D
  8
SLD-0
  6
CONTINUOUS
 62
     7
 10
192.7174690268
 20
650.0422878353
 30
0.0
 11
192.7174690268
 21
649.9922878365
 31
0.0
  0
LINE
  5
56E
  8
SLD-0
  6
CONTINUOUS
 62
     7
 10
192.7174690268
 20
652.51728778
 30
0.0
 11
192.7174690268
 21
656.1172877182
 31
0.0
  0
LINE
  5
56F
  8
SLD-0
  6
CONTINUOUS
 62
     7
 10
173.9174711607
 20
652.51728778
 30
0.0
 11
173.9174711607
 21
656.1172877182
 31
0.0
  0
LINE
  5
570
  8
SLD-0
  6
CONTINUOUS
 62
     7
 10
173.9174711607
 20
650.0422878353
 30
0.0
 11
173.9174711607
 21
649.9922878365
 31
0.0
  0
LINE
  5
571
  8
SLD-0
  6
CONTINUOUS
 62
     7
 10
173.9174711607
 20
643.9172879536
 30
0.0
 11
173.9174711607
 21
647.5172878918
 31
0.0
  0
LINE
  5
572
  8
SLD-0
  6
CONTINUOUS
 62
     8
 10
201.3092476032
 20
667.21728842
 30
0.0
 11
195.5174707792
 21
667.2172878359
 31
0.0
  0
LINE
  5
573
  8
SLD-0
  6
CONTINUOUS
 62
     8
 10
202.5174708924
 20
667.21728842
 30
0.0
 11
201.6628000043
 21
667.21728842
 31
0.0
  0
ARC
  5
574
  8
SLD-0
  6
CONTINUOUS
 62
     7
 10
273.5947000744
 20
147.0587954545
 30
0.0
 40
100.0
 50
190.6506678105
 51
192.1223522448
  0
ARC
  5
575
  8
SLD-0
  6
CONTINUOUS
 62
     7
 10
273.5947000744
 20
147.0587954545
 30
0.0
 40
100.0
 50
167.8776477552
 51
169.3493321895
  0
ARC
  5
576
  8
SLD-0
  6
CONTINUOUS
 62
     7
 10
199.0174707792
 20
-118.8412045455
 30
0.0
 40
0.5
 50
180.0
 51
270.0
  0
ARC
  5
577
  8
SLD-0
  6
CONTINUOUS
 62
     7
 10
207.0174707792
 20
-118.8412045455
 30
0.0
 40
0.5
 50
270.0
 51
0.0
  0
ARC
  5
578
  8
SLD-0
  6
CONTINUOUS
 62
     7
 10
199.0174707792
 20
-119.8412045455
 30
0.0
 40
0.5000000000000142
 50
0.0
 51
90.0
  0
ARC
  5
579
  8
SLD-0
  6
CONTINUOUS
 62
     7
 10
207.0174707792
 20
-119.8412045455
 30
0.0
 40
0.5000000000000142
 50
90.0
 51
180.0
  0
ARC
  5
57A
  8
SLD-0
  6
CONTINUOUS
 62
     7
 10
273.5947000744
 20
147.0587954545
 30
0.0
 40
99.2030207852743
 50
167.7787610788
 51
171.0109769592
  0
ARC
  5
57B
  8
SLD-0
  6
CONTINUOUS
 62
     7
 10
273.5947000744
 20
147.0587954545
 30
0.0
 40
97.77013188104647
 50
172.5954868959
 51
189.9958085935
  0
CIRCLE
  5
57C
  8
SLD-0
  6
CONTINUOUS
 62
     7
 10
209.0174707792
 20
122.0587954545
 30
0.0
 40
2.599999999999994
  0
CIRCLE
  5
57D
  8
SLD-0
  6
CONTINUOUS
 62
     7
 10
209.0174707792
 20
122.0587954545
 30
0.0
 40
2.900000000000006
  0
ARC
  5
57E
  8
SLD-0
  6
CONTINUOUS
 62
     7
 10
203.0172934002
 20
55.1879810509
 30
0.0
 40
60.10053955049072
 50
85.0507271291
 51
95.0112097813
  0
ARC
  5
57F
  8
SLD-0
  6
CONTINUOUS
 62
     7
 10
199.0174707792
 20
121.2587954545
 30
0.0
 40
2.20000000000001
 50
321.5249788441
 51
128.4750211559
  0
ARC
  5
580
  8
SLD-0
  6
CONTINUOUS
 62
     7
 10
199.0174707792
 20
121.2587954545
 30
0.0
 40
3.500000000000033
 50
319.0960437582
 51
130.9039562418
  0
ARC
  5
581
  8
SLD-0
  6
CONTINUOUS
 62
     7
 10
199.0174707792
 20
121.2587954545
 30
0.0
 40
2.200000000000021
 50
141.5249788441
 51
308.4750211559
  0
ARC
  5
582
  8
SLD-0
  6
CONTINUOUS
 62
     7
 10
199.0174707792
 20
121.2587954545
 30
0.0
 40
3.500000000000031
 50
139.0960437582
 51
310.9039562418
  0
ARC
  5
583
  8
SLD-0
  6
CONTINUOUS
 62
     7
 10
200.7852377322
 20
121.2587954545
 30
0.0
 40
1.000000000000018
 50
135.0
 51
225.0
  0
ARC
  5
584
  8
SLD-0
  6
CONTINUOUS
 62
     7
 10
199.0174704603
 20
123.0265620886
 30
0.0
 40
0.9999995490877932
 50
225.0
 51
314.9999386452
  0
ARC
  5
585
  8
SLD-0
  6
CONTINUOUS
 62
     7
 10
199.0174704312
 20
119.4910281536
 30
0.0
 40
1.000000492085243
 50
45.0
 51
135.0000377754
  0
ARC
  5
586
  8
SLD-0
  6
CONTINUOUS
 62
     7
 10
197.2497036795
 20
121.2587953077
 30
0.0
 40
1.000000207580832
 50
314.9999622286
 51
45.0
  0
ARC
  5
587
  8
SLD-0
  6
CONTINUOUS
 62
     7
 10
199.0174707792
 20
121.2587954545
 30
0.0
 40
3.500000000000022
 50
130.9039562418
 51
139.0960437582
  0
ARC
  5
588
  8
SLD-0
  6
CONTINUOUS
 62
     7
 10
199.0174707792
 20
121.2587954545
 30
0.0
 40
3.500000000000033
 50
310.9039562418
 51
319.0960437582
  0
ARC
  5
589
  8
SLD-0
  6
CONTINUOUS
 62
     7
 10
183.3173206298
 20
55.1764710278
 30
0.0
 40
60.0906905574456
 50
85.2861169593
 51
94.772816694
  0
ARC
  5
58A
  8
SLD-0
  6
CONTINUOUS
 62
     7
 10
192.0174666105
 20
-130.9412029477
 30
0.0
 40
0.4999982119008735
 50
0.0
 51
89.9998510987
  0
ARC
  5
58B
  8
SLD-0
  6
CONTINUOUS
 62
     7
 10
187.5174641161
 20
-135.1761011626
 30
0.0
 40
4.999999293704659
 50
311.2570117043
 51
359.999897609
  0
ARC
  5
58C
  8
SLD-0
  6
CONTINUOUS
 62
     7
 10
179.1174705651
 20
-135.1761030044
 30
0.0
 40
5.000000324663858
 50
180.0
 51
228.743005527
  0
ARC
  5
58D
  8
SLD-0
  6
CONTINUOUS
 62
     7
 10
174.6174666105
 20
-130.9412047895
 30
0.0
 40
0.5000000536576866
 50
90.000305996
 51
179.9996721445
  0
ARC
  5
58E
  8
SLD-0
  6
CONTINUOUS
 62
     7
 10
175.3760505373
 20
-140.2412046991
 30
0.0
 40
0.2999990392228336
 50
90.0
 51
179.9982150149
  0
ARC
  5
58F
  8
SLD-0
  6
CONTINUOUS
 62
     7
 10
191.2588923739
 20
-140.2412045455
 30
0.0
 40
0.2999997616007499
 50
0.0
 51
90.0001757837
  0
ARC
  5
590
  8
SLD-0
  6
CONTINUOUS
 62
     7
 10
191.5808620708
 20
-140.24120437
 30
0.0
 40
0.3000000629228339
 50
0.0017849729
 51
90.0
  0
ARC
  5
591
  8
SLD-0
  6
CONTINUOUS
 62
     7
 10
175.0540808403
 20
-140.2412045455
 30
0.0
 40
0.2999988856728149
 50
90.0
 51
179.9982150131
  0
ARC
  5
592
  8
SLD-0
  6
CONTINUOUS
 62
     7
 10
84.7388474026
 20
119.0587954545
 30
0.0
 40
1.300000000000011
 50
270.0
 51
0.0
  0
ARC
  5
593
  8
SLD-0
  6
CONTINUOUS
 62
     7
 10
84.7388470881
 20
123.4587954545
 30
0.0
 40
1.30000031445006
 50
0.0
 51
89.9999603976
  0
ARC
  5
594
  8
SLD-0
  6
CONTINUOUS
 62
     7
 10
63.5388474026
 20
-118.8412045455
 30
0.0
 40
0.5
 50
180.0
 51
270.0
  0
ARC
  5
595
  8
SLD-0
  6
CONTINUOUS
 62
     7
 10
71.5388474026
 20
-118.8412045455
 30
0.0
 40
0.5
 50
270.0
 51
0.0
  0
ARC
  5
596
  8
SLD-0
  6
CONTINUOUS
 62
     7
 10
63.5388474026
 20
-119.8412045455
 30
0.0
 40
0.5000000000000142
 50
0.0
 51
90.0
  0
ARC
  5
597
  8
SLD-0
  6
CONTINUOUS
 62
     7
 10
71.5388474026
 20
-119.8412045455
 30
0.0
 40
0.5000000000000142
 50
90.0
 51
180.0
  0
ARC
  5
598
  8
SLD-0
  6
CONTINUOUS
 62
     7
 10
67.5388476558
 20
147.0587954244
 30
0.0
 40
26.99999933018298
 50
218.942441269
 51
231.0575594323
  0
ARC
  5
599
  8
SLD-0
  6
CONTINUOUS
 62
     7
 10
67.5388476558
 20
147.0587954244
 30
0.0
 40
26.99999921616066
 50
38.942441269
 51
51.057558305
  0
CIRCLE
  5
59A
  8
SLD-0
  6
CONTINUOUS
 62
     7
 10
67.5388476558
 20
147.0587954244
 30
0.0
 40
16.75000000000001
  0
CIRCLE
  5
59B
  8
SLD-0
  6
CONTINUOUS
 62
     7
 10
67.5388476558
 20
147.0587954244
 30
0.0
 40
18.48205080756891
  0
ARC
  5
59C
  8
SLD-0
  6
CONTINUOUS
 62
     7
 10
67.5388476558
 20
147.0587954244
 30
0.0
 40
26.99999905395071
 50
128.942441269
 51
141.0575585006
  0
ARC
  5
59D
  8
SLD-0
  6
CONTINUOUS
 62
     7
 10
83.0388485931
 20
162.558795514
 30
0.0
 40
2.900000326289581
 50
180.0000157179
 51
269.9999826661
  0
ARC
  5
59E
  8
SLD-0
  6
CONTINUOUS
 62
     7
 10
67.5388476558
 20
147.0587954244
 30
0.0
 40
26.99999959723343
 50
308.942441269
 51
321.0575598905
  0
ARC
  5
59F
  8
SLD-0
  6
CONTINUOUS
 62
     7
 10
52.0388488355
 20
131.558796159
 30
0.0
 40
2.899999670154673
 50
290.1712523624
 51
90.0000080106
  0
ARC
  5
5A0
  8
SLD-0
  6
CONTINUOUS
 62
     7
 10
73.5388474026
 20
-162.0912045455
 30
0.0
 40
0.2000000000000219
 50
300.0000000059
 51
354.9999999999
  0
ARC
  5
5A1
  8
SLD-0
  6
CONTINUOUS
 62
     7
 10
72.6388474026
 20
-164.091201756
 30
0.0
 40
0.3000027895000411
 50
89.9999648592
 51
180.0
  0
ARC
  5
5A2
  8
SLD-0
  6
CONTINUOUS
 62
     7
 10
67.5388474026
 20
175.0587954545
 30
0.0
 40
60.00000044555271
 50
257.4866744692
 51
282.5133255308
  0
ARC
  5
5A3
  8
SLD-0
  6
CONTINUOUS
 62
     7
 10
322.7513736911
 20
123.4587954545
 30
0.0
 40
1.300000314450074
 50
90.0000396024
 51
180.0
  0
ARC
  5
5A4
  8
SLD-0
  6
CONTINUOUS
 62
     7
 10
322.7513736359
 20
119.0587954545
 30
0.0
 40
1.300000259250073
 50
180.0
 51
269.9999628305
  0
ARC
  5
5A5
  8
SLD-0
  6
CONTINUOUS
 62
     7
 10
335.9513733766
 20
-118.8412045455
 30
0.0
 40
0.5
 50
180.0
 51
270.0
  0
ARC
  5
5A6
  8
SLD-0
  6
CONTINUOUS
 62
     7
 10
343.9513733766
 20
-118.8412045455
 30
0.0
 40
0.5
 50
270.0
 51
0.0
  0
ARC
  5
5A7
  8
SLD-0
  6
CONTINUOUS
 62
     7
 10
335.9513733766
 20
-119.8412045455
 30
0.0
 40
0.5000000000000142
 50
0.0
 51
90.0
  0
ARC
  5
5A8
  8
SLD-0
  6
CONTINUOUS
 62
     7
 10
343.9513733766
 20
-119.8412045455
 30
0.0
 40
0.5000000000000142
 50
90.0
 51
180.0
  0
CIRCLE
  5
5A9
  8
SLD-0
  6
CONTINUOUS
 62
     7
 10
339.9513736298
 20
147.0587951412
 30
0.0
 40
3.00000000000002
  0
CIRCLE
  5
5AA
  8
SLD-0
  6
CONTINUOUS
 62
     7
 10
339.9513736298
 20
147.0587951412
 30
0.0
 40
11.00000000000006
  0
ARC
  5
5AB
  8
SLD-0
  6
CONTINUOUS
 62
     7
 10
339.9513736298
 20
147.0587951412
 30
0.0
 40
26.99999991546873
 50
218.942441269
 51
231.0575578953
  0
ARC
  5
5AC
  8
SLD-0
  6
CONTINUOUS
 62
     7
 10
339.9513736298
 20
147.0587951412
 30
0.0
 40
26.99999939697311
 50
128.942441269
 51
141.0575600925
  0
ARC
  5
5AD
  8
SLD-0
  6
CONTINUOUS
 62
     7
 10
339.9513736298
 20
147.0587951412
 30
0.0
 40
26.99999928815302
 50
38.942441269
 51
51.0575590168
  0
ARC
  5
5AE
  8
SLD-0
  6
CONTINUOUS
 62
     7
 10
339.9513736298
 20
147.0587951412
 30
0.0
 40
26.99999959723347
 50
308.942441269
 51
321.0575598905
  0
CIRCLE
  5
5AF
  8
SLD-0
  6
CONTINUOUS
 62
     7
 10
324.4513733766
 20
162.5587954545
 30
0.0
 40
1.5
  0
CIRCLE
  5
5B0
  8
SLD-0
  6
CONTINUOUS
 62
     7
 10
324.4513733766
 20
131.5587954545
 30
0.0
 40
1.5
  0
CIRCLE
  5
5B1
  8
SLD-0
  6
CONTINUOUS
 62
     7
 10
355.4513733766
 20
131.5587954545
 30
0.0
 40
1.5
  0
CIRCLE
  5
5B2
  8
SLD-0
  6
CONTINUOUS
 62
     7
 10
355.4513733766
 20
162.5587954545
 30
0.0
 40
1.5
  0
CIRCLE
  5
5B3
  8
SLD-0
  6
CONTINUOUS
 62
     7
 10
355.4513733766
 20
131.5587954545
 30
0.0
 40
1.25
  0
CIRCLE
  5
5B4
  8
SLD-0
  6
CONTINUOUS
 62
     7
 10
355.4513733766
 20
162.5587954545
 30
0.0
 40
1.250000000000057
  0
CIRCLE
  5
5B5
  8
SLD-0
  6
CONTINUOUS
 62
     7
 10
324.4513733766
 20
131.5587954545
 30
0.0
 40
1.249999999999943
  0
CIRCLE
  5
5B6
  8
SLD-0
  6
CONTINUOUS
 62
     7
 10
324.4513733766
 20
162.5587954545
 30
0.0
 40
1.25
  0
ARC
  5
5B7
  8
SLD-0
  6
CONTINUOUS
 62
     7
 10
339.9513733766
 20
175.0587954545
 30
0.0
 40
59.99999999999999
 50
256.9971218371
 51
283.0028781629
  0
ARC
  5
5B8
  8
SLD-0
  6
CONTINUOUS
 62
     7
 10
339.9513733767
 20
181.0691783517
 30
0.0
 40
60.01025146072412
 50
260.8913996647
 51
279.1086003351
  0
ARC
  5
5B9
  8
SLD-0
  6
CONTINUOUS
 62
     7
 10
334.8513733766
 20
-161.9912045455
 30
0.0
 40
0.3000000000000682
 50
270.0
 51
0.0
  0
ARC
  5
5BA
  8
SLD-0
  6
CONTINUOUS
 62
     7
 10
334.8513733766
 20
-164.0912045455
 30
0.0
 40
0.3000000000000114
 50
0.0
 51
90.0
  0
ARC
  5
5BB
  8
SLD-0
  6
CONTINUOUS
 62
     7
 10
333.9513733766
 20
-162.0912045455
 30
0.0
 40
0.2000000000000455
 50
185.0000000001
 51
270.0
  0
ARC
  5
5BC
  8
SLD-0
  6
CONTINUOUS
 62
     7
 10
324.4513733766
 20
162.5587954545
 30
0.0
 40
1.500000000000038
 50
75.0
 51
345.0
  0
ARC
  5
5BD
  8
SLD-0
  6
CONTINUOUS
 62
     7
 10
324.4513733766
 20
131.5587954545
 30
0.0
 40
1.500000000000038
 50
75.0
 51
345.0
  0
ARC
  5
5BE
  8
SLD-0
  6
CONTINUOUS
 62
     7
 10
355.4513733766
 20
131.5587954545
 30
0.0
 40
1.500000000000093
 50
75.0
 51
345.0
  0
ARC
  5
5BF
  8
SLD-0
  6
CONTINUOUS
 62
     7
 10
355.4513733766
 20
162.5587954545
 30
0.0
 40
1.500000000000093
 50
75.0
 51
345.0
  0
ARC
  5
5C0
  8
SLD-0
  6
CONTINUOUS
 62
     7
 10
273.5947000744
 20
211.5568474026
 30
0.0
 40
100.0
 50
190.6506678105
 51
192.1223522448
  0
ARC
  5
5C1
  8
SLD-0
  6
CONTINUOUS
 62
     7
 10
273.5947000744
 20
211.5568474026
 30
0.0
 40
100.0
 50
167.8776477552
 51
169.3493321895
  0
ARC
  5
5C2
  8
SLD-0
  6
CONTINUOUS
 62
     7
 10
273.5947000744
 20
211.5568474026
 30
0.0
 40
97.77013703968383
 50
170.0041917286
 51
187.4045128782
  0
ARC
  5
5C3
  8
SLD-0
  6
CONTINUOUS
 62
     7
 10
180.7603113349
 20
197.5068477638
 30
0.0
 40
5.350477128034713
 50
164.2759898999
 51
195.7240101006
  0
ARC
  5
5C4
  8
SLD-0
  6
CONTINUOUS
 62
     7
 10
273.5947000744
 20
211.5568474026
 30
0.0
 40
99.20302414746871
 50
188.9890227507
 51
192.2212386679
  0
ARC
  5
5C5
  8
SLD-0
  6
CONTINUOUS
 62
     7
 10
273.5947000744
 20
269.5427384935
 30
0.0
 40
100.0
 50
190.6506678105
 51
192.1223522448
  0
ARC
  5
5C6
  8
SLD-0
  6
CONTINUOUS
 62
     7
 10
273.5947000744
 20
269.5427384935
 30
0.0
 40
100.0
 50
167.8776477552
 51
169.3493321895
  0
ARC
  5
5C7
  8
SLD-0
  6
CONTINUOUS
 62
     7
 10
207.0174707792
 20
535.4427384935
 30
0.0
 40
0.5
 50
0.0
 51
90.0
  0
ARC
  5
5C8
  8
SLD-0
  6
CONTINUOUS
 62
     7
 10
199.0174707792
 20
535.4427384935
 30
0.0
 40
0.5
 50
90.0
 51
180.0
  0
ARC
  5
5C9
  8
SLD-0
  6
CONTINUOUS
 62
     7
 10
207.0174707792
 20
536.4427384935
 30
0.0
 40
0.5
 50
180.0
 51
270.0
  0
ARC
  5
5CA
  8
SLD-0
  6
CONTINUOUS
 62
     7
 10
199.0174707792
 20
536.4427384935
 30
0.0
 40
0.5
 50
270.0
 51
0.0
  0
ARC
  5
5CB
  8
SLD-0
  6
CONTINUOUS
 62
     7
 10
273.5947000744
 20
269.5427384935
 30
0.0
 40
97.77013608913914
 50
172.5954868136
 51
189.9958085935
  0
ARC
  5
5CC
  8
SLD-0
  6
CONTINUOUS
 62
     7
 10
273.5947000744
 20
269.5427384935
 30
0.0
 40
98.94316635277323
 50
167.7461666352
 51
169.3873908113
  0
ARC
  5
5CD
  8
SLD-0
  6
CONTINUOUS
 62
     7
 10
179.1174719937
 20
551.7776353239
 30
0.0
 40
5.000001841754417
 50
131.2570117043
 51
179.9998976091
  0
ARC
  5
5CE
  8
SLD-0
  6
CONTINUOUS
 62
     7
 10
187.5174698108
 20
551.7776309877
 30
0.0
 40
5.000001100954242
 50
0.0
 51
48.742985245
  0
ARC
  5
5CF
  8
SLD-0
  6
CONTINUOUS
 62
     7
 10
192.0174702055
 20
547.5427327727
 30
0.0
 40
0.4999992937041497
 50
270.0
 51
359.9996721526
  0
ARC
  5
5D0
  8
SLD-0
  6
CONTINUOUS
 62
     7
 10
174.6174702055
 20
547.5427371089
 30
0.0
 40
0.5000000536076354
 50
180.000327844
 51
269.999694004
  0
ARC
  5
5D1
  8
SLD-0
  6
CONTINUOUS
 62
     7
 10
175.3760505373
 20
556.8427398463
 30
0.0
 40
0.2999997616002448
 50
180.0
 51
269.9999139416
  0
ARC
  5
5D2
  8
SLD-0
  6
CONTINUOUS
 62
     7
 10
191.2588923519
 20
556.8427384935
 30
0.0
 40
0.3000002164228622
 50
270.0
 51
359.9982150481
  0
ARC
  5
5D3
  8
SLD-0
  6
CONTINUOUS
 62
     7
 10
175.0540808403
 20
556.8427384935
 30
0.0
 40
0.2999988856729487
 50
180.0017849678
 51
270.0
  0
ARC
  5
5D4
  8
SLD-0
  6
CONTINUOUS
 62
     7
 10
191.5808620488
 20
556.84273834
 30
0.0
 40
0.300000062922777
 50
270.0
 51
359.9982150462
  0
ARC
  5
5D5
  8
SLD-0
  6
CONTINUOUS
 62
     7
 10
273.5947000744
 20
650.0172878358
 30
0.0
 40
99.99999999998533
 50
190.6506678105
 51
192.1223522448
  0
ARC
  5
5D6
  8
SLD-0
  6
CONTINUOUS
 62
     7
 10
273.5947000744
 20
650.0172878358
 30
0.0
 40
100.0
 50
167.8776477552
 51
169.3493321895
  0
ARC
  5
5D7
  8
SLD-0
  6
CONTINUOUS
 62
     7
 10
196.8174707792
 20
667.2172878359
 30
0.0
 40
1.300000000000011
 50
90.0
 51
180.0
  0
ARC
  5
5D8
  8
SLD-0
  6
CONTINUOUS
 62
     7
 10
201.2174707792
 20
667.2172877226
 30
0.0
 40
1.300000113250052
 50
0.0000307348
 51
90.0
  0
ARC
  5
5D9
  8
SLD-0
  6
CONTINUOUS
 62
     7
 10
273.5947000744
 20
650.0172878358
 30
0.0
 40
99.20302414745235
 50
188.9890230408
 51
192.2212386679
  0
ARC
  5
5DA
  8
SLD-0
  6
CONTINUOUS
 62
     7
 10
273.5947000744
 20
650.0172878358
 30
0.0
 40
97.77013859047386
 50
183.5770779175
 51
188.5288298636
  0
ARC
  5
5DB
  8
SLD-0
  6
CONTINUOUS
 62
     7
 10
273.5947000744
 20
650.0172878358
 30
0.0
 40
97.77013634425597
 50
170.0041917286
 51
176.4229220825
  0
ARC
  5
5DC
  8
SLD-0
  6
CONTINUOUS
 62
     7
 10
218.5174714054
 20
659.5172890328
 30
0.0
 40
3.9999991532853
 50
359.99997848
 51
90.0000215203
  0
ARC
  5
5DD
  8
SLD-0
  6
CONTINUOUS
 62
     7
 10
218.5174703593
 20
640.5172876851
 30
0.0
 40
4.000000199384258
 50
269.9999934642
 51
0.000006536
  0
ARC
  5
5DE
  8
SLD-0
  6
CONTINUOUS
 62
     7
 10
207.2174707792
 20
645.2172878359
 30
0.0
 40
0.25
 50
180.0
 51
0.0
  0
ARC
  5
5DF
  8
SLD-0
  6
CONTINUOUS
 62
     7
 10
206.6674708806
 20
645.2172878359
 30
0.0
 40
0.2500001013500821
 50
180.0
 51
359.9999477463
  0
ARC
  5
5E0
  8
SLD-0
  6
CONTINUOUS
 62
     7
 10
203.2924702547
 20
645.2172878359
 30
0.0
 40
0.2499994755000614
 50
180.0
 51
359.9999477461
  0
ARC
  5
5E1
  8
SLD-0
  6
CONTINUOUS
 62
     7
 10
202.7424711875
 20
645.2172878359
 30
0.0
 40
0.2500004083000533
 50
180.0
 51
359.9999477463
  0
ARC
  5
5E2
  8
SLD-0
  6
CONTINUOUS
 62
     7
 10
198.8174714945
 20
645.2172878359
 30
0.0
 40
0.2500007152501001
 50
180.0
 51
359.9999477464
  0
ARC
  5
5E3
  8
SLD-0
  6
CONTINUOUS
 62
     7
 10
207.7674708776
 20
645.2172878359
 30
0.0
 40
0.250000098350057
 50
180.0
 51
359.9999477462
  0
ARC
  5
5E4
  8
SLD-0
  6
CONTINUOUS
 62
     7
 10
203.1389422451
 20
651.9970905438
 30
0.0
 40
0.6293525054989193
 50
329.8472588477
 51
14.7315607435
  0
ARC
  5
5E5
  8
SLD-0
  6
CONTINUOUS
 62
     7
 10
186.9674692263
 20
652.1172894333
 30
0.0
 40
1.000000044500535
 50
45.2806413896
 51
89.9999142798
  0
ARC
  5
5E6
  8
SLD-0
  6
CONTINUOUS
 62
     7
 10
188.5674687749
 20
651.3772908048
 30
0.0
 40
0.4000006123723067
 50
359.9996203895
 51
45.280286744
  0
ARC
  5
5E7
  8
SLD-0
  6
CONTINUOUS
 62
     7
 10
188.5674702992
 20
648.6572881546
 30
0.0
 40
0.4000009119499737
 50
314.7193586104
 51
0.0000007591
  0
ARC
  5
5E8
  8
SLD-0
  6
CONTINUOUS
 62
     7
 10
186.9674708237
 20
647.9172876249
 30
0.0
 40
0.9999998335117612
 50
270.0
 51
314.7193376825
  0
ARC
  5
5E9
  8
SLD-0
  6
CONTINUOUS
 62
     7
 10
178.0674708237
 20
647.3172878359
 30
0.0
 40
0.4000000445079195
 50
180.0
 51
270.0005122671
  0
ARC
  5
5EA
  8
SLD-0
  6
CONTINUOUS
 62
     7
 10
178.0674692263
 20
652.7172878359
 30
0.0
 40
0.4000016419079915
 50
89.9994877329
 51
179.9999899733
  0
ENDSEC
  0
EOF
